  0
SECTION
  2
HEADER
  9
$ACADVER
  1
AC1009
  9
$INSBASE
 10
0.0
 20
0.0
 30
0.0
  9
$EXTMIN
 10
0.0
 20
-2.960436562073669
 30
0.0
  9
$EXTMAX
 10
346.183815343395
 20
235.0
 30
0.0
  9
$LIMMIN
 10
0.0
 20
0.0
  9
$LIMMAX
 10
375.0
 20
270.0
  9
$ORTHOMODE
 70
     1
  9
$REGENMODE
 70
     1
  9
$FILLMODE
 70
     1
  9
$QTEXTMODE
 70
     0
  9
$MIRRTEXT
 70
     0
  9
$DRAGMODE
 70
     2
  9
$LTSCALE
 40
10.0
  9
$OSMODE
 70
    55
  9
$ATTMODE
 70
     1
  9
$TEXTSIZE
 40
4.000000000000048
  9
$TRACEWID
 40
0.05
  9
$TEXTSTYLE
  7
STANDARD
  9
$CLAYER
  8
0
  9
$CELTYPE
  6
BYLAYER
  9
$CECOLOR
 62
   256
  9
$DIMSCALE
 40
1.0
  9
$DIMASZ
 40
3.0
  9
$DIMEXO
 40
2.0
  9
$DIMDLI
 40
0.38
  9
$DIMRND
 40
0.0
  9
$DIMDLE
 40
0.0
  9
$DIMEXE
 40
2.0
  9
$DIMTP
 40
0.0
  9
$DIMTM
 40
0.0
  9
$DIMTXT
 40
3.2000000000000002
  9
$DIMCEN
 40
0.0
  9
$DIMTSZ
 40
0.0
  9
$DIMTOL
 70
     0
  9
$DIMLIM
 70
     0
  9
$DIMTIH
 70
     0
  9
$DIMTOH
 70
     0
  9
$DIMSE1
 70
     0
  9
$DIMSE2
 70
     0
  9
$DIMTAD
 70
     1
  9
$DIMZIN
 70
     0
  9
$DIMBLK
  1

  9
$DIMASO
 70
     1
  9
$DIMSHO
 70
     0
  9
$DIMPOST
  1

  9
$DIMAPOST
  1

  9
$DIMALT
 70
     0
  9
$DIMALTD
 70
     2
  9
$DIMALTF
 40
25.399999999999999
  9
$DIMLFAC
 40
1.0
  9
$DIMTOFL
 70
     1
  9
$DIMTVP
 40
1.6000000000000001
  9
$DIMTIX
 70
     1
  9
$DIMSOXD
 70
     0
  9
$DIMSAH
 70
     0
  9
$DIMBLK1
  1

  9
$DIMBLK2
  1

  9
$DIMSTYLE
  2
STANDARD
  9
$DIMCLRD
 70
     0
  9
$DIMCLRE
 70
     0
  9
$DIMCLRT
 70
     0
  9
$DIMTFAC
 40
1.0
  9
$DIMGAP
 40
0.09
  9
$LUNITS
 70
     2
  9
$LUPREC
 70
     4
  9
$SKETCHINC
 40
0.1
  9
$FILLETRAD
 40
3.0
  9
$AUNITS
 70
     0
  9
$AUPREC
 70
     4
  9
$MENU
  1
E:\r13\win\SUPPORT\ACAD
  9
$ELEVATION
 40
0.0
  9
$PELEVATION
 40
0.0
  9
$THICKNESS
 40
0.0
  9
$LIMCHECK
 70
     0
  9
$BLIPMODE
 70
     0
  9
$CHAMFERA
 40
0.0
  9
$CHAMFERB
 40
0.0
  9
$SKPOLY
 70
     0
  9
$TDCREATE
 40
2449839.7894097222
  9
$TDUPDATE
 40
2456598.4229309028
  9
$TDINDWG
 40
0.0001504282
  9
$TDUSRTIMER
 40
0.0001504282
  9
$USRTIMER
 70
     1
  9
$ANGBASE
 50
0.0
  9
$ANGDIR
 70
     0
  9
$PDMODE
 70
     0
  9
$PDSIZE
 40
0.0
  9
$PLINEWID
 40
0.0
  9
$COORDS
 70
     1
  9
$SPLFRAME
 70
     0
  9
$SPLINETYPE
 70
     6
  9
$SPLINESEGS
 70
     8
  9
$ATTDIA
 70
     0
  9
$ATTREQ
 70
     1
  9
$HANDLING
 70
     1
  9
$HANDSEED
  5
30E
  9
$SURFTAB1
 70
     6
  9
$SURFTAB2
 70
     6
  9
$SURFTYPE
 70
     6
  9
$SURFU
 70
     6
  9
$SURFV
 70
     6
  9
$UCSNAME
  2

  9
$UCSORG
 10
0.0
 20
0.0
 30
0.0
  9
$UCSXDIR
 10
1.0
 20
0.0
 30
0.0
  9
$UCSYDIR
 10
0.0
 20
1.0
 30
0.0
  9
$PUCSNAME
  2

  9
$PUCSORG
 10
0.0
 20
0.0
 30
0.0
  9
$PUCSXDIR
 10
1.0
 20
0.0
 30
0.0
  9
$PUCSYDIR
 10
0.0
 20
1.0
 30
0.0
  9
$USERI1
 70
     0
  9
$USERI2
 70
     1
  9
$USERI3
 70
     1
  9
$USERI4
 70
     0
  9
$USERI5
 70
     0
  9
$USERR1
 40
0.0
  9
$USERR2
 40
0.0
  9
$USERR3
 40
0.0
  9
$USERR4
 40
0.0
  9
$USERR5
 40
0.0
  9
$WORLDVIEW
 70
     1
  9
$SHADEDGE
 70
     3
  9
$SHADEDIF
 70
    70
  9
$TILEMODE
 70
     1
  9
$MAXACTVP
 70
    16
  9
$PLIMCHECK
 70
     0
  9
$PEXTMIN
 10
1.0000000000000000E+020
 20
1.0000000000000000E+020
 30
1.0000000000000000E+020
  9
$PEXTMAX
 10
-1.0000000000000000E+020
 20
-1.0000000000000000E+020
 30
-1.0000000000000000E+020
  9
$PLIMMIN
 10
0.0
 20
0.0
  9
$PLIMMAX
 10
12.0
 20
9.0
  9
$UNITMODE
 70
     0
  9
$VISRETAIN
 70
     0
  9
$PLINEGEN
 70
     0
  9
$PSLTSCALE
 70
     0
  0
ENDSEC
  0
SECTION
  2
TABLES
  0
TABLE
  2
VPORT
 70
     1
  0
VPORT
  2
*ACTIVE
 70
     0
 10
0.0
 20
0.0
 11
1.0
 21
1.0
 12
187.4942783906524
 22
197.0509055860143
 13
0.0
 23
0.0
 14
10.0
 24
10.0
 15
10.0
 25
10.0
 16
0.0
 26
0.0
 36
1.0
 17
0.0
 27
0.0
 37
0.0
 40
403.57315882993248
 41
1.7807262569832401
 42
50.0
 43
0.0
 44
0.0
 50
0.0
 51
0.0
 71
     0
 72
   500
 73
     1
 74
     0
 75
     0
 76
     0
 77
     0
 78
     2
  0
ENDTAB
  0
TABLE
  2
LTYPE
 70
     4
  0
LTYPE
  2
CONTINUOUS
 70
     0
  3
Solid Line
 72
    65
 73
     0
 40
0.0
  0
LTYPE
  2
CENTER
 70
     0
  3
____ _ ____ _ ____ _ ____ _ ____ _ ____ _ ____
 72
    65
 73
     4
 40
2.0
 49
1.25
 49
-0.25
 49
0.25
 49
-0.25
  0
LTYPE
  2
HIDDEN
 70
     0
  3
_ _ _ _ _ _ _ _ _ _ _ _ _ _ _ _ _ _ _ _ _ _ _
 72
    65
 73
     2
 40
0.375
 49
0.25
 49
-0.125
  0
LTYPE
  2
PHANTOM2
 70
     0
  3
___ _ _ ___ _ _ ___ _ _ ___ _ _
 72
    65
 73
     6
 40
1.25
 49
0.625
 49
-0.125
 49
0.125
 49
-0.125
 49
0.125
 49
-0.125
  0
ENDTAB
  0
TABLE
  2
LAYER
 70
     3
  0
LAYER
  2
0
 70
     0
 62
     7
  6
CONTINUOUS
  0
LAYER
  2
1
 70
     0
 62
     1
  6
CENTER
  0
LAYER
  2
2
 70
     0
 62
     2
  6
HIDDEN
  0
ENDTAB
  0
TABLE
  2
STYLE
 70
     2
  0
STYLE
  2
STANDARD
 70
     0
 40
0.0
 41
1.0
 50
0.0
 71
     0
 42
4.000000000000048
  3
TXT
  4
BIGFONT
  0
STYLE
  2
STANDARD1
 70
     0
 40
0.0
 41
1.0
 50
0.0
 71
     0
 42
3.0
  3
txt
  4

  0
ENDTAB
  0
TABLE
  2
VIEW
 70
     1
  0
VIEW
  2
ALL
 70
     0
 40
270.0
 10
220.99159663865549
 20
135.0
 41
0.0
 11
0.0
 21
0.0
 31
1.0
 12
0.0
 22
0.0
 32
0.0
 42
0.0
 43
0.0
 44
0.0
 50
0.0
 71
     0
  0
ENDTAB
  0
TABLE
  2
UCS
 70
     0
  0
ENDTAB
  0
TABLE
  2
APPID
 70
     3
  0
APPID
  2
ACAD
 70
     0
  0
APPID
  2
ACAD_MLEADERVER
 70
     0
  0
APPID
  2
ACAD_NAV_VCDISPLAY
 70
     0
  0
ENDTAB
  0
TABLE
  2
DIMSTYLE
 70
     1
  0
DIMSTYLE
  2
STANDARD
 70
     0
  3

  4

  5

  6

  7

 40
1.0
 41
0.18
 42
0.0625
 43
0.38
 44
0.18
 45
0.0
 46
0.0
 47
0.0
 48
0.0
140
0.18
141
0.09
142
0.0
143
25.399999999999999
144
1.0
145
0.0
146
1.0
147
0.09
 71
     0
 72
     0
 73
     1
 74
     1
 75
     0
 76
     0
 77
     0
 78
     0
170
     0
171
     2
172
     0
173
     0
174
     0
175
     0
176
     0
177
     0
178
     0
  0
ENDTAB
  0
ENDSEC
  0
SECTION
  2
BLOCKS
  0
BLOCK
  8
0
  2
$MODEL_SPACE
 70
     0
 10
0.0
 20
0.0
 30
0.0
  3
$MODEL_SPACE
  1

  0
ENDBLK
  5
18F
  8
0
  0
BLOCK
 67
     1
  8
0
  2
$PAPER_SPACE
 70
     0
 10
0.0
 20
0.0
 30
0.0
  3
$PAPER_SPACE
  1

  0
ENDBLK
  5
18D
 67
     1
  8
0
  0
ENDSEC
  0
SECTION
  2
ENTITIES
  0
ARC
  5
35
  8
0
 10
180.00000000000011
 20
180.0
 30
0.0
 40
50.0
 50
355.13587443102119
 51
4.8641255689786771
  0
LINE
  5
36
  8
1
 10
235.00000000000011
 20
180.0
 30
0.0
 11
125.0000000000001
 21
180.0
 31
0.0
  0
LINE
  5
37
  8
1
 10
180.00000000000011
 20
235.0
 30
0.0
 11
180.0
 21
125.0
 31
0.0
  0
LINE
  5
38
  8
0
 10
227.4134364416374
 20
173.07186034712549
 30
0.0
 11
194.46477247096141
 21
166.54784919838849
 31
0.0
  0
LINE
  5
39
  8
0
 10
227.4134364416374
 20
186.92813965287439
 30
0.0
 11
194.46476987532751
 21
193.45215131556071
 31
0.0
  0
ARC
  5
3A
  8
0
 10
180.00000000000011
 20
180.0
 30
0.0
 40
49.0
 50
355.02584855537208
 51
4.974151444627787
  0
LINE
  5
3B
  8
0
 10
227.211462771535
 20
186.03710679743429
 30
0.0
 11
193.98238767931039
 21
192.61664084339219
 31
0.0
  0
LINE
  5
3C
  8
0
 10
227.211462771535
 20
173.96289320256571
 30
0.0
 11
193.98238767931051
 21
167.3833591566077
 31
0.0
  0
LINE
  5
3D
  8
0
 10
151.16598076229479
 20
217.86777271125521
 30
0.0
 11
162.08247467954291
 21
185.80078251414901
 31
0.0
  0
ARC
  5
3E
  8
0
 10
180.0
 20
179.99999999999989
 30
0.0
 40
49.0
 50
115.02584855537199
 51
124.97415144462779
  0
LINE
  5
3F
  8
0
 10
150.29333683882581
 20
217.5971706127394
 30
0.0
 11
161.1177102875084
 21
185.8007825948618
 31
0.0
  0
ARC
  5
40
  8
0
 10
180.0
 20
179.99999999999989
 30
0.0
 40
50.0
 50
115.13587443102119
 51
124.86412556897881
  0
LINE
  5
41
  8
0
 10
161.62255646617049
 20
223.9048795086895
 30
0.0
 11
183.93513764114681
 21
198.4174233575414
 31
0.0
  0
LINE
  5
42
  8
0
 10
162.2932267195371
 20
224.5253102656138
 30
0.0
 11
184.41751983716401
 21
199.25293382971
 31
0.0
  0
LINE
  5
43
  8
0
 10
161.62255646617061
 20
136.09512049131041
 30
0.0
 11
183.93513764114701
 21
161.58257664245849
 31
0.0
  0
ARC
  5
44
  8
0
 10
180.00000000000011
 20
179.99999999999989
 30
0.0
 40
49.0
 50
235.02584855537199
 51
244.97415144462801
  0
LINE
  5
45
  8
0
 10
162.2932267195371
 20
135.47468973438609
 30
0.0
 11
184.41751794657071
 21
160.74706401068241
 31
0.0
  0
ARC
  5
46
  8
0
 10
180.00000000000011
 20
179.99999999999989
 30
0.0
 40
50.0
 50
235.13587443102111
 51
244.86412556897881
  0
LINE
  5
47
  8
0
 10
151.16598076229491
 20
142.1322272887447
 30
0.0
 11
162.08247467954291
 21
174.1992174858506
 31
0.0
  0
LINE
  5
48
  8
0
 10
150.29333683882581
 20
142.40282938726051
 30
0.0
 11
161.1177102875084
 21
174.19921756656331
 31
0.0
  0
CIRCLE
  5
49
  8
0
 10
180.0
 20
180.00000000000011
 30
0.0
 40
16.0
  0
CIRCLE
  5
4A
  8
0
 10
180.0
 20
180.00000000000011
 30
0.0
 40
14.800000000000001
  0
CIRCLE
  5
4B
  8
0
 10
180.0
 20
180.0
 30
0.0
 40
12.5
  0
ARC
  5
4C
  8
0
 10
226.83073338797749
 20
183.98527418682681
 30
0.0
 40
3.0
 50
4.8641255689784231
 51
78.799999999999571
  0
ARC
  5
4D
  8
0
 10
226.83073338797749
 20
176.0147258131731
 30
0.0
 40
3.0
 50
281.19999999999987
 51
355.13587443102131
  0
ARC
  5
4E
  8
0
 10
160.03598199284991
 20
137.45075811474209
 30
0.0
 40
3.0
 50
244.8641255689792
 51
318.80000000000013
  0
ARC
  5
4F
  8
0
 10
153.13328461917291
 20
141.4360323015689
 30
0.0
 40
3.0
 50
161.19999999999951
 51
235.13587443102131
  0
ARC
  5
50
  8
0
 10
160.03598199284991
 20
222.5492418852578
 30
0.0
 40
3.0
 50
41.19999999999996
 51
115.13587443102161
  0
ARC
  5
51
  8
0
 10
153.13328461917291
 20
218.5639676984309
 30
0.0
 40
3.0
 50
124.86412556897911
 51
198.80000000000001
  0
ARC
  5
52
  8
0
 10
226.82299406909499
 20
184.0751964867359
 30
0.0
 40
2.0
 50
4.9741514446274309
 51
78.79999999999967
  0
ARC
  5
53
  8
0
 10
226.82299406909499
 20
175.92480351326401
 30
0.0
 40
2.0
 50
281.20000000000027
 51
355.02584855537208
  0
ARC
  5
54
  8
0
 10
160.11772664837909
 20
137.4124994115478
 30
0.0
 40
2.0
 50
244.97415144462749
 51
318.80000000000013
  0
ARC
  5
55
  8
0
 10
153.05927928252621
 20
141.48769589828359
 30
0.0
 40
2.0
 50
161.1999999999999
 51
235.0258485553712
  0
ARC
  5
56
  8
0
 10
153.05927928252621
 20
218.51230410171621
 30
0.0
 40
2.0
 50
124.97415144462811
 51
198.80000000000001
  0
ARC
  5
57
  8
0
 10
160.117726648379
 20
222.58750058845209
 30
0.0
 40
2.0
 50
41.200000000000323
 51
115.02584855537199
  0
ARC
  5
58
  8
0
 10
197.96098819728729
 20
148.89065588815379
 30
0.0
 40
18.0
 50
101.2
 51
138.7999999999999
  0
ARC
  5
59
  8
0
 10
197.47860600127001
 20
149.7261663603222
 30
0.0
 40
18.0
 50
101.2
 51
138.7999999999999
  0
ARC
  5
5A
  8
0
 10
197.96098819728701
 20
211.10934411184621
 30
0.0
 40
18.0
 50
221.19999999999979
 51
258.80000000000001
  0
ARC
  5
5B
  8
0
 10
197.47860600126981
 20
210.27383363967769
 30
0.0
 40
18.0
 50
221.19999999999999
 51
258.80000000000001
  0
ARC
  5
5C
  8
0
 10
145.04278799746029
 20
179.9999999999998
 30
0.0
 40
18.0
 50
341.19999999999987
 51
18.79999999999999
  0
ARC
  5
5D
  8
0
 10
144.0780236054259
 20
180.0000000807126
 30
0.0
 40
18.0
 50
341.19999999999987
 51
18.79999999999999
  0
LINE
  5
5E
  8
2
 10
63.0
 20
84.999999999999986
 30
0.0
 11
62.0
 21
83.999999999999957
 31
0.0
  0
LINE
  5
5F
  8
2
 10
78.000000000000057
 20
83.999999999999957
 30
0.0
 11
77.000000000000057
 21
84.999999999999986
 31
0.0
  0
LINE
  5
60
  8
2
 10
64.946999999999775
 20
81.999999999999972
 30
0.0
 11
70.0
 21
84.917350910215276
 31
0.0
  0
LINE
  5
61
  8
0
 10
84.800000000000068
 20
95.999999999999972
 30
0.0
 11
85.749950413641471
 21
95.050049586358483
 31
0.0
  0
LINE
  5
62
  8
2
 10
77.000000000000057
 20
84.999999999999986
 30
0.0
 11
63.0
 21
84.999999999999986
 31
0.0
  0
LINE
  5
63
  8
0
 10
53.0
 20
60.299999999999933
 30
0.0
 11
52.0
 21
61.299999999999919
 31
0.0
  0
LINE
  5
64
  8
0
 10
88.000000000000057
 20
61.29999999999999
 30
0.0
 11
87.000000000000057
 21
60.299999999999983
 31
0.0
  0
LINE
  5
65
  8
0
 10
52.0
 20
75.717069416589666
 30
0.0
 11
52.0
 21
61.299999999999919
 31
0.0
  0
LINE
  5
66
  8
0
 10
88.000000000000156
 20
75.717069416589794
 30
0.0
 11
88.000000000000057
 21
61.29999999999999
 31
0.0
  0
LINE
  5
67
  8
0
 10
87.000000000000057
 20
60.299999999999983
 30
0.0
 11
52.999999999999943
 21
60.299999999999983
 31
0.0
  0
LINE
  5
68
  8
1
 10
69.999999999999986
 20
107.0
 30
0.0
 11
70.0
 21
54.999999999999972
 31
0.0
  0
LINE
  5
69
  8
0
 10
84.800000000000068
 20
95.999999999999972
 30
0.0
 11
55.199999999999932
 21
95.999999999999986
 31
0.0
  0
LINE
  5
6A
  8
0
 10
78.000000000000057
 20
59.999999999999972
 30
0.0
 11
62.000000000000057
 21
59.999999999999972
 31
0.0
  0
LINE
  5
6B
  8
2
 10
62.947000000000003
 20
59.999999999999972
 30
0.0
 11
64.94700000000006
 21
61.999999999999972
 31
0.0
  0
LINE
  5
6C
  8
2
 10
75.052999999999997
 20
61.999999999999972
 30
0.0
 11
64.94700000000006
 21
61.999999999999972
 31
0.0
  0
LINE
  5
6D
  8
2
 10
63.999999999999709
 20
79.999999999999972
 30
0.0
 11
64.946999999999662
 21
81.640252114767677
 31
0.0
  0
LINE
  5
6E
  8
2
 10
64.94700000000023
 20
81.999999999999972
 30
0.0
 11
75.052999999999756
 21
81.999999999999972
 31
0.0
  0
LINE
  5
6F
  8
2
 10
64.000000000000057
 20
79.999999999999972
 30
0.0
 11
76.0
 21
79.999999999999972
 31
0.0
  0
LINE
  5
70
  8
2
 10
64.94700000000006
 20
61.999999999999972
 30
0.0
 11
64.94700000000023
 21
81.999999999999972
 31
0.0
  0
LINE
  5
71
  8
2
 10
64.000000000000057
 20
61.052999999999969
 30
0.0
 11
64.000000000000057
 21
79.999999999999972
 31
0.0
  0
LINE
  5
72
  8
0
 10
84.888843115081286
 20
94.799999999999997
 30
0.0
 11
55.111156884918692
 21
94.800000000000026
 31
0.0
  0
LINE
  5
73
  8
2
 10
75.999999999999943
 20
61.052999999999969
 30
0.0
 11
75.999999999999943
 21
79.999999999999972
 31
0.0
  0
LINE
  5
74
  8
2
 10
75.05299999999994
 20
61.999999999999972
 30
0.0
 11
75.052999999999756
 21
81.999999999999972
 31
0.0
  0
LINE
  5
75
  8
2
 10
76.000000000000284
 20
79.999999999999972
 30
0.0
 11
75.053000000000324
 21
81.640252114767677
 31
0.0
  0
LINE
  5
76
  8
2
 10
77.052999999999997
 20
59.999999999999972
 30
0.0
 11
75.05299999999994
 21
61.999999999999972
 31
0.0
  0
LINE
  5
77
  8
2
 10
75.053000000000225
 20
81.999999999999972
 30
0.0
 11
70.0
 21
84.917350910215276
 31
0.0
  0
LINE
  5
78
  8
0
 10
62.000000000000057
 20
60.299999999999983
 30
0.0
 11
62.000000000000057
 21
59.999999999999972
 31
0.0
  0
LINE
  5
79
  8
2
 10
62.000000000000057
 20
60.299999999999983
 30
0.0
 11
62.0
 21
83.999999999999957
 31
0.0
  0
LINE
  5
7A
  8
0
 10
78.000000000000057
 20
60.299999999999983
 30
0.0
 11
78.000000000000057
 21
59.999999999999972
 31
0.0
  0
LINE
  5
7B
  8
2
 10
78.000000000000057
 20
60.299999999999983
 30
0.0
 11
78.000000000000057
 21
83.999999999999915
 31
0.0
  0
LINE
  5
7C
  8
0
 10
87.288157615539973
 20
77.000000000000071
 30
0.0
 11
78.605820959521935
 21
77.000000000000071
 31
0.0
  0
LINE
  5
7D
  8
0
 10
52.0
 20
61.299999999999947
 30
0.0
 11
88.000000000000057
 21
61.300000000000011
 31
0.0
  0
LINE
  5
7E
  8
0
 10
162.0
 20
61.299999999999947
 30
0.0
 11
198.0
 21
61.300000000000011
 31
0.0
  0
LINE
  5
7F
  8
0
 10
196.90465533770609
 20
78.175254144121084
 30
0.0
 11
227.5619098901241
 21
90.561588995402204
 31
0.0
  0
ARC
  5
80
  8
0
 10
188.23633375886479
 20
75.750578253365461
 30
0.0
 40
3.0
 50
73.162268751733023
 51
120.1832064013163
  0
ARC
  5
81
  8
0
 10
196.34274544758219
 20
79.566029925971264
 30
0.0
 40
3.0
 50
253.16226875173311
 51
291.99999999999989
  0
ARC
  5
82
  8
0
 10
184.3741176367497
 20
80.445282660494271
 30
0.0
 40
3.0
 50
241.26029279110529
 51
300.1832064013189
  0
LINE
  5
83
  8
0
 10
189.1053202453335
 20
78.621965111024082
 30
0.0
 11
195.47375896111339
 21
76.694643068312644
 31
0.0
  0
LINE
  5
84
  8
0
 10
185.88241744568759
 20
77.852016055156923
 30
0.0
 11
186.7280339499269
 21
78.343844858702866
 31
0.0
  0
LINE
  5
85
  8
0
 10
160.84131527835399
 20
89.928839226725117
 30
0.0
 11
182.93162384699349
 21
77.814843216881371
 31
0.0
  0
LINE
  5
86
  8
0
 10
150.98848965760581
 20
89.928839226725117
 30
0.0
 11
159.8413152783539
 21
89.928839226725117
 31
0.0
  0
LINE
  5
87
  8
0
 10
160.84131527835399
 20
100.900261518664
 30
0.0
 11
160.84131527835399
 21
90.928839226722829
 31
0.0
  0
ARC
  5
88
  8
0
 10
160.0
 20
76.195130235488818
 30
0.0
 40
2.0
 50
0.0
 51
43.84314869235606
  0
ARC
  5
89
  8
0
 10
152.58298502915559
 20
91.136143873491974
 30
0.0
 40
3.0
 50
179.9999999999996
 51
223.8431486923559
  0
LINE
  5
8A
  8
0
 10
150.41926869028001
 20
89.058084296655238
 30
0.0
 11
161.44247755925039
 21
77.580503286713295
 31
0.0
  0
LINE
  5
8B
  8
0
 10
182.33778817987451
 20
77.000000000000071
 30
0.0
 11
162.89001464739769
 21
77.000000000000071
 31
0.0
  0
ARC
  5
8C
  8
0
 10
188.60460451783291
 20
96.476556140555374
 30
0.0
 40
6.0
 50
246.51088579602239
 51
285.0
  0
ARC
  5
8D
  8
0
 10
186.3941626412649
 20
97.437184295428125
 30
0.0
 40
6.0
 50
246.51088579602251
 51
285.0
  0
LINE
  5
8E
  8
0
 10
226.6117714323463
 20
100.4488887394335
 30
0.0
 11
190.1575187884481
 21
90.681001182820935
 31
0.0
  0
LINE
  5
8F
  8
2
 10
188.0
 20
60.299999999999983
 30
0.0
 11
188.0
 21
83.999999999999915
 31
0.0
  0
LINE
  5
90
  8
0
 10
188.0
 20
60.299999999999983
 30
0.0
 11
188.0
 21
59.999999999999972
 31
0.0
  0
LINE
  5
91
  8
2
 10
172.0
 20
60.299999999999983
 30
0.0
 11
172.0
 21
83.999999999999957
 31
0.0
  0
LINE
  5
92
  8
0
 10
172.0
 20
60.299999999999983
 30
0.0
 11
172.0
 21
59.999999999999972
 31
0.0
  0
LINE
  5
93
  8
2
 10
185.0530000000002
 20
81.999999999999972
 30
0.0
 11
180.0
 21
84.917350910215276
 31
0.0
  0
LINE
  5
94
  8
2
 10
187.053
 20
59.999999999999972
 30
0.0
 11
185.05299999999991
 21
61.999999999999972
 31
0.0
  0
LINE
  5
95
  8
2
 10
186.00000000000031
 20
79.999999999999972
 30
0.0
 11
185.05300000000031
 21
81.640252114767677
 31
0.0
  0
LINE
  5
96
  8
2
 10
185.05299999999991
 20
61.999999999999972
 30
0.0
 11
185.0529999999998
 21
81.999999999999972
 31
0.0
  0
LINE
  5
97
  8
2
 10
185.99999999999989
 20
61.052999999999969
 30
0.0
 11
185.99999999999989
 21
79.999999999999972
 31
0.0
  0
LINE
  5
98
  8
0
 10
196.0
 20
94.799999999999983
 30
0.0
 11
177.4087887909302
 21
94.799999999999997
 31
0.0
  0
LINE
  5
99
  8
2
 10
174.0
 20
61.052999999999969
 30
0.0
 11
174.0
 21
79.999999999999972
 31
0.0
  0
LINE
  5
9A
  8
2
 10
174.947
 20
61.999999999999972
 30
0.0
 11
174.9470000000002
 21
81.999999999999972
 31
0.0
  0
LINE
  5
9B
  8
2
 10
174.0
 20
79.999999999999972
 30
0.0
 11
186.0
 21
79.999999999999972
 31
0.0
  0
LINE
  5
9C
  8
2
 10
174.9470000000002
 20
81.999999999999972
 30
0.0
 11
185.0529999999998
 21
81.999999999999972
 31
0.0
  0
LINE
  5
9D
  8
2
 10
173.99999999999969
 20
79.999999999999972
 30
0.0
 11
174.9469999999996
 21
81.640252114767677
 31
0.0
  0
LINE
  5
9E
  8
2
 10
185.053
 20
61.999999999999972
 30
0.0
 11
174.947
 21
61.999999999999972
 31
0.0
  0
LINE
  5
9F
  8
2
 10
172.947
 20
59.999999999999972
 30
0.0
 11
174.947
 21
61.999999999999972
 31
0.0
  0
LINE
  5
A0
  8
0
 10
188.0
 20
59.999999999999972
 30
0.0
 11
172.0
 21
59.999999999999972
 31
0.0
  0
LINE
  5
A1
  8
0
 10
194.80000000000001
 20
95.999999999999972
 30
0.0
 11
174.64754320550091
 21
95.999999999999972
 31
0.0
  0
LINE
  5
A2
  8
1
 10
180.0
 20
101.0
 30
0.0
 11
180.0
 21
54.999999999999972
 31
0.0
  0
LINE
  5
A3
  8
0
 10
197.0
 20
60.299999999999983
 30
0.0
 11
162.99999999999989
 21
60.299999999999983
 31
0.0
  0
LINE
  5
A4
  8
0
 10
198.0000000000002
 20
75.650987068223472
 30
0.0
 11
198.0
 21
61.29999999999999
 31
0.0
  0
LINE
  5
A5
  8
0
 10
162.0
 20
76.195130235488818
 30
0.0
 11
162.0
 21
61.299999999999919
 31
0.0
  0
LINE
  5
A6
  8
0
 10
198.0
 20
61.29999999999999
 30
0.0
 11
197.0
 21
60.299999999999983
 31
0.0
  0
LINE
  5
A7
  8
0
 10
163.0
 20
60.299999999999933
 30
0.0
 11
162.0
 21
61.299999999999919
 31
0.0
  0
LINE
  5
A8
  8
2
 10
187.0
 20
84.999999999999986
 30
0.0
 11
173.0
 21
84.999999999999986
 31
0.0
  0
LINE
  5
A9
  8
0
 10
196.0
 20
94.799999999999983
 30
0.0
 11
196.0
 21
93.799403575865384
 31
0.0
  0
LINE
  5
AA
  8
0
 10
194.80000000000001
 20
95.999999999999972
 30
0.0
 11
196.0
 21
94.799999999999983
 31
0.0
  0
LINE
  5
AB
  8
0
 10
230.00000000000011
 20
98.999999999999986
 30
0.0
 11
230.0000000000002
 21
91.952361208929844
 31
0.0
  0
LINE
  5
AC
  8
0
 10
197.4665652278299
 20
76.784478362270903
 30
0.0
 11
228.12382305962831
 21
89.170814538507685
 31
0.0
  0
ARC
  5
AD
  8
0
 10
227.00000000000011
 20
98.999999999999986
 30
0.0
 40
3.0
 50
359.99994848350758
 51
105.0000351864212
  0
LINE
  5
AE
  8
0
 10
226.22354286469249
 20
101.8977774788671
 30
0.0
 11
187.94707691188
 21
91.641629337693715
 31
0.0
  0
LINE
  5
AF
  8
0
 10
160.217611694379
 20
102.0
 30
0.0
 11
152.58298502915571
 21
102.0
 31
0.0
  0
LINE
  5
B0
  8
0
 10
149.58298502915559
 20
99.000000000000014
 30
0.0
 11
149.58298502915559
 21
91.136143873491989
 31
0.0
  0
ARC
  5
B1
  8
0
 10
227.00000000000011
 20
91.952364777252356
 30
0.0
 40
3.0
 50
292.00000000000011
 51
0.0000000000001386
  0
ARC
  5
B2
  8
0
 10
152.58298502915571
 20
99.000000000000014
 30
0.0
 40
3.0
 50
90.000000000000142
 51
179.9999999999998
  0
ARC
  5
B3
  8
0
 10
200.00000000000011
 20
75.650982966315127
 30
0.0
 40
2.0
 50
112.0
 51
180.0
  0
LINE
  5
B4
  8
0
 10
186.2131555573273
 20
90.973741236408884
 30
0.0
 11
161.41333617463181
 21
101.7514074520732
 31
0.0
  0
ARC
  5
B5
  8
0
 10
160.217611694379
 20
98.999999999999986
 30
0.0
 40
3.0
 50
66.510885796022436
 51
89.99999999999973
  0
LINE
  5
B6
  8
2
 10
174.9469999999998
 20
81.999999999999972
 30
0.0
 11
180.0
 21
84.917350910215276
 31
0.0
  0
LINE
  5
B7
  8
2
 10
188.0
 20
83.999999999999957
 30
0.0
 11
187.0
 21
84.999999999999986
 31
0.0
  0
LINE
  5
B8
  8
2
 10
173.0
 20
84.999999999999986
 30
0.0
 11
172.0
 21
83.999999999999957
 31
0.0
  0
LINE
  5
B9
  8
0
 10
23.816184656605149
 20
99.000000000000028
 30
0.0
 11
23.816184656605131
 21
91.853235101840667
 31
0.0
  0
LINE
  5
BA
  8
0
 10
30.31618465591508
 20
100.9539389952381
 30
0.0
 11
30.316184655915048
 21
90.928839226725117
 31
0.0
  0
LINE
  5
BB
  8
0
 10
29.889426641475438
 20
102.0
 30
0.0
 11
26.816184656605149
 21
102.0
 31
0.0
  0
LINE
  5
BC
  8
0
 10
29.316184655915009
 20
89.928839226725088
 30
0.0
 11
26.214526689758792
 21
89.928839226725088
 31
0.0
  0
LINE
  5
BD
  8
0
 10
67.769101326001135
 20
91.124367733342865
 30
0.0
 11
30.726013644225048
 21
101.8809932639336
 31
0.0
  0
LINE
  5
BE
  8
0
 10
25.565320535254109
 20
89.126453308239149
 30
0.0
 11
50.833909414234022
 21
77.53492394565734
 31
0.0
  0
LINE
  5
BF
  8
0
 10
30.31618465591507
 20
89.928839226725117
 30
0.0
 11
63.181578895630032
 21
77.388303046660454
 31
0.0
  0
LINE
  5
C0
  8
0
 10
65.228937109862073
 20
77.355027852528565
 30
0.0
 11
69.022145845391094
 21
78.662854405945865
 31
0.0
  0
LINE
  5
C1
  8
0
 10
70.977854131837802
 20
78.662854397223612
 30
0.0
 11
74.771062800074361
 21
77.355027835237451
 31
0.0
  0
LINE
  5
C2
  8
0
 10
55.199999999999932
 20
95.999999999999972
 30
0.0
 11
54.250049586358521
 21
95.050049586358483
 31
0.0
  0
ARC
  5
C3
  8
0
 10
26.816184656605149
 20
99.000000000000028
 30
0.0
 40
3.0
 50
90.0
 51
179.99999999999989
  0
ARC
  5
C4
  8
0
 10
29.889426641475449
 20
99.000000000000028
 30
0.0
 40
3.0
 50
73.807682999970694
 51
90.000000000000156
  0
ARC
  5
C5
  8
0
 10
26.816184656605131
 20
91.853235101840667
 30
0.0
 40
3.0
 50
179.99999999999989
 51
245.3575258463265
  0
ARC
  5
C6
  8
0
 10
113.1838153433949
 20
91.853235101840667
 30
0.0
 40
3.0
 50
294.6424741536735
 51
0.0000000000001272
  0
ARC
  5
C7
  8
0
 10
110.1105733585245
 20
99.000000000000028
 30
0.0
 40
3.0
 50
89.999999999999872
 51
106.19231700002931
  0
ARC
  5
C8
  8
0
 10
113.1838153433948
 20
99.000000000000028
 30
0.0
 40
3.0
 50
0.0000000000001272
 51
90.000000000000028
  0
LINE
  5
C9
  8
0
 10
110.683815344085
 20
89.928839226725088
 30
0.0
 11
113.7854733102412
 21
89.928839226725088
 31
0.0
  0
LINE
  5
CA
  8
0
 10
110.1105733585245
 20
102.0
 30
0.0
 11
113.1838153433948
 21
102.0
 31
0.0
  0
LINE
  5
CB
  8
0
 10
109.68381534408491
 20
100.9539389952381
 30
0.0
 11
109.68381534408491
 21
90.928839226725117
 31
0.0
  0
LINE
  5
CC
  8
0
 10
116.1838153433948
 20
99.000000000000028
 30
0.0
 11
116.1838153433949
 21
91.853235101840667
 31
0.0
  0
LINE
  5
CD
  8
0
 10
72.230898673998979
 20
91.124367733342865
 30
0.0
 11
109.27398635577489
 21
101.8809932639336
 31
0.0
  0
LINE
  5
CE
  8
0
 10
109.68381534408491
 20
89.928839226725117
 30
0.0
 11
76.818421037813749
 21
77.388303021264434
 31
0.0
  0
LINE
  5
CF
  8
0
 10
114.4346794647459
 20
89.126453308239149
 30
0.0
 11
89.166090585766142
 21
77.534923945657454
 31
0.0
  0
ARC
  5
D0
  8
0
 10
50.0
 20
75.717069416589666
 30
0.0
 40
2.0
 50
0.0
 51
65.357525846326553
  0
ARC
  5
D1
  8
0
 10
90.000000000000171
 20
75.71706941658978
 30
0.0
 40
2.0
 50
114.6424741536734
 51
179.99999999999949
  0
ARC
  5
D2
  8
0
 10
64.25108297928773
 20
80.191187456521035
 30
0.0
 40
3.0
 50
249.11451257114661
 51
289.02322382627239
  0
ARC
  5
D3
  8
0
 10
69.999999975965423
 20
75.826694801953423
 30
0.0
 40
3.0
 50
70.976775662659847
 51
109.0232238262724
  0
ARC
  5
D4
  8
0
 10
75.748916954156044
 20
80.19118743112503
 30
0.0
 40
3.0
 50
250.97677569883521
 51
290.88548742885331
  0
ARC
  5
D5
  8
0
 10
70.000000000000057
 20
98.807016437165657
 30
0.0
 40
8.0
 50
253.80768299997069
 51
286.19231700002922
  0
LINE
  5
D6
  8
0
 10
67.350807824626344
 20
89.683871101376099
 30
0.0
 11
30.307720142850261
 21
100.44049663196679
 31
0.0
  0
LINE
  5
D7
  8
0
 10
72.64919217537377
 20
89.683871101376099
 30
0.0
 11
109.6922798571497
 21
100.44049663196679
 31
0.0
  0
LINE
  5
D8
  8
0
 10
61.394179040478001
 20
77.000000000000071
 30
0.0
 11
52.89001464739772
 21
77.000000000000071
 31
0.0
  0
LINE
  5
D9
  8
0
 10
312.57422948752151
 20
77.000000000000071
 30
0.0
 11
287.42577051247872
 21
77.000000000000071
 31
0.0
  0
ARC
  5
DA
  8
0
 10
320.00000000000023
 20
75.71706941658978
 30
0.0
 40
2.0
 50
114.6424741536734
 51
179.99999999999949
  0
ARC
  5
DB
  8
0
 10
280.0
 20
75.717069416589666
 30
0.0
 40
2.0
 50
0.0
 51
65.357525846326553
  0
LINE
  5
DC
  8
0
 10
344.4346794647459
 20
89.126453308239149
 30
0.0
 11
319.16609058576609
 21
77.534923945657454
 31
0.0
  0
LINE
  5
DD
  8
0
 10
346.18381534339483
 20
99.000000000000028
 30
0.0
 11
346.18381534339488
 21
91.853235101840667
 31
0.0
  0
ARC
  5
DE
  8
0
 10
343.18381534339488
 20
91.853235101840667
 30
0.0
 40
3.0
 50
294.6424741536735
 51
0.0000000000001272
  0
ARC
  5
DF
  8
0
 10
256.81618465660512
 20
91.853235101840667
 30
0.0
 40
3.0
 50
179.99999999999989
 51
245.3575258463265
  0
ARC
  5
E0
  8
0
 10
256.81618465660517
 20
99.000000000000028
 30
0.0
 40
3.0
 50
68.794659189773853
 51
179.99999999999989
  0
LINE
  5
E1
  8
0
 10
285.19999999999987
 20
95.999999999999972
 30
0.0
 11
284.00000000000011
 21
94.800000000000026
 31
0.0
  0
LINE
  5
E2
  8
0
 10
255.5653205352541
 20
89.126453308239149
 30
0.0
 11
280.83390941423397
 21
77.53492394565734
 31
0.0
  0
LINE
  5
E3
  8
0
 10
253.8161846566052
 20
99.000000000000028
 30
0.0
 11
253.81618465660509
 21
91.853235101840667
 31
0.0
  0
LINE
  5
E4
  8
0
 10
282.0
 20
61.299999999999947
 30
0.0
 11
318.00000000000011
 21
61.300000000000011
 31
0.0
  0
LINE
  5
E5
  8
2
 10
308.0
 20
60.299999999999983
 30
0.0
 11
308.0
 21
83.999999999999915
 31
0.0
  0
LINE
  5
E6
  8
0
 10
308.0
 20
60.299999999999983
 30
0.0
 11
308.0
 21
59.999999999999972
 31
0.0
  0
LINE
  5
E7
  8
2
 10
292.00000000000011
 20
60.299999999999983
 30
0.0
 11
292.0
 21
83.999999999999957
 31
0.0
  0
LINE
  5
E8
  8
0
 10
292.00000000000011
 20
60.299999999999983
 30
0.0
 11
292.00000000000011
 21
59.999999999999972
 31
0.0
  0
LINE
  5
E9
  8
2
 10
305.05300000000022
 20
81.999999999999972
 30
0.0
 11
300.0
 21
84.917350910215276
 31
0.0
  0
LINE
  5
EA
  8
2
 10
307.053
 20
59.999999999999972
 30
0.0
 11
305.05299999999988
 21
61.999999999999972
 31
0.0
  0
LINE
  5
EB
  8
2
 10
306.00000000000028
 20
79.999999999999972
 30
0.0
 11
305.05300000000028
 21
81.640252114767677
 31
0.0
  0
LINE
  5
EC
  8
2
 10
305.05299999999988
 20
61.999999999999972
 30
0.0
 11
305.05299999999983
 21
81.999999999999972
 31
0.0
  0
LINE
  5
ED
  8
2
 10
306.0
 20
61.052999999999969
 30
0.0
 11
306.0
 21
79.999999999999972
 31
0.0
  0
LINE
  5
EE
  8
0
 10
316.0
 20
94.799999999999997
 30
0.0
 11
310.6274728165447
 21
94.799999999999997
 31
0.0
  0
LINE
  5
EF
  8
2
 10
294.00000000000011
 20
61.052999999999969
 30
0.0
 11
294.00000000000011
 21
79.999999999999972
 31
0.0
  0
LINE
  5
F0
  8
2
 10
294.94700000000012
 20
61.999999999999972
 30
0.0
 11
294.94700000000029
 21
81.999999999999972
 31
0.0
  0
LINE
  5
F1
  8
2
 10
294.00000000000011
 20
79.999999999999972
 30
0.0
 11
306.0
 21
79.999999999999972
 31
0.0
  0
LINE
  5
F2
  8
2
 10
294.94700000000029
 20
81.999999999999972
 30
0.0
 11
305.05299999999983
 21
81.999999999999972
 31
0.0
  0
LINE
  5
F3
  8
2
 10
293.99999999999972
 20
79.999999999999972
 30
0.0
 11
294.94699999999972
 21
81.640252114767677
 31
0.0
  0
LINE
  5
F4
  8
2
 10
305.053
 20
61.999999999999972
 30
0.0
 11
294.94700000000012
 21
61.999999999999972
 31
0.0
  0
LINE
  5
F5
  8
2
 10
292.947
 20
59.999999999999972
 30
0.0
 11
294.94700000000012
 21
61.999999999999972
 31
0.0
  0
LINE
  5
F6
  8
0
 10
308.0
 20
59.999999999999972
 30
0.0
 11
292.00000000000011
 21
59.999999999999972
 31
0.0
  0
LINE
  5
F7
  8
0
 10
314.80000000000013
 20
95.999999999999972
 30
0.0
 11
309.68219302649948
 21
95.999999999999972
 31
0.0
  0
LINE
  5
F8
  8
1
 10
300.0
 20
107.0
 30
0.0
 11
300.0
 21
54.999999999999972
 31
0.0
  0
LINE
  5
F9
  8
0
 10
317.00000000000011
 20
60.299999999999983
 30
0.0
 11
283.0
 21
60.299999999999983
 31
0.0
  0
LINE
  5
FA
  8
0
 10
318.00000000000023
 20
75.717069416589794
 30
0.0
 11
318.00000000000011
 21
61.29999999999999
 31
0.0
  0
LINE
  5
FB
  8
0
 10
282.0
 20
75.717069416589666
 30
0.0
 11
282.0
 21
61.299999999999919
 31
0.0
  0
LINE
  5
FC
  8
0
 10
318.00000000000011
 20
61.29999999999999
 30
0.0
 11
317.00000000000011
 21
60.299999999999983
 31
0.0
  0
LINE
  5
FD
  8
0
 10
283.0
 20
60.299999999999933
 30
0.0
 11
282.0
 21
61.299999999999919
 31
0.0
  0
LINE
  5
FE
  8
2
 10
307.00000000000011
 20
84.999999999999986
 30
0.0
 11
293.0
 21
84.999999999999986
 31
0.0
  0
LINE
  5
FF
  8
0
 10
314.80000000000013
 20
95.999999999999972
 30
0.0
 11
316.0
 21
94.799999999999883
 31
0.0
  0
LINE
  5
100
  8
2
 10
294.94699999999978
 20
81.999999999999972
 30
0.0
 11
300.0
 21
84.917350910215276
 31
0.0
  0
LINE
  5
101
  8
2
 10
308.0
 20
83.999999999999957
 30
0.0
 11
307.00000000000011
 21
84.999999999999986
 31
0.0
  0
LINE
  5
102
  8
2
 10
293.0
 20
84.999999999999986
 30
0.0
 11
292.0
 21
83.999999999999957
 31
0.0
  0
LINE
  5
103
  8
0
 10
284.15842940679102
 20
91.609628300007387
 30
0.0
 11
257.90131576545002
 21
101.79687155168359
 31
0.0
  0
LINE
  5
104
  8
0
 10
284.00000000000011
 20
94.800000000000026
 30
0.0
 11
284.00000000000011
 21
91.671095791341145
 31
0.0
  0
LINE
  5
105
  8
0
 10
303.5000000000004
 20
102.0
 30
0.0
 11
296.50000000178619
 21
102.0
 31
0.0
  0
LINE
  5
106
  8
0
 10
293.50000000178608
 20
99.000000000000014
 30
0.0
 11
293.50000000178619
 21
92.928839226725032
 31
0.0
  0
LINE
  5
107
  8
0
 10
306.50000000000028
 20
99.000000000000057
 30
0.0
 11
306.5000000000004
 21
92.928839226725074
 31
0.0
  0
LINE
  5
108
  8
0
 10
296.50000000178619
 20
89.928839226725074
 30
0.0
 11
303.5000000000004
 21
89.928839226725074
 31
0.0
  0
LINE
  5
109
  8
0
 10
316.0
 20
94.800000000000026
 30
0.0
 11
316.0
 21
91.671095791341145
 31
0.0
  0
ARC
  5
10A
  8
0
 10
296.50000000178619
 20
99.000000000000057
 30
0.0
 40
3.0
 50
89.999999999999943
 51
180.00000000000051
  0
ARC
  5
10B
  8
0
 10
303.5000000000004
 20
99.000000000000057
 30
0.0
 40
3.0
 50
0.0
 51
90.0
  0
LINE
  5
10C
  8
0
 10
287.60020235718162
 20
92.550094930701007
 30
0.0
 11
294.14335816024038
 21
100.85640492099
 31
0.0
  0
ARC
  5
10D
  8
0
 10
285.24356051563581
 20
94.406499851690995
 30
0.0
 40
3.0
 50
248.79472711212699
 51
321.77132338434262
  0
LINE
  5
10E
  8
0
 10
283.61586385236859
 20
90.211192524165597
 30
0.0
 11
257.3587502110276
 21
100.3984357758418
 31
0.0
  0
LINE
  5
10F
  8
0
 10
256.19075259592961
 20
90.489844205039915
 30
0.0
 11
282.33491552337762
 21
78.496660347996993
 31
0.0
  0
LINE
  5
110
  8
0
 10
286.12430278532207
 20
79.624723822234074
 30
0.0
 11
293.13805662543172
 21
90.761505211355015
 31
0.0
  0
LINE
  5
111
  8
0
 10
285.992269667843
 20
76.600320420158951
 30
0.0
 11
294.21016875215957
 21
89.649102522620197
 31
0.0
  0
ARC
  5
112
  8
0
 10
283.58577964472858
 20
81.223442141598497
 30
0.0
 40
3.0
 50
245.3575258463265
 51
327.79798016085488
  0
LINE
  5
113
  8
0
 10
346.18381534339488
 20
99.000000000000028
 30
0.0
 11
346.183815343395
 21
91.853235101840667
 31
0.0
  0
ARC
  5
114
  8
0
 10
343.18381534339488
 20
99.000000000000028
 30
0.0
 40
3.0
 50
0.0000000000001272
 51
111.2053408102261
  0
ARC
  5
115
  8
0
 10
343.183815343395
 20
91.853235101840667
 30
0.0
 40
3.0
 50
294.6424741536735
 51
0.0000000000001272
  0
LINE
  5
116
  8
0
 10
315.8415705932091
 20
91.609628300007387
 30
0.0
 11
342.09868423455009
 21
101.79687155168359
 31
0.0
  0
LINE
  5
117
  8
0
 10
316.38413614763152
 20
90.211192524165597
 30
0.0
 11
342.64124978897252
 21
100.3984357758418
 31
0.0
  0
ARC
  5
118
  8
0
 10
314.75643948436431
 20
94.406499851690995
 30
0.0
 40
3.0
 50
218.22867661565749
 51
291.20527288787309
  0
LINE
  5
119
  8
0
 10
312.3997976428185
 20
92.550094930701007
 30
0.0
 11
305.85664183975967
 21
100.85640492099
 31
0.0
  0
LINE
  5
11A
  8
0
 10
343.8092474040705
 20
90.489844205039915
 30
0.0
 11
317.6650844766225
 21
78.496660347996993
 31
0.0
  0
LINE
  5
11B
  8
0
 10
344.43467946474601
 20
89.126453308239149
 30
0.0
 11
319.16609058576609
 21
77.53492394565734
 31
0.0
  0
ARC
  5
11C
  8
0
 10
316.41422035527148
 20
81.223442141598497
 30
0.0
 40
3.0
 50
212.20201983914521
 51
294.6424741536735
  0
LINE
  5
11D
  8
0
 10
313.87569721467798
 20
79.624723822234074
 30
0.0
 11
306.86194337545078
 21
90.761505209953967
 31
0.0
  0
LINE
  5
11E
  8
0
 10
314.00773033215722
 20
76.600320420158951
 30
0.0
 11
305.78983124838322
 21
89.649102521758607
 31
0.0
  0
LINE
  5
11F
  8
0
 10
290.31780697350052
 20
95.999999999999986
 30
0.0
 11
285.19999999999987
 21
95.999999999999986
 31
0.0
  0
LINE
  5
120
  8
0
 10
289.37252718345542
 20
94.799999999999997
 30
0.0
 11
284.00000000000011
 21
94.800000000000026
 31
0.0
  0
ARC
  5
121
  8
0
 10
296.50000000178619
 20
92.928839226725074
 30
0.0
 40
3.0
 50
180.00000000000071
 51
269.99999999999989
  0
ARC
  5
122
  8
0
 10
303.5000000000004
 20
92.928839226725074
 30
0.0
 40
3.0
 50
270.0
 51
0.0
  0
ARC
  5
123
  8
0
 10
66.500000001786134
 20
99.000000000000057
 30
0.0
 40
3.0
 50
89.999999999999943
 51
141.77132338434029
  0
LINE
  5
124
  8
0
 10
73.500000000000341
 20
102.0
 30
0.0
 11
66.500000001786134
 21
102.0
 31
0.0
  0
LINE
  5
125
  8
0
 10
79.68219302649959
 20
95.999999999999986
 30
0.0
 11
75.856641839759732
 21
100.85640492099
 31
0.0
  0
ARC
  5
126
  8
0
 10
73.500000000000341
 20
99.000000000000057
 30
0.0
 40
3.0
 50
38.228676615659673
 51
90.0
  0
LINE
  5
127
  8
0
 10
60.317806973500538
 20
96.0
 30
0.0
 11
64.143358160240382
 21
100.85640492099
 31
0.0
  0
TEXT
  5
279
  8
0
 62
     3
 10
0.0
 20
0.0
 30
0.0
 40
10.0
  1
TAK100NB
  7
STANDARD1
  0
ENDSEC
  0
EOF
