  0
SECTION
  2
HEADER
  9
$ACADVER
  1
AC1009
  9
$INSBASE
 10
0.0
 20
0.0
 30
0.0
  9
$EXTMIN
 10
0.0
 20
-2.960436562073669
 30
0.0
  9
$EXTMAX
 10
286.50000000000028
 20
171.8000000000001
 30
0.0
  9
$LIMMIN
 10
0.0
 20
0.0
  9
$LIMMAX
 10
375.0
 20
270.0
  9
$ORTHOMODE
 70
     1
  9
$REGENMODE
 70
     1
  9
$FILLMODE
 70
     1
  9
$QTEXTMODE
 70
     0
  9
$MIRRTEXT
 70
     0
  9
$DRAGMODE
 70
     2
  9
$LTSCALE
 40
10.0
  9
$OSMODE
 70
    37
  9
$ATTMODE
 70
     1
  9
$TEXTSIZE
 40
5.0
  9
$TRACEWID
 40
0.05
  9
$TEXTSTYLE
  7
STANDARD
  9
$CLAYER
  8
0
  9
$CELTYPE
  6
BYLAYER
  9
$CECOLOR
 62
   256
  9
$DIMSCALE
 40
1.0
  9
$DIMASZ
 40
3.0
  9
$DIMEXO
 40
2.0
  9
$DIMDLI
 40
0.3799999999999999
  9
$DIMRND
 40
0.0
  9
$DIMDLE
 40
0.0
  9
$DIMEXE
 40
2.0
  9
$DIMTP
 40
0.0
  9
$DIMTM
 40
0.0
  9
$DIMTXT
 40
3.2000000000000002
  9
$DIMCEN
 40
0.09
  9
$DIMTSZ
 40
0.0
  9
$DIMTOL
 70
     0
  9
$DIMLIM
 70
     0
  9
$DIMTIH
 70
     0
  9
$DIMTOH
 70
     0
  9
$DIMSE1
 70
     0
  9
$DIMSE2
 70
     0
  9
$DIMTAD
 70
     1
  9
$DIMZIN
 70
     8
  9
$DIMBLK
  1

  9
$DIMASO
 70
     0
  9
$DIMSHO
 70
     0
  9
$DIMPOST
  1

  9
$DIMAPOST
  1

  9
$DIMALT
 70
     0
  9
$DIMALTD
 70
     2
  9
$DIMALTF
 40
25.399999999999999
  9
$DIMLFAC
 40
1.0
  9
$DIMTOFL
 70
     0
  9
$DIMTVP
 40
0.0
  9
$DIMTIX
 70
     0
  9
$DIMSOXD
 70
     0
  9
$DIMSAH
 70
     0
  9
$DIMBLK1
  1

  9
$DIMBLK2
  1

  9
$DIMSTYLE
  2
STANDARD
  9
$DIMCLRD
 70
     0
  9
$DIMCLRE
 70
     0
  9
$DIMCLRT
 70
     0
  9
$DIMTFAC
 40
1.0
  9
$DIMGAP
 40
0.09
  9
$LUNITS
 70
     2
  9
$LUPREC
 70
     1
  9
$SKETCHINC
 40
0.1
  9
$FILLETRAD
 40
4.0
  9
$AUNITS
 70
     0
  9
$AUPREC
 70
     1
  9
$MENU
  1
E:\r13\win\SUPPORT\ACAD
  9
$ELEVATION
 40
0.0
  9
$PELEVATION
 40
0.0
  9
$THICKNESS
 40
0.0
  9
$LIMCHECK
 70
     0
  9
$BLIPMODE
 70
     0
  9
$CHAMFERA
 40
0.0
  9
$CHAMFERB
 40
0.0
  9
$SKPOLY
 70
     0
  9
$TDCREATE
 40
2449840.6479861112
  9
$TDUPDATE
 40
2457896.6591763538
  9
$TDINDWG
 40
0.1323253125
  9
$TDUSRTIMER
 40
0.1323253125
  9
$USRTIMER
 70
     1
  9
$ANGBASE
 50
0.0
  9
$ANGDIR
 70
     0
  9
$PDMODE
 70
     0
  9
$PDSIZE
 40
0.0
  9
$PLINEWID
 40
0.0
  9
$COORDS
 70
     1
  9
$SPLFRAME
 70
     0
  9
$SPLINETYPE
 70
     6
  9
$SPLINESEGS
 70
     8
  9
$ATTDIA
 70
     0
  9
$ATTREQ
 70
     1
  9
$HANDLING
 70
     1
  9
$HANDSEED
  5
1EE0
  9
$SURFTAB1
 70
     6
  9
$SURFTAB2
 70
     6
  9
$SURFTYPE
 70
     6
  9
$SURFU
 70
     6
  9
$SURFV
 70
     6
  9
$UCSNAME
  2

  9
$UCSORG
 10
0.0
 20
0.0
 30
0.0
  9
$UCSXDIR
 10
1.0
 20
0.0
 30
0.0
  9
$UCSYDIR
 10
0.0
 20
1.0
 30
0.0
  9
$PUCSNAME
  2

  9
$PUCSORG
 10
0.0
 20
0.0
 30
0.0
  9
$PUCSXDIR
 10
1.0
 20
0.0
 30
0.0
  9
$PUCSYDIR
 10
0.0
 20
1.0
 30
0.0
  9
$USERI1
 70
     0
  9
$USERI2
 70
     1
  9
$USERI3
 70
     0
  9
$USERI4
 70
     0
  9
$USERI5
 70
     0
  9
$USERR1
 40
0.0
  9
$USERR2
 40
0.0
  9
$USERR3
 40
0.0
  9
$USERR4
 40
0.0
  9
$USERR5
 40
0.0
  9
$WORLDVIEW
 70
     1
  9
$SHADEDGE
 70
     3
  9
$SHADEDIF
 70
    70
  9
$TILEMODE
 70
     1
  9
$MAXACTVP
 70
    16
  9
$PLIMCHECK
 70
     0
  9
$PEXTMIN
 10
1.0000000000000000E+020
 20
1.0000000000000000E+020
 30
1.0000000000000000E+020
  9
$PEXTMAX
 10
-1.0000000000000000E+020
 20
-1.0000000000000000E+020
 30
-1.0000000000000000E+020
  9
$PLIMMIN
 10
0.0
 20
0.0
  9
$PLIMMAX
 10
12.0
 20
9.0
  9
$UNITMODE
 70
     0
  9
$VISRETAIN
 70
     0
  9
$PLINEGEN
 70
     0
  9
$PSLTSCALE
 70
     0
  0
ENDSEC
  0
SECTION
  2
TABLES
  0
TABLE
  2
VPORT
 70
     1
  0
VPORT
  2
*ACTIVE
 70
     0
 10
0.0
 20
0.0
 11
1.0
 21
1.0
 12
227.02991452991449
 22
125.0
 13
0.0
 23
0.0
 14
10.0
 24
10.0
 15
10.0
 25
10.0
 16
0.0
 26
0.0
 36
1.0
 17
0.0
 27
0.0
 37
0.0
 40
250.0
 41
1.816239316239316
 42
50.0
 43
0.0
 44
0.0
 50
0.0
 51
0.0
 71
     0
 72
   500
 73
     1
 74
     0
 75
     0
 76
     0
 77
     0
 78
     0
  0
ENDTAB
  0
TABLE
  2
LTYPE
 70
     3
  0
LTYPE
  2
CONTINUOUS
 70
     0
  3
Solid Line
 72
    65
 73
     0
 40
0.0
  0
LTYPE
  2
CENTER
 70
     0
  3
____ _ ____ _ ____ _ ____ _ ____ _ ____ _ ____
 72
    65
 73
     4
 40
2.0
 49
1.25
 49
-0.25
 49
0.25
 49
-0.25
  0
LTYPE
  2
PHANTOM2
 70
     0
  3
___ _ _ ___ _ _ ___ _ _ ___ _ _
 72
    65
 73
     6
 40
1.25
 49
0.625
 49
-0.125
 49
0.125
 49
-0.125
 49
0.125
 49
-0.125
  0
ENDTAB
  0
TABLE
  2
LAYER
 70
     5
  0
LAYER
  2
0
 70
     0
 62
     7
  6
CONTINUOUS
  0
LAYER
  2
1
 70
     0
 62
     1
  6
CENTER
  0
LAYER
  2
3
 70
     0
 62
     3
  6
CONTINUOUS
  0
LAYER
  2
4
 70
     0
 62
     4
  6
CONTINUOUS
  0
LAYER
  2
DEFPOINTS
 70
     0
 62
     7
  6
CONTINUOUS
  0
ENDTAB
  0
TABLE
  2
STYLE
 70
     2
  0
STYLE
  2
STANDARD
 70
     0
 40
0.0
 41
1.0
 50
0.0
 71
     0
 42
5.0
  3
TXT
  4
BIGFONT
  0
STYLE
  2
STANDARD1
 70
     0
 40
0.0
 41
1.0
 50
0.0
 71
     0
 42
3.0
  3
txt
  4

  0
ENDTAB
  0
TABLE
  2
VIEW
 70
     1
  0
VIEW
  2
ALL
 70
     0
 40
270.0
 10
220.99159663865549
 20
135.0
 41
0.0
 11
0.0
 21
0.0
 31
1.0
 12
0.0
 22
0.0
 32
0.0
 42
0.0
 43
0.0
 44
0.0
 50
0.0
 71
     0
  0
ENDTAB
  0
TABLE
  2
UCS
 70
     0
  0
ENDTAB
  0
TABLE
  2
APPID
 70
     7
  0
APPID
  2
ACAD
 70
     0
  0
APPID
  2
ACAD_MLEADERVER
 70
     0
  0
APPID
  2
ACAD_NAV_VCDISPLAY
 70
     0
  0
APPID
  2
ACAD_EXEMPT_FROM_CAD_STANDARDS
 70
     0
  0
APPID
  2
ACAD_DSTYLE_DIMJAG
 70
     0
  0
APPID
  2
ACAD_DSTYLE_DIMTALN
 70
     0
  0
APPID
  2
ACAD_DSTYLE_DIMRADIAL_EXTENSION
 70
     0
  0
ENDTAB
  0
TABLE
  2
DIMSTYLE
 70
     1
  0
DIMSTYLE
  2
STANDARD
 70
     0
  3

  4

  5

  6

  7

 40
1.0
 41
0.18
 42
0.0625
 43
0.38
 44
0.18
 45
0.0
 46
0.0
 47
0.0
 48
0.0
140
0.18
141
0.09
142
0.0
143
25.399999999999999
144
1.0
145
0.0
146
1.0
147
0.09
 71
     0
 72
     0
 73
     1
 74
     1
 75
     0
 76
     0
 77
     0
 78
     0
170
     0
171
     2
172
     0
173
     0
174
     0
175
     0
176
     0
177
     0
178
     0
  0
ENDTAB
  0
ENDSEC
  0
SECTION
  2
BLOCKS
  0
BLOCK
  8
0
  2
$MODEL_SPACE
 70
     0
 10
0.0
 20
0.0
 30
0.0
  3
$MODEL_SPACE
  1

  0
ENDBLK
  5
6AA
  8
0
  0
BLOCK
 67
     1
  8
0
  2
$PAPER_SPACE
 70
     0
 10
0.0
 20
0.0
 30
0.0
  3
$PAPER_SPACE
  1

  0
ENDBLK
  5
6A8
 67
     1
  8
0
  0
ENDSEC
  0
SECTION
  2
ENTITIES
  0
LINE
  5
E1
  8
1
 10
286.50000000000028
 20
123.40000000000001
 30
0.0
 11
189.69999999999999
 21
123.40000000000001
 31
0.0
  0
LINE
  5
E2
  8
1
 10
238.10000000000019
 20
171.8000000000001
 30
0.0
 11
238.10000000000019
 21
74.999999999999886
 31
0.0
  0
LINE
  5
E5
  8
0
 10
238.85000000000019
 20
152.30096189432331
 30
0.0
 11
238.09999999999809
 21
153.5999999999963
 31
0.0
  0
LINE
  5
E6
  8
0
 10
238.10000000000019
 20
153.59999999999991
 30
0.0
 11
237.35000000000019
 21
152.30096189432331
 31
0.0
  0
LINE
  5
E7
  8
0
 10
238.85000000000019
 20
152.30096189432331
 30
0.0
 11
239.11641932531461
 21
125.6292132592326
 31
0.0
  0
LINE
  5
E8
  8
0
 10
237.35000000000019
 20
152.30096189432331
 30
0.0
 11
237.08358067468581
 21
125.62921325923389
 31
0.0
  0
TEXT
  5
EC
  8
0
 10
230.47500000000019
 20
141.15000000000001
 30
0.0
 40
4.5
  1
0
 72
     1
 11
231.60000000000019
 21
141.15000000000001
 31
0.0
  0
TEXT
  5
ED
  8
0
 10
223.97500000000011
 20
141.15000000000001
 30
0.0
 40
4.5
  1
0
 72
     1
 11
225.10000000000011
 21
141.15000000000001
 31
0.0
  0
CIRCLE
  5
EE
  8
0
 10
238.10000000000019
 20
123.40000000000001
 30
0.0
 40
2.4500000000000002
  0
LINE
  5
F8
  8
0
 10
249.10000000000019
 20
146.90000000000001
 30
0.0
 11
238.90394924208479
 21
146.90000000000001
 31
0.0
  0
LINE
  5
F9
  8
0
 10
249.10000000000019
 20
148.39999999999989
 30
0.0
 11
249.10000000000019
 21
146.90000000000001
 31
0.0
  0
LINE
  5
FA
  8
0
 10
253.60000000000019
 20
148.39999999999989
 30
0.0
 11
249.10000000000019
 21
148.39999999999989
 31
0.0
  0
LINE
  5
FB
  8
0
 10
253.60000000000019
 20
138.40000000000001
 30
0.0
 11
253.60000000000019
 21
148.39999999999989
 31
0.0
  0
LINE
  5
FC
  8
0
 10
249.10000000000019
 20
138.40000000000001
 30
0.0
 11
253.60000000000019
 21
138.40000000000001
 31
0.0
  0
LINE
  5
FD
  8
0
 10
249.10000000000019
 20
139.89999999999989
 30
0.0
 11
249.10000000000019
 21
138.40000000000001
 31
0.0
  0
LINE
  5
FE
  8
0
 10
222.60000000000011
 20
139.89999999999989
 30
0.0
 11
237.22612901027469
 21
139.89999999999989
 31
0.0
  0
LINE
  5
FF
  8
0
 10
222.60000000000011
 20
146.90000000000001
 30
0.0
 11
222.60000000000011
 21
139.89999999999989
 31
0.0
  0
CIRCLE
  5
4DD
  8
0
 10
238.10000000000019
 20
123.40000000000001
 30
0.0
 40
43.400000000000141
  0
CIRCLE
  5
4DE
  8
0
 10
238.10000000000019
 20
123.40000000000001
 30
0.0
 40
41.899999999999999
  0
ARC
  5
4DF
  8
0
 10
-385.30000000000001
 20
123.40000000000001
 30
0.0
 40
500.0
 50
355.56077772515692
 51
4.4392222748429004
  0
LINE
  5
4E0
  8
0
 10
111.2
 20
79.999999999999972
 30
0.0
 11
111.2
 21
166.80000000000001
 31
0.0
  0
LINE
  5
4E1
  8
0
 10
83.900000000000048
 20
128.74999999999989
 30
0.0
 11
83.900000000000048
 21
118.05
 31
0.0
  0
LINE
  5
4E2
  8
0
 10
84.900000000000077
 20
163.80000000000001
 30
0.0
 11
84.900000000000077
 21
83.000000000000014
 31
0.0
  0
LINE
  5
4E3
  8
0
 10
100.5
 20
79.999999999999972
 30
0.0
 11
100.5
 21
166.80000000000001
 31
0.0
  0
LINE
  5
4E4
  8
0
 10
113.2
 20
165.8000000000001
 30
0.0
 11
113.1999999999998
 21
80.999999999999972
 31
0.0
  0
LINE
  5
4E5
  8
0
 10
80.699999999999903
 20
126.8641016151377
 30
0.0
 11
80.699999999999903
 21
119.9358983848622
 31
0.0
  0
LINE
  5
4EC
  8
0
 10
112.1999999999998
 20
79.999999999999972
 30
0.0
 11
100.5
 21
79.999999999999972
 31
0.0
  0
LINE
  5
4ED
  8
0
 10
100.5
 20
80.999999999999972
 30
0.0
 11
86.900000000000063
 21
80.999999999999972
 31
0.0
  0
ARC
  5
4EE
  8
0
 10
86.900000000000063
 20
83.000000000000014
 30
0.0
 40
2.0
 50
180.0
 51
270.0
  0
LINE
  5
4EF
  8
0
 10
80.699999999999903
 20
119.9358983848622
 30
0.0
 11
83.900000000000048
 21
119.9358983848622
 31
0.0
  0
LINE
  5
4F0
  8
0
 10
84.900000000000077
 20
118.05
 30
0.0
 11
83.900000000000048
 21
118.05
 31
0.0
  0
ARC
  5
4F1
  8
0
 10
112.1999999999998
 20
80.999999999999972
 30
0.0
 40
1.0
 50
269.99999999999977
 51
359.99999999999977
  0
CIRCLE
  5
4F5
  8
0
 10
207.60000000000019
 20
105.40000000000001
 30
0.0
 40
1.8999999999999999
  0
ARC
  5
4F6
  8
0
 10
206.46000000000481
 20
105.40000000000001
 30
0.0
 40
0.1266666666666234
 50
90.000000000024414
 51
269.99999999996737
  0
ARC
  5
4F7
  8
0
 10
208.73999999999549
 20
105.40000000000001
 30
0.0
 40
0.1266666666666234
 50
270.00000000002439
 51
89.999999999967429
  0
LINE
  5
4F8
  8
0
 10
208.73999999999549
 20
105.2733333333334
 30
0.0
 11
208.04333333333341
 21
105.2733333333334
 31
0.0
  0
LINE
  5
4F9
  8
0
 10
206.4600000000047
 20
105.2733333333334
 30
0.0
 11
207.15666666666681
 21
105.2733333333334
 31
0.0
  0
ARC
  5
4FA
  8
0
 10
208.04333333333341
 20
104.95666666666671
 30
0.0
 40
0.3166666666666666
 50
90.000000000002245
 51
180.00000000000219
  0
ARC
  5
4FB
  8
0
 10
207.15666666666681
 20
104.95666666666681
 30
0.0
 40
0.3166666666666666
 50
0.0000000000022391
 51
90.000000000002245
  0
ARC
  5
4FC
  8
0
 10
207.60000000000019
 20
104.26000000000469
 30
0.0
 40
0.1266666666666234
 50
180.00000000002439
 51
359.99999999996749
  0
LINE
  5
4FD
  8
0
 10
207.7266666666668
 20
104.2600000000046
 30
0.0
 11
207.7266666666668
 21
104.95666666666671
 31
0.0
  0
LINE
  5
4FE
  8
0
 10
207.4733333333335
 20
104.26000000000469
 30
0.0
 11
207.4733333333335
 21
104.95666666666681
 31
0.0
  0
LINE
  5
4FF
  8
0
 10
208.73999999999549
 20
105.5266666666667
 30
0.0
 11
208.04333333333349
 21
105.5266666666667
 31
0.0
  0
LINE
  5
501
  8
0
 10
207.7266666666668
 20
106.5399999999954
 30
0.0
 11
207.7266666666668
 21
105.84333333333331
 31
0.0
  0
LINE
  5
502
  8
0
 10
207.4733333333335
 20
106.5399999999954
 30
0.0
 11
207.47333333333361
 21
105.8433333333334
 31
0.0
  0
ARC
  5
503
  8
0
 10
207.60000000000011
 20
106.5399999999954
 30
0.0
 40
0.1266666666666234
 50
0.0000000000244267
 51
179.9999999999674
  0
LINE
  5
504
  8
0
 10
206.46000000000481
 20
105.5266666666667
 30
0.0
 11
207.15666666666689
 21
105.5266666666668
 31
0.0
  0
ARC
  5
505
  8
0
 10
207.15666666666689
 20
105.8433333333334
 30
0.0
 40
0.3166666666666666
 50
270.00000000000267
 51
0.000000000005496
  0
ARC
  5
506
  8
0
 10
208.04333333333349
 20
105.84333333333331
 30
0.0
 40
0.3166666666666666
 50
180.00000000000219
 51
270.00000000000222
  0
CIRCLE
  5
525
  8
0
 10
268.60000000000019
 20
105.40000000000001
 30
0.0
 40
1.8999999999999999
  0
ARC
  5
535
  8
0
 10
269.73999999999552
 20
105.40000000000001
 30
0.0
 40
0.1266666666666234
 50
270.00000000002439
 51
89.999999999967429
  0
ARC
  5
536
  8
0
 10
267.46000000000492
 20
105.40000000000001
 30
0.0
 40
0.1266666666666234
 50
90.000000000024414
 51
269.99999999996737
  0
LINE
  5
538
  8
0
 10
268.47333333333353
 20
104.26000000000469
 30
0.0
 11
268.47333333333353
 21
104.95666666666681
 31
0.0
  0
LINE
  5
539
  8
0
 10
268.72666666666692
 20
104.2600000000046
 30
0.0
 11
268.72666666666692
 21
104.95666666666671
 31
0.0
  0
ARC
  5
53A
  8
0
 10
268.60000000000019
 20
104.26000000000469
 30
0.0
 40
0.1266666666666234
 50
180.00000000002439
 51
359.99999999996749
  0
ARC
  5
53B
  8
0
 10
268.15666666666681
 20
104.95666666666681
 30
0.0
 40
0.3166666666666666
 50
0.0000000000022391
 51
90.000000000002245
  0
ARC
  5
53C
  8
0
 10
269.04333333333352
 20
104.95666666666671
 30
0.0
 40
0.3166666666666666
 50
90.000000000002245
 51
180.00000000000219
  0
LINE
  5
53D
  8
0
 10
269.73999999999558
 20
105.2733333333334
 30
0.0
 11
269.04333333333352
 21
105.2733333333334
 31
0.0
  0
LINE
  5
53E
  8
0
 10
267.4600000000047
 20
105.2733333333334
 30
0.0
 11
268.15666666666681
 21
105.2733333333334
 31
0.0
  0
ARC
  5
541
  8
0
 10
269.04333333333358
 20
105.84333333333331
 30
0.0
 40
0.3166666666666666
 50
180.00000000000219
 51
270.00000000000222
  0
ARC
  5
542
  8
0
 10
268.15666666666692
 20
105.8433333333334
 30
0.0
 40
0.3166666666666666
 50
270.00000000000267
 51
0.000000000005496
  0
LINE
  5
543
  8
0
 10
269.73999999999558
 20
105.5266666666667
 30
0.0
 11
269.04333333333358
 21
105.5266666666667
 31
0.0
  0
ARC
  5
544
  8
0
 10
268.60000000000008
 20
106.5399999999954
 30
0.0
 40
0.1266666666666234
 50
0.0000000000244267
 51
179.9999999999674
  0
LINE
  5
545
  8
0
 10
268.47333333333353
 20
106.5399999999954
 30
0.0
 11
268.47333333333353
 21
105.8433333333334
 31
0.0
  0
LINE
  5
546
  8
0
 10
268.72666666666692
 20
106.5399999999954
 30
0.0
 11
268.72666666666692
 21
105.84333333333331
 31
0.0
  0
LINE
  5
547
  8
0
 10
267.46000000000492
 20
105.5266666666667
 30
0.0
 11
268.15666666666692
 21
105.5266666666668
 31
0.0
  0
LINE
  5
549
  8
1
 10
119.7
 20
123.40000000000001
 30
0.0
 11
75.0
 21
123.40000000000001
 31
0.0
  0
LINE
  5
54D
  8
0
 10
80.699999999999903
 20
125.1320508075689
 30
0.0
 11
83.900000000000048
 21
125.1320508075689
 31
0.0
  0
LINE
  5
54E
  8
0
 10
80.699999999999903
 20
121.6679491924311
 30
0.0
 11
83.900000000000048
 21
121.6679491924311
 31
0.0
  0
LINE
  5
54F
  8
0
 10
80.600000000000335
 20
125.15000000000001
 30
0.0
 11
80.600000000000108
 21
121.64999999999991
 31
0.0
  0
ARC
  5
550
  8
0
 10
82.852083333331706
 20
123.4000000000007
 30
0.0
 40
2.8520833333317062
 50
142.15071116789019
 51
217.8492888321324
  0
LINE
  5
551
  8
3
 10
80.461193469648336
 20
121.8449999999991
 30
0.0
 11
80.699999999999903
 21
121.8449999999991
 31
0.0
  0
LINE
  5
552
  8
3
 10
80.699999999999903
 20
124.95500000000079
 30
0.0
 11
80.461193469646872
 21
124.95500000000079
 31
0.0
  0
LINE
  5
553
  8
0
 10
80.600000000001714
 20
121.64999999999991
 30
0.0
 11
80.699999999999903
 21
121.64999999999991
 31
0.0
  0
LINE
  5
554
  8
0
 10
80.699999999999903
 20
125.15000000000001
 30
0.0
 11
80.600000000000108
 21
125.15000000000001
 31
0.0
  0
LINE
  5
555
  8
0
 10
83.900000000000048
 20
126.8641016151377
 30
0.0
 11
80.699999999999903
 21
126.8641016151377
 31
0.0
  0
LINE
  5
556
  8
0
 10
84.900000000000077
 20
128.74999999999989
 30
0.0
 11
83.900000000000048
 21
128.74999999999989
 31
0.0
  0
LINE
  5
557
  8
0
 10
112.2
 20
166.8000000000001
 30
0.0
 11
100.5
 21
166.80000000000001
 31
0.0
  0
LINE
  5
558
  8
0
 10
100.5
 20
165.80000000000001
 30
0.0
 11
86.900000000000063
 21
165.80000000000001
 31
0.0
  0
ARC
  5
559
  8
0
 10
86.900000000000063
 20
163.80000000000001
 30
0.0
 40
2.0
 50
90.0
 51
180.0
  0
ARC
  5
55A
  8
0
 10
112.2
 20
165.8000000000001
 30
0.0
 40
1.0
 50
359.99999999999977
 51
90.000000000000625
  0
TEXT
  5
789
  8
0
 62
     3
 10
0.0
 20
0.0
 30
0.0
 40
10.0
  1
SZ80R-5
  7
STANDARD1
  0
LINE
  5
A98
  8
0
 10
237.29605075791551
 20
146.90000000000001
 30
0.0
 11
222.60000000000011
 21
146.90000000000001
 31
0.0
  0
LINE
  5
A9B
  8
0
 10
238.97387098972561
 20
139.89999999999989
 30
0.0
 11
249.10000000000019
 21
139.89999999999989
 31
0.0
  0
LINE
  5
A9C
  8
0
 10
239.22500000000099
 20
144.89999999999989
 30
0.0
 11
239.22500000000099
 21
141.90000000000009
 31
0.0
  0
LINE
  5
AA9
  8
0
 10
239.22500000000099
 20
141.90000000000009
 30
0.0
 11
238.95657460083231
 21
141.6315746007198
 31
0.0
  0
LINE
  5
AAB
  8
0
 10
239.22500000000099
 20
144.89999999999989
 30
0.0
 11
238.92088917565019
 21
145.20411082447711
 31
0.0
  0
LINE
  5
AAC
  8
0
 10
236.9749999999994
 20
144.89999999999989
 30
0.0
 11
236.9749999999994
 21
141.90000000000009
 31
0.0
  0
LINE
  5
AAD
  8
0
 10
236.9749999999994
 20
141.90000000000009
 30
0.0
 11
237.24342539916799
 21
141.63157460071989
 31
0.0
  0
LINE
  5
AAE
  8
0
 10
236.9749999999994
 20
144.89999999999989
 30
0.0
 11
237.2791108243502
 21
145.20411082447711
 31
0.0
  0
LINE
  5
B0A
  8
3
 10
227.2343750000002
 20
105.9600256877853
 30
0.0
 11
227.52434931221489
 21
106.25
 31
0.0
  0
LINE
  5
B0B
  8
3
 10
227.2343750000002
 20
105.25291890659879
 30
0.0
 11
228.2314560934015
 21
106.25
 31
0.0
  0
LINE
  5
B0C
  8
3
 10
227.2343750000002
 20
104.5458121254122
 30
0.0
 11
228.938562874588
 21
106.25
 31
0.0
  0
LINE
  5
B0D
  8
3
 10
227.2343750000002
 20
103.8387053442257
 30
0.0
 11
229.0156250000002
 21
105.6199553442257
 31
0.0
  0
LINE
  5
B0E
  8
3
 10
227.2343750000002
 20
103.13159856303911
 30
0.0
 11
229.0156250000002
 21
104.91284856303911
 31
0.0
  0
LINE
  5
B0F
  8
3
 10
227.2343750000002
 20
102.42449178185259
 30
0.0
 11
229.0156250000002
 21
104.20574178185259
 31
0.0
  0
LINE
  5
B10
  8
3
 10
227.2343750000002
 20
101.717385000666
 30
0.0
 11
229.0156250000002
 21
103.498635000666
 31
0.0
  0
LINE
  5
B11
  8
3
 10
229.7470853249452
 20
104.230095325611
 30
0.0
 11
231.7480296743891
 21
106.231039675055
 31
0.0
  0
LINE
  5
B12
  8
3
 10
227.2343750000002
 20
101.0102782194795
 30
0.0
 11
229.0156250000002
 21
102.7915282194795
 31
0.0
  0
LINE
  5
B13
  8
3
 10
229.7281250000002
 20
103.50402821947949
 30
0.0
 11
232.43995034258529
 21
106.21585356206459
 31
0.0
  0
LINE
  5
B14
  8
3
 10
227.4812035617073
 20
100.55
 30
0.0
 11
229.0156250000002
 21
102.08442143829291
 31
0.0
  0
LINE
  5
B15
  8
3
 10
229.7281250000002
 20
102.7969214382929
 30
0.0
 11
232.9824200158487
 21
106.0512164541415
 31
0.0
  0
LINE
  5
B16
  8
3
 10
228.1883103428938
 20
100.55
 30
0.0
 11
229.0156250000002
 21
101.3773146571063
 31
0.0
  0
LINE
  5
B17
  8
3
 10
232.103688215696
 20
104.46537787280219
 30
0.0
 11
233.42858309088751
 21
105.7902727479937
 31
0.0
  0
LINE
  5
B18
  8
3
 10
229.7281250000002
 20
102.0898146571064
 30
0.0
 11
231.50937500000029
 21
103.8710646571064
 31
0.0
  0
LINE
  5
B19
  8
3
 10
228.89541712408041
 20
100.55
 30
0.0
 11
229.0156250000002
 21
100.6702078759198
 31
0.0
  0
LINE
  5
B1A
  8
3
 10
232.52072697747761
 20
104.1753098533972
 30
0.0
 11
234.5731105705471
 21
106.2276934464668
 31
0.0
  0
LINE
  5
B1B
  8
3
 10
229.7281250000002
 20
101.38270787591981
 30
0.0
 11
231.5093750000002
 21
103.16395787591991
 31
0.0
  0
LINE
  5
B1C
  8
3
 10
229.7281250000002
 20
100.6756010947333
 30
0.0
 11
231.5093750000002
 21
102.4568510947333
 31
0.0
  0
LINE
  5
B1D
  8
3
 10
232.5781250000002
 20
103.5256010947333
 30
0.0
 11
235.27150411591759
 21
106.2189802106507
 31
0.0
  0
LINE
  5
B1E
  8
3
 10
230.30963068645349
 20
100.55
 30
0.0
 11
231.5093750000002
 21
101.7497443135468
 31
0.0
  0
LINE
  5
B1F
  8
3
 10
232.5781250000002
 20
102.81849431354669
 30
0.0
 11
235.81743058791301
 21
106.0577999014594
 31
0.0
  0
LINE
  5
B20
  8
3
 10
231.01673746764001
 20
100.55
 30
0.0
 11
231.5093750000002
 21
101.0426375323602
 31
0.0
  0
LINE
  5
B21
  8
3
 10
234.93397160748501
 20
104.4672341398449
 30
0.0
 11
236.2661920672171
 21
105.799454599577
 31
0.0
  0
LINE
  5
B22
  8
3
 10
232.5781250000002
 20
102.1113875323602
 30
0.0
 11
234.3593750000002
 21
103.8926375323602
 31
0.0
  0
LINE
  5
B23
  8
3
 10
232.5781250000002
 20
101.4042807511736
 30
0.0
 11
234.3593750000002
 21
103.1855307511737
 31
0.0
  0
LINE
  5
B24
  8
3
 10
235.36330914144119
 20
104.18946489261469
 30
0.0
 11
236.6348635384212
 21
105.4610192895946
 31
0.0
  0
LINE
  5
B25
  8
3
 10
232.5781250000002
 20
100.69717396998711
 30
0.0
 11
234.3593750000002
 21
102.47842396998711
 31
0.0
  0
LINE
  5
B26
  8
3
 10
235.42812500000019
 20
103.5471739699871
 30
0.0
 11
236.92575855189469
 21
105.04480752188169
 31
0.0
  0
LINE
  5
B27
  8
3
 10
233.13805781119959
 20
100.55
 30
0.0
 11
234.3593750000002
 21
101.7713171888005
 31
0.0
  0
LINE
  5
B28
  8
3
 10
235.42812500000019
 20
102.8400671888005
 30
0.0
 11
237.12862216747669
 21
104.5405643562771
 31
0.0
  0
LINE
  5
B29
  8
3
 10
233.8451645923862
 20
100.55
 30
0.0
 11
234.3593750000002
 21
101.064210407614
 31
0.0
  0
LINE
  5
B2A
  8
3
 10
238.086137725703
 20
104.7909731333169
 30
0.0
 11
239.3809023667111
 21
106.0857377743249
 31
0.0
  0
LINE
  5
B2B
  8
3
 10
235.42812500000011
 20
102.13296040761389
 30
0.0
 11
237.20937500000019
 21
103.91421040761399
 31
0.0
  0
LINE
  5
B2C
  8
3
 10
235.42812500000019
 20
101.4258536264274
 30
0.0
 11
237.20937500000019
 21
103.2071036264274
 31
0.0
  0
LINE
  5
B2D
  8
3
 10
237.9218750000002
 20
103.9196036264275
 30
0.0
 11
240.25222505483001
 21
106.2499536812572
 31
0.0
  0
LINE
  5
B2E
  8
3
 10
235.42812500000019
 20
100.7187468452408
 30
0.0
 11
237.20937500000019
 21
102.4999968452409
 31
0.0
  0
LINE
  5
B2F
  8
3
 10
237.9218750000002
 20
103.21249684524091
 30
0.0
 11
240.87102981854429
 21
106.16165166378499
 31
0.0
  0
LINE
  5
B30
  8
3
 10
235.96648493594591
 20
100.55
 30
0.0
 11
237.20937500000019
 21
101.7928900640543
 31
0.0
  0
LINE
  5
B31
  8
3
 10
237.9218750000002
 20
102.5053900640544
 30
0.0
 11
241.37041850618721
 21
105.9539335702413
 31
0.0
  0
LINE
  5
B32
  8
3
 10
236.67359171713241
 20
100.55
 30
0.0
 11
237.20937500000019
 21
101.08578328286779
 31
0.0
  0
LINE
  5
B33
  8
3
 10
240.51477610831179
 20
104.39118439117939
 30
0.0
 11
241.78266527849311
 21
105.6590735613607
 31
0.0
  0
LINE
  5
B34
  8
3
 10
237.9218750000002
 20
101.7982832828678
 30
0.0
 11
239.7031250000002
 21
103.5795332828678
 31
0.0
  0
LINE
  5
B35
  8
3
 10
237.9218750000002
 20
101.0911765016812
 30
0.0
 11
240.05257349831891
 21
103.221875
 31
0.0
  0
LINE
  5
B36
  8
3
 10
240.7718322590172
 20
103.94113376069831
 30
0.0
 11
242.11729318399449
 21
105.2865946856756
 31
0.0
  0
LINE
  5
B37
  8
3
 10
238.08780527950549
 20
100.55
 30
0.0
 11
240.75968027950549
 21
103.221875
 31
0.0
  0
LINE
  5
B38
  8
3
 10
240.77187500000019
 20
103.2340697204947
 30
0.0
 11
242.371399130296
 21
104.83359385079039
 31
0.0
  0
LINE
  5
B39
  8
3
 10
238.7949120606919
 20
100.5499999999999
 30
0.0
 11
239.7031250000002
 21
101.4582129393082
 31
0.0
  0
LINE
  5
B3A
  8
3
 10
240.041787060692
 20
101.796875
 30
0.0
 11
242.52688717722299
 21
104.281975116531
 31
0.0
  0
LINE
  5
B3B
  8
3
 10
239.50201884187851
 20
100.55
 30
0.0
 11
239.7031250000002
 21
100.7511061581216
 31
0.0
  0
LINE
  5
B3C
  8
3
 10
243.51266509220011
 20
104.5606462503216
 30
0.0
 11
244.95497874967859
 21
106.00295990779991
 31
0.0
  0
LINE
  5
B3D
  8
3
 10
240.74889384187861
 20
101.796875
 30
0.0
 11
242.55312500000019
 21
103.6011061581216
 31
0.0
  0
LINE
  5
B3E
  8
3
 10
240.77187500000019
 20
101.112749376935
 30
0.0
 11
242.55312500000019
 21
102.893999376935
 31
0.0
  0
LINE
  5
B3F
  8
3
 10
243.27371519959391
 20
103.6145895765288
 30
0.0
 11
245.90103542347131
 21
106.24190980040621
 31
0.0
  0
LINE
  5
B40
  8
3
 10
240.9162324042517
 20
100.55
 30
0.0
 11
242.55312500000019
 21
102.1868925957485
 31
0.0
  0
LINE
  5
B41
  8
3
 10
243.30344935637521
 20
102.93721695212351
 30
0.0
 11
246.57840804787671
 21
106.212175643625
 31
0.0
  0
LINE
  5
B42
  8
3
 10
241.6233391854382
 20
100.55
 30
0.0
 11
242.55312500000019
 21
101.47978581456189
 31
0.0
  0
LINE
  5
B43
  8
3
 10
243.4541086725074
 20
102.3807694870692
 30
0.0
 11
247.13485551293101
 21
106.0615163274927
 31
0.0
  0
LINE
  5
B44
  8
3
 10
242.33044596662481
 20
100.55
 30
0.0
 11
242.55312500000019
 21
100.7726790333754
 31
0.0
  0
LINE
  5
B45
  8
3
 10
246.24173012294949
 20
104.46128415632469
 30
0.0
 11
247.60829313063431
 21
105.8278471640095
 31
0.0
  0
LINE
  5
B46
  8
3
 10
243.68777783599069
 20
101.9073318693659
 30
0.0
 11
245.05434084367539
 21
103.27389487705059
 31
0.0
  0
LINE
  5
B47
  8
3
 10
243.98956358531089
 20
101.5020108374996
 30
0.0
 11
245.25452191359011
 21
102.7669691657787
 31
0.0
  0
LINE
  5
B48
  8
3
 10
246.74865583422141
 20
104.2611030864101
 30
0.0
 11
248.0136141625006
 21
105.5260614146892
 31
0.0
  0
LINE
  5
B49
  8
3
 10
244.3541721297876
 20
101.1595126007898
 30
0.0
 11
245.63838235960969
 21
102.4437228306118
 31
0.0
  0
LINE
  5
B4A
  8
3
 10
247.0719021693883
 20
103.87724264039051
 30
0.0
 11
248.35611239921039
 21
105.1614528702125
 31
0.0
  0
LINE
  5
B4B
  8
3
 10
244.7826849598809
 20
100.8809186496965
 30
0.0
 11
246.24031495596111
 21
102.3385486457767
 31
0.0
  0
LINE
  5
B4C
  8
3
 10
247.1770763542234
 20
103.275310044039
 30
0.0
 11
248.63470635030359
 21
104.7329400401192
 31
0.0
  0
LINE
  5
B4D
  8
3
 10
245.28316138170439
 20
100.67428829033339
 30
0.0
 11
248.84133670966671
 21
104.2324636182958
 31
0.0
  0
LINE
  5
B4E
  8
3
 10
245.87606588927099
 20
100.5600860167135
 30
0.0
 11
248.95553898328669
 21
103.63955911072919
 31
0.0
  0
LINE
  5
B4F
  8
3
 10
246.6176508506507
 20
100.5945641969066
 30
0.0
 11
248.92106080309361
 21
102.89797414934949
 31
0.0
  0
LINE
  5
B50
  8
3
 10
247.9438559563533
 20
101.21366252142271
 30
0.0
 11
248.30196247857751
 21
101.5717690436469
 31
0.0
  0
POLYLINE
  5
B51
  8
4
 66
     1
 10
0.0
 20
0.0
 30
0.0
 70
     1
  0
VERTEX
  5
1EB9
  8
4
 10
248.9656250000001
 20
103.40000000000001
 30
0.0
 42
1.0
  0
VERTEX
  5
1EBA
  8
4
 10
243.2656250000002
 20
103.40000000000001
 30
0.0
 42
1.0
  0
SEQEND
  5
1EBB
  8
4
  0
POLYLINE
  5
B52
  8
4
 66
     1
 10
0.0
 20
0.0
 30
0.0
 70
     1
  0
VERTEX
  5
1EBC
  8
4
 10
245.0468750000002
 20
103.40000000000001
 30
0.0
 42
1.0
  0
VERTEX
  5
1EBD
  8
4
 10
247.18437500000019
 20
103.40000000000001
 30
0.0
 42
1.0
  0
SEQEND
  5
1EBE
  8
4
  0
POLYLINE
  5
B53
  8
4
 66
     1
 10
0.0
 20
0.0
 30
0.0
 70
     1
  0
VERTEX
  5
1EBF
  8
4
 10
231.5093750000002
 20
100.55
 30
0.0
  0
VERTEX
  5
1EC0
  8
4
 10
231.5093750000002
 20
103.934375
 30
0.0
 42
-1.0
  0
VERTEX
  5
1EC1
  8
4
 10
232.5781250000002
 20
103.934375
 30
0.0
  0
VERTEX
  5
1EC2
  8
4
 10
232.5781250000002
 20
100.55
 30
0.0
  0
VERTEX
  5
1EC3
  8
4
 10
234.3593750000002
 20
100.55
 30
0.0
  0
VERTEX
  5
1EC4
  8
4
 10
234.3593750000002
 20
103.934375
 30
0.0
 42
-1.0
  0
VERTEX
  5
1EC5
  8
4
 10
235.42812500000019
 20
103.934375
 30
0.0
  0
VERTEX
  5
1EC6
  8
4
 10
235.42812500000019
 20
100.55
 30
0.0
  0
VERTEX
  5
1EC7
  8
4
 10
237.20937500000019
 20
100.55
 30
0.0
  0
VERTEX
  5
1EC8
  8
4
 10
237.20937500000019
 20
103.934375
 30
0.0
 42
0.6247472440541069
  0
VERTEX
  5
1EC9
  8
4
 10
233.4687500000002
 20
105.7596131051865
 30
0.0
 42
0.6247472440541069
  0
VERTEX
  5
1ECA
  8
4
 10
229.7281250000002
 20
103.934375
 30
0.0
  0
VERTEX
  5
1ECB
  8
4
 10
229.7281250000002
 20
100.55
 30
0.0
  0
SEQEND
  5
1ECC
  8
4
  0
POLYLINE
  5
B54
  8
4
 66
     1
 10
0.0
 20
0.0
 30
0.0
 70
     1
  0
VERTEX
  5
1ECD
  8
4
 10
229.0156250000002
 20
106.25
 30
0.0
  0
VERTEX
  5
1ECE
  8
4
 10
227.2343750000002
 20
106.25
 30
0.0
  0
VERTEX
  5
1ECF
  8
4
 10
227.2343750000002
 20
100.55
 30
0.0
  0
VERTEX
  5
1ED0
  8
4
 10
229.0156250000002
 20
100.55
 30
0.0
  0
SEQEND
  5
1ED1
  8
4
  0
POLYLINE
  5
B55
  8
4
 66
     1
 10
0.0
 20
0.0
 30
0.0
 70
     1
  0
VERTEX
  5
1ED2
  8
4
 10
239.7031250000002
 20
101.7968749999999
 30
0.0
  0
VERTEX
  5
1ED3
  8
4
 10
240.77187500000019
 20
101.796875
 30
0.0
  0
VERTEX
  5
1ED4
  8
4
 10
240.77187500000019
 20
100.55
 30
0.0
  0
VERTEX
  5
1ED5
  8
4
 10
242.55312500000019
 20
100.55
 30
0.0
  0
VERTEX
  5
1ED6
  8
4
 10
242.55312500000019
 20
103.934375
 30
0.0
 42
1.000000215936474
  0
VERTEX
  5
1ED7
  8
4
 10
237.9218750000002
 20
103.934375
 30
0.0
  0
VERTEX
  5
1ED8
  8
4
 10
237.9218750000002
 20
100.55
 30
0.0
  0
VERTEX
  5
1ED9
  8
4
 10
239.7031250000002
 20
100.5499999999999
 30
0.0
  0
SEQEND
  5
1EDA
  8
4
  0
POLYLINE
  5
B56
  8
4
 66
     1
 10
0.0
 20
0.0
 30
0.0
 70
     1
  0
VERTEX
  5
1EDB
  8
4
 10
240.77187500000019
 20
103.221875
 30
0.0
  0
VERTEX
  5
1EDC
  8
4
 10
240.77187500000019
 20
103.934375
 30
0.0
 42
1.0000004495664849
  0
VERTEX
  5
1EDD
  8
4
 10
239.7031250000002
 20
103.934375
 30
0.0
  0
VERTEX
  5
1EDE
  8
4
 10
239.7031250000002
 20
103.221875
 30
0.0
  0
SEQEND
  5
1EDF
  8
4
  0
TEXT
  5
12B2
  8
0
 10
243.47500000000011
 20
141.15000000000001
 30
0.0
 40
4.5
  1
0
 72
     1
 11
244.60000000000011
 21
141.15000000000001
 31
0.0
  0
TEXT
  5
1B8B
  8
0
 10
249.85000000000019
 20
141.15000000000001
 30
0.0
 40
4.5
  1
5
 72
     1
 11
251.35000000000019
 21
141.15000000000001
 31
0.0
  0
LINE
  5
1B8D
  8
0
 10
205.57386714270589
 20
133.9683812076232
 30
0.0
 11
211.28020624047679
 21
132.11427924137359
 31
0.0
  0
LINE
  5
1B8E
  8
3
 10
207.15491480566229
 20
137.96165177152551
 30
0.0
 11
210.7742230155273
 21
136.2585346052648
 31
0.0
  0
LINE
  5
1B8F
  8
3
 10
209.22398494783121
 20
141.72527638828171
 30
0.0
 11
212.60129664984009
 21
139.58196920836519
 31
0.0
  0
LINE
  5
1B90
  8
3
 10
211.74844709706821
 20
145.19990044940519
 30
0.0
 11
214.83050006817211
 21
142.65020449040981
 31
0.0
  0
LINE
  5
1B91
  8
3
 10
214.68848897723899
 20
148.33072705781231
 30
0.0
 11
217.42667740095439
 21
145.41485254812591
 31
0.0
  0
LINE
  5
1B92
  8
0
 10
217.99774437159761
 20
151.06838120762319
 30
0.0
 11
220.348885380768
 21
147.83231323012271
 31
0.0
  0
LINE
  5
1B93
  8
3
 10
221.62402434572149
 20
153.3696884575001
 30
0.0
 11
223.55103904212879
 21
149.86446173732381
 31
0.0
  0
LINE
  5
1B94
  8
3
 10
225.51014029818421
 20
155.1983558173782
 30
0.0
 11
226.9826385089232
 21
151.4792498738243
 31
0.0
  0
LINE
  5
1B95
  8
3
 10
229.5948058589621
 20
156.52554411059921
 30
0.0
 11
230.58956540762179
 21
152.65121146608371
 31
0.0
  0
LINE
  5
1B96
  8
3
 10
233.81360341210089
 20
157.33032278495509
 30
0.0
 11
234.31493634635831
 21
153.3618639796963
 31
0.0
  0
LINE
  5
1B97
  8
0
 10
217.99774437159761
 20
95.731618792376864
 30
0.0
 11
221.52445588535241
 21
100.58572075862649
 31
0.0
  0
LINE
  5
1B98
  8
3
 10
214.68848897723899
 20
98.469272942187786
 30
0.0
 11
217.42667740095439
 21
101.3851474518741
 31
0.0
  0
LINE
  5
1B99
  8
3
 10
211.74844709706821
 20
101.6000995505949
 30
0.0
 11
214.83050006817211
 21
104.14979550959021
 31
0.0
  0
LINE
  5
1B9A
  8
3
 10
209.4937418765092
 20
105.2459165643036
 30
0.0
 11
212.60129664984009
 21
107.2180307916349
 31
0.0
  0
LINE
  5
1B9B
  8
3
 10
207.15491480566229
 20
108.8383482284746
 30
0.0
 11
210.7742230155273
 21
110.5414653947353
 31
0.0
  0
LINE
  5
1B9C
  8
0
 10
205.57386714270589
 20
112.8316187923768
 30
0.0
 11
209.37809320788739
 21
114.0676867698769
 31
0.0
  0
LINE
  5
1B9D
  8
3
 10
204.505776025079
 20
116.9915590411682
 30
0.0
 11
208.43492502799469
 21
117.7410842995114
 31
0.0
  0
LINE
  5
1B9E
  8
3
 10
203.96748588775321
 20
121.2525642320975
 30
0.0
 11
207.95959280146729
 21
121.5037263102149
 31
0.0
  0
LINE
  5
1B9F
  8
3
 10
203.96748588775321
 20
125.5474357679026
 30
0.0
 11
207.95959280146729
 21
125.2962736897852
 31
0.0
  0
LINE
  5
1BA0
  8
3
 10
204.505776025079
 20
129.8084409588318
 30
0.0
 11
208.43492502799469
 21
129.05891570048871
 31
0.0
  0
LINE
  5
1BA1
  8
0
 10
258.20225562840272
 20
95.731618792376821
 30
0.0
 11
254.67554411464781
 21
100.58572075862649
 31
0.0
  0
LINE
  5
1BA2
  8
3
 10
254.57597565427869
 20
93.430311542499894
 30
0.0
 11
252.6489609578714
 21
96.935538262676246
 31
0.0
  0
LINE
  5
1BA3
  8
3
 10
250.689859701816
 20
91.601644182621826
 30
0.0
 11
249.21736149107701
 21
95.320750126175767
 31
0.0
  0
LINE
  5
1BA4
  8
3
 10
246.60519414103811
 20
90.274455889400869
 30
0.0
 11
245.6104345923784
 21
94.148788533916317
 31
0.0
  0
LINE
  5
1BA5
  8
3
 10
242.3863965878993
 20
89.469677215044896
 30
0.0
 11
241.88506365364191
 21
93.438136020303801
 31
0.0
  0
LINE
  5
1BA6
  8
0
 10
238.10000000000011
 20
89.200000000000045
 30
0.0
 11
238.09999999999999
 21
93.200000000001012
 31
0.0
  0
LINE
  5
1BA7
  8
3
 10
233.81360341210089
 20
89.469677215044953
 30
0.0
 11
234.31493634635819
 21
93.438136020303773
 31
0.0
  0
LINE
  5
1BA8
  8
3
 10
229.59480585896199
 20
90.274455889400869
 30
0.0
 11
230.58956540762159
 21
94.14878853391636
 31
0.0
  0
LINE
  5
1BA9
  8
3
 10
225.5101402981841
 20
91.601644182621868
 30
0.0
 11
226.9826385089232
 21
95.320750126175767
 31
0.0
  0
LINE
  5
1BAA
  8
3
 10
221.62402434572141
 20
93.430311542499936
 30
0.0
 11
223.55103904212879
 21
96.935538262676246
 31
0.0
  0
LINE
  5
1BAB
  8
0
 10
270.62613285729429
 20
133.96838120762311
 30
0.0
 11
264.91979375952337
 21
132.11427924137351
 31
0.0
  0
LINE
  5
1BAC
  8
3
 10
271.69422397492121
 20
129.80844095883171
 30
0.0
 11
267.76507497200561
 21
129.0589157004886
 31
0.0
  0
LINE
  5
1BAD
  8
3
 10
272.23251411224697
 20
125.5474357679025
 30
0.0
 11
268.24040719853292
 21
125.2962736897851
 31
0.0
  0
LINE
  5
1BAE
  8
3
 10
272.23251411224697
 20
121.2525642320974
 30
0.0
 11
268.24040719853292
 21
121.5037263102147
 31
0.0
  0
LINE
  5
1BAF
  8
3
 10
271.69422397492121
 20
116.9915590411682
 30
0.0
 11
267.76507497200561
 21
117.7410842995112
 31
0.0
  0
LINE
  5
1BB0
  8
0
 10
270.62613285729429
 20
112.8316187923767
 30
0.0
 11
266.82190679211283
 21
114.0676867698768
 31
0.0
  0
LINE
  5
1BB1
  8
3
 10
269.04508519433801
 20
108.8383482284745
 30
0.0
 11
265.42577698447298
 21
110.5414653947352
 31
0.0
  0
LINE
  5
1BB2
  8
3
 10
266.70625812349112
 20
105.2459165643035
 30
0.0
 11
263.59870335016012
 21
107.2180307916348
 31
0.0
  0
LINE
  5
1BB3
  8
3
 10
264.45155290293201
 20
101.60009955059481
 30
0.0
 11
261.36949993182822
 21
104.14979550959021
 31
0.0
  0
LINE
  5
1BB4
  8
3
 10
261.51151102276123
 20
98.469272942187715
 30
0.0
 11
258.77332259904568
 21
101.385147451874
 31
0.0
  0
LINE
  5
1BB5
  8
3
 10
269.04508519433801
 20
137.9616517715254
 30
0.0
 11
265.42577698447298
 21
136.25853460526471
 31
0.0
  0
LINE
  5
1BB6
  8
3
 10
266.97601505216898
 20
141.7252763882816
 30
0.0
 11
263.59870335016012
 21
139.58196920836511
 31
0.0
  0
LINE
  5
1BB7
  8
3
 10
264.45155290293212
 20
145.19990044940511
 30
0.0
 11
261.36949993182822
 21
142.65020449040969
 31
0.0
  0
LINE
  5
1BB8
  8
3
 10
261.51151102276128
 20
148.3307270578122
 30
0.0
 11
258.7733225990458
 21
145.41485254812579
 31
0.0
  0
LINE
  5
1BB9
  8
0
 10
258.20225562840272
 20
151.0683812076231
 30
0.0
 11
255.85111461923231
 21
147.83231323012259
 31
0.0
  0
LINE
  5
1BBA
  8
3
 10
254.57597565427881
 20
153.3696884575001
 30
0.0
 11
252.64896095787151
 21
149.86446173732369
 31
0.0
  0
LINE
  5
1BBB
  8
3
 10
250.68985970181609
 20
155.19835581737809
 30
0.0
 11
249.2173614910771
 21
151.47924987382419
 31
0.0
  0
LINE
  5
1BBC
  8
3
 10
246.6051941410382
 20
156.52554411059921
 30
0.0
 11
245.61043459237851
 21
152.65121146608371
 31
0.0
  0
LINE
  5
1BBD
  8
3
 10
242.3863965878993
 20
157.33032278495509
 30
0.0
 11
241.88506365364199
 21
153.36186397969621
 31
0.0
  0
TEXT
  5
1BBF
  8
0
 10
235.35162285470241
 20
109.40000000000001
 30
0.0
 40
3.0
  1
0,1
 72
     1
 11
237.85162285470241
 21
109.40000000000001
 31
0.0
  0
SOLID
  5
1BC0
  8
0
 10
233.85000000200009
 20
115.06666666700001
 30
0.0
 11
233.85000000200009
 21
115.733333333
 31
0.0
 12
235.85000000000019
 22
115.40000000000001
 32
0.0
 13
235.85000000000019
 23
115.40000000000001
 33
0.0
  0
LINE
  5
1BC1
  8
0
 10
233.85000000200009
 20
115.40000000000001
 30
0.0
 11
231.60000000000019
 21
115.40000000000001
 31
0.0
  0
LINE
  5
1BC2
  8
0
 10
242.3499999980001
 20
115.40000000000001
 30
0.0
 11
244.60000000000011
 21
115.40000000000001
 31
0.0
  0
SOLID
  5
1BC3
  8
0
 10
242.3499999980001
 20
115.06666666700001
 30
0.0
 11
242.3499999980001
 21
115.733333333
 31
0.0
 12
240.35000000000011
 22
115.40000000000001
 32
0.0
 13
240.35000000000011
 23
115.40000000000001
 33
0.0
  0
LINE
  5
1BC4
  8
0
 10
239.85000000000019
 20
116.90000000000001
 30
0.0
 11
239.85000000000019
 21
113.90000000000001
 31
0.0
  0
LINE
  5
1BC5
  8
0
 10
236.35000000000011
 20
116.90000000000001
 30
0.0
 11
236.35000000000011
 21
113.90000000000001
 31
0.0
  0
LINE
  5
1BCE
  8
0
 10
238.10000000000019
 20
157.59999999999999
 30
0.0
 11
238.10000000000019
 21
153.5999999999928
 31
0.0
  0
ARC
  5
1BCF
  8
3
 10
238.10000000000019
 20
123.40000000000001
 30
0.0
 40
34.200000000000003
 50
331.85691685846712
 51
208.14308314153291
  0
ARC
  5
1C10
  8
3
 10
238.10000000000019
 20
123.40000000000001
 30
0.0
 40
34.200000000000003
 50
212.9520603562805
 51
327.04793964371959
  0
ENDSEC
  0
EOF
