  0
SECTION
  2
HEADER
  9
$ACADVER
  1
AC1009
  9
$INSBASE
 10
0.0
 20
0.0
 30
0.0
  9
$EXTMIN
 10
0.0
 20
-2.960436562073669
 30
0.0
  9
$EXTMAX
 10
72.919524393106258
 20
40.176145740707277
 30
0.0
  9
$LIMMIN
 10
0.0
 20
0.0
  9
$LIMMAX
 10
187.5
 20
135.0
  9
$ORTHOMODE
 70
     1
  9
$REGENMODE
 70
     1
  9
$FILLMODE
 70
     1
  9
$QTEXTMODE
 70
     0
  9
$MIRRTEXT
 70
     0
  9
$DRAGMODE
 70
     2
  9
$LTSCALE
 40
5.0
  9
$OSMODE
 70
  3071
  9
$ATTMODE
 70
     1
  9
$TEXTSIZE
 40
0.2
  9
$TRACEWID
 40
0.05
  9
$TEXTSTYLE
  7
STANDARD
  9
$CLAYER
  8
0
  9
$CELTYPE
  6
BYLAYER
  9
$CECOLOR
 62
   256
  9
$DIMSCALE
 40
0.5
  9
$DIMASZ
 40
3.0
  9
$DIMEXO
 40
2.0
  9
$DIMDLI
 40
0.38
  9
$DIMRND
 40
0.0
  9
$DIMDLE
 40
0.0
  9
$DIMEXE
 40
2.0
  9
$DIMTP
 40
0.0
  9
$DIMTM
 40
0.0
  9
$DIMTXT
 40
3.2000000000000002
  9
$DIMCEN
 40
0.0
  9
$DIMTSZ
 40
0.0
  9
$DIMTOL
 70
     0
  9
$DIMLIM
 70
     0
  9
$DIMTIH
 70
     0
  9
$DIMTOH
 70
     0
  9
$DIMSE1
 70
     0
  9
$DIMSE2
 70
     0
  9
$DIMTAD
 70
     1
  9
$DIMZIN
 70
     0
  9
$DIMBLK
  1

  9
$DIMASO
 70
     0
  9
$DIMSHO
 70
     0
  9
$DIMPOST
  1

  9
$DIMAPOST
  1

  9
$DIMALT
 70
     0
  9
$DIMALTD
 70
     2
  9
$DIMALTF
 40
25.399999999999999
  9
$DIMLFAC
 40
1.0
  9
$DIMTOFL
 70
     1
  9
$DIMTVP
 40
1.6000000000000001
  9
$DIMTIX
 70
     1
  9
$DIMSOXD
 70
     0
  9
$DIMSAH
 70
     0
  9
$DIMBLK1
  1

  9
$DIMBLK2
  1

  9
$DIMSTYLE
  2
STANDARD
  9
$DIMCLRD
 70
     0
  9
$DIMCLRE
 70
     0
  9
$DIMCLRT
 70
     0
  9
$DIMTFAC
 40
1.0
  9
$DIMGAP
 40
0.09
  9
$LUNITS
 70
     2
  9
$LUPREC
 70
     4
  9
$SKETCHINC
 40
0.1
  9
$FILLETRAD
 40
0.0
  9
$AUNITS
 70
     0
  9
$AUPREC
 70
     4
  9
$MENU
  1
E:\r13\win\SUPPORT\ACAD
  9
$ELEVATION
 40
0.0
  9
$PELEVATION
 40
0.0
  9
$THICKNESS
 40
0.0
  9
$LIMCHECK
 70
     0
  9
$BLIPMODE
 70
     0
  9
$CHAMFERA
 40
0.0
  9
$CHAMFERB
 40
0.0
  9
$SKPOLY
 70
     0
  9
$TDCREATE
 40
2449840.647557871
  9
$TDUPDATE
 40
2456602.613153623
  9
$TDINDWG
 40
0.0104168981
  9
$TDUSRTIMER
 40
2456598.3292375701
  9
$USRTIMER
 70
     1
  9
$ANGBASE
 50
0.0
  9
$ANGDIR
 70
     0
  9
$PDMODE
 70
     0
  9
$PDSIZE
 40
0.0
  9
$PLINEWID
 40
0.0
  9
$COORDS
 70
     1
  9
$SPLFRAME
 70
     0
  9
$SPLINETYPE
 70
     6
  9
$SPLINESEGS
 70
     8
  9
$ATTDIA
 70
     0
  9
$ATTREQ
 70
     1
  9
$HANDLING
 70
     1
  9
$HANDSEED
  5
238
  9
$SURFTAB1
 70
     6
  9
$SURFTAB2
 70
     6
  9
$SURFTYPE
 70
     6
  9
$SURFU
 70
     6
  9
$SURFV
 70
     6
  9
$UCSNAME
  2

  9
$UCSORG
 10
0.0
 20
0.0
 30
0.0
  9
$UCSXDIR
 10
1.0
 20
0.0
 30
0.0
  9
$UCSYDIR
 10
0.0
 20
1.0
 30
0.0
  9
$PUCSNAME
  2

  9
$PUCSORG
 10
0.0
 20
0.0
 30
0.0
  9
$PUCSXDIR
 10
1.0
 20
0.0
 30
0.0
  9
$PUCSYDIR
 10
0.0
 20
1.0
 30
0.0
  9
$USERI1
 70
     0
  9
$USERI2
 70
     1
  9
$USERI3
 70
     0
  9
$USERI4
 70
     0
  9
$USERI5
 70
     0
  9
$USERR1
 40
0.0
  9
$USERR2
 40
0.0
  9
$USERR3
 40
0.0
  9
$USERR4
 40
0.0
  9
$USERR5
 40
0.0
  9
$WORLDVIEW
 70
     1
  9
$SHADEDGE
 70
     3
  9
$SHADEDIF
 70
    70
  9
$TILEMODE
 70
     1
  9
$MAXACTVP
 70
    16
  9
$PLIMCHECK
 70
     0
  9
$PEXTMIN
 10
1.0000000000000000E+020
 20
1.0000000000000000E+020
 30
1.0000000000000000E+020
  9
$PEXTMAX
 10
-1.0000000000000000E+020
 20
-1.0000000000000000E+020
 30
-1.0000000000000000E+020
  9
$PLIMMIN
 10
0.0
 20
0.0
  9
$PLIMMAX
 10
12.0
 20
9.0
  9
$UNITMODE
 70
     0
  9
$VISRETAIN
 70
     0
  9
$PLINEGEN
 70
     0
  9
$PSLTSCALE
 70
     0
  0
ENDSEC
  0
SECTION
  2
TABLES
  0
TABLE
  2
VPORT
 70
     1
  0
VPORT
  2
*ACTIVE
 70
     0
 10
0.0
 20
0.0
 11
1.0
 21
1.0
 12
93.74713919532617
 22
95.281589084287575
 13
0.0
 23
0.0
 14
5.0
 24
5.0
 15
5.0
 25
5.0
 16
0.0
 26
0.0
 36
1.0
 17
0.0
 27
0.0
 37
0.0
 40
198.284298069551
 41
1.831871345029239
 42
50.0
 43
0.0
 44
0.0
 50
0.0
 51
0.0
 71
     0
 72
   500
 73
     1
 74
     0
 75
     0
 76
     0
 77
     0
 78
     2
  0
ENDTAB
  0
TABLE
  2
LTYPE
 70
     4
  0
LTYPE
  2
CONTINUOUS
 70
     0
  3
Solid Line
 72
    65
 73
     0
 40
0.0
  0
LTYPE
  2
CENTER
 70
     0
  3
____ _ ____ _ ____ _ ____ _ ____ _ ____ _ ____
 72
    65
 73
     4
 40
2.0
 49
1.25
 49
-0.25
 49
0.25
 49
-0.25
  0
LTYPE
  2
HIDDEN
 70
     0
  3
_ _ _ _ _ _ _ _ _ _ _ _ _ _ _ _ _ _ _ _ _ _ _
 72
    65
 73
     2
 40
0.375
 49
0.25
 49
-0.125
  0
LTYPE
  2
PHANTOM2
 70
     0
  3
___ _ _ ___ _ _ ___ _ _ ___ _ _
 72
    65
 73
     6
 40
1.25
 49
0.625
 49
-0.125
 49
0.125
 49
-0.125
 49
0.125
 49
-0.125
  0
ENDTAB
  0
TABLE
  2
LAYER
 70
     3
  0
LAYER
  2
0
 70
     0
 62
     7
  6
CONTINUOUS
  0
LAYER
  2
1
 70
     0
 62
     1
  6
CENTER
  0
LAYER
  2
2
 70
     0
 62
     2
  6
HIDDEN
  0
ENDTAB
  0
TABLE
  2
STYLE
 70
     2
  0
STYLE
  2
STANDARD
 70
     0
 40
0.0
 41
1.0
 50
0.0
 71
     0
 42
0.2
  3
TXT
  4
BIGFONT
  0
STYLE
  2
STANDARD1
 70
     0
 40
0.0
 41
1.0
 50
0.0
 71
     0
 42
3.0
  3
txt
  4

  0
ENDTAB
  0
TABLE
  2
VIEW
 70
     1
  0
VIEW
  2
ALL
 70
     0
 40
135.0
 10
110.4957983193277
 20
67.5
 41
0.0
 11
0.0
 21
0.0
 31
1.0
 12
0.0
 22
0.0
 32
0.0
 42
0.0
 43
0.0
 44
0.0
 50
0.0
 71
     0
  0
ENDTAB
  0
TABLE
  2
UCS
 70
     0
  0
ENDTAB
  0
TABLE
  2
APPID
 70
     4
  0
APPID
  2
ACAD
 70
     0
  0
APPID
  2
ACAD_EXEMPT_FROM_CAD_STANDARDS
 70
     0
  0
APPID
  2
ACAD_MLEADERVER
 70
     0
  0
APPID
  2
ACAD_NAV_VCDISPLAY
 70
     0
  0
ENDTAB
  0
TABLE
  2
DIMSTYLE
 70
     1
  0
DIMSTYLE
  2
STANDARD
 70
     0
  3

  4

  5

  6

  7

 40
1.0
 41
0.18
 42
0.0625
 43
0.38
 44
0.18
 45
0.0
 46
0.0
 47
0.0
 48
0.0
140
0.18
141
0.09
142
0.0
143
25.399999999999999
144
1.0
145
0.0
146
1.0
147
0.09
 71
     0
 72
     0
 73
     1
 74
     1
 75
     0
 76
     0
 77
     0
 78
     0
170
     0
171
     2
172
     0
173
     0
174
     0
175
     0
176
     0
177
     0
178
     0
  0
ENDTAB
  0
ENDSEC
  0
SECTION
  2
BLOCKS
  0
BLOCK
  8
0
  2
$MODEL_SPACE
 70
     0
 10
0.0
 20
0.0
 30
0.0
  3
$MODEL_SPACE
  1

  0
ENDBLK
  5
B0
  8
0
  0
BLOCK
 67
     1
  8
0
  2
$PAPER_SPACE
 70
     0
 10
0.0
 20
0.0
 30
0.0
  3
$PAPER_SPACE
  1

  0
ENDBLK
  5
AE
 67
     1
  8
0
  0
ENDSEC
  0
SECTION
  2
ENTITIES
  0
LINE
  5
35
  8
2
 10
25.719524393106269
 20
37.376145740707237
 30
0.0
 11
21.519524393106231
 21
37.376145740707237
 31
0.0
  0
LINE
  5
36
  8
2
 10
25.719524393106269
 20
34.676145740707263
 30
0.0
 11
25.719524393106269
 21
37.376145740707237
 31
0.0
  0
LINE
  5
37
  8
2
 10
25.982921852727831
 20
37.639543200328831
 30
0.0
 11
25.719524393106269
 21
37.376145740707237
 31
0.0
  0
LINE
  5
38
  8
2
 10
21.219524393106269
 20
37.676145740707263
 30
0.0
 11
21.519524393106281
 21
37.376145740707237
 31
0.0
  0
LINE
  5
39
  8
2
 10
21.519524393106281
 20
34.67614574070727
 30
0.0
 11
21.519524393106281
 21
37.376145740707237
 31
0.0
  0
LINE
  5
3A
  8
2
 10
9.4195243931062578
 20
26.38747060611249
 30
0.0
 11
9.9195243931062578
 21
26.676145740707291
 31
0.0
  0
LINE
  5
3B
  8
2
 10
9.9195243931062578
 20
34.676145740707277
 30
0.0
 11
9.9195243931062578
 21
26.676145740707291
 31
0.0
  0
LINE
  5
3C
  8
2
 10
25.91952439310629
 20
34.676145740707263
 30
0.0
 11
25.91952439310629
 21
26.676145740707291
 31
0.0
  0
LINE
  5
3D
  8
1
 10
23.61952439310625
 20
40.176145740707263
 30
0.0
 11
23.61952439310625
 21
32.176145740707263
 31
0.0
  0
LINE
  5
3E
  8
1
 10
28.919524393106261
 20
30.676145740707291
 30
0.0
 11
6.9195243931062569
 21
30.676145740707291
 31
0.0
  0
LINE
  5
3F
  8
0
 10
9.9195243931062862
 20
23.67614574070728
 30
0.0
 11
25.919524393106261
 21
23.67614574070728
 31
0.0
  0
LINE
  5
40
  8
0
 10
9.4195243931062578
 20
37.387470606112458
 30
0.0
 11
9.4195243931062578
 21
23.964820875302109
 31
0.0
  0
LINE
  5
41
  8
0
 10
26.419524393106261
 20
23.964820875302092
 30
0.0
 11
26.419524393106261
 21
37.387470606112437
 31
0.0
  0
LINE
  5
42
  8
0
 10
25.919524393106261
 20
23.67614574070728
 30
0.0
 11
26.419524393106261
 21
23.964820875302092
 31
0.0
  0
LINE
  5
43
  8
0
 10
9.9195243931062862
 20
23.67614574070728
 30
0.0
 11
9.4195243931062578
 21
23.964820875302109
 31
0.0
  0
LINE
  5
44
  8
0
 10
9.9195243931062578
 20
37.67614574070727
 30
0.0
 11
9.4195243931062578
 21
37.387470606112458
 31
0.0
  0
LINE
  5
45
  8
0
 10
25.91952439310629
 20
37.676145740707291
 30
0.0
 11
26.419524393106261
 21
37.387470606112437
 31
0.0
  0
LINE
  5
46
  8
0
 10
9.9195243931062578
 20
37.67614574070727
 30
0.0
 11
25.91952439310629
 21
37.676145740707291
 31
0.0
  0
LINE
  5
47
  8
2
 10
9.4195243931062578
 20
34.964820875302109
 30
0.0
 11
9.9195243931062578
 21
34.676145740707319
 31
0.0
  0
LINE
  5
48
  8
2
 10
26.41952439310629
 20
34.964820875302109
 30
0.0
 11
25.919524393106311
 21
34.676145740707319
 31
0.0
  0
LINE
  5
49
  8
2
 10
26.41952439310629
 20
26.38747060611249
 30
0.0
 11
25.919524393106311
 21
26.676145740707291
 31
0.0
  0
CIRCLE
  5
61
  8
0
 10
63.419524393106279
 20
30.67614574070727
 30
0.0
 40
6.711324865405178
  0
LINE
  5
62
  8
1
 10
63.419524393106258
 20
21.17614574070728
 30
0.0
 11
63.419524393106258
 21
40.176145740707277
 31
0.0
  0
LINE
  5
63
  8
1
 10
53.919524393106251
 20
30.676145740707291
 30
0.0
 11
72.919524393106258
 21
30.676145740707291
 31
0.0
  0
CIRCLE
  5
64
  8
0
 10
63.419524393106258
 20
30.676145740707291
 30
0.0
 40
7.0
  0
LINE
  5
65
  8
2
 10
61.319524393106292
 20
34.080554646817149
 30
0.0
 11
61.319524393106292
 21
37.353720150625918
 31
0.0
  0
LINE
  5
66
  8
2
 10
65.519524393106281
 20
34.080554646817077
 30
0.0
 11
65.519524393106281
 21
37.35372015062589
 31
0.0
  0
LINE
  5
6A
  8
2
 10
25.91952439310629
 20
34.676145740707263
 30
0.0
 11
9.9195243931062578
 21
34.676145740707277
 31
0.0
  0
LINE
  5
6B
  8
2
 10
25.91952439310629
 20
26.676145740707291
 30
0.0
 11
9.9195243931062294
 21
26.676145740707291
 31
0.0
  0
CIRCLE
  5
6D
  8
0
 10
63.419524393106258
 20
30.676145740707291
 30
0.0
 40
4.0
  0
CIRCLE
  5
6E
  8
0
 10
63.419524393106258
 20
30.676145740707302
 30
0.0
 40
4.2886751345948069
  0
LINE
  5
77
  8
0
 10
9.9195243931063146
 20
37.67614574070727
 30
0.0
 11
9.9195243931063146
 21
23.67614574070728
 31
0.0
  0
LINE
  5
78
  8
0
 10
25.919524393106311
 20
37.67614574070727
 30
0.0
 11
25.919524393106311
 21
23.67614574070728
 31
0.0
  0
TEXT
  5
1C8
  8
0
 62
     3
 10
0.0
 20
0.0
 30
0.0
 40
10.0
  1
STS-8S
  7
STANDARD1
  0
ENDSEC
  0
EOF
