  0
SECTION
  2
HEADER
  9
$ACADVER
  1
AC1009
  9
$INSBASE
 10
0.0
 20
0.0
 30
0.0
  9
$EXTMIN
 10
0.0
 20
-2.960436562073669
 30
0.0
  9
$EXTMAX
 10
310.49665858405069
 20
216.5
 30
0.0
  9
$LIMMIN
 10
0.0
 20
0.0
  9
$LIMMAX
 10
375.0
 20
270.0
  9
$ORTHOMODE
 70
     1
  9
$REGENMODE
 70
     1
  9
$FILLMODE
 70
     1
  9
$QTEXTMODE
 70
     0
  9
$MIRRTEXT
 70
     0
  9
$DRAGMODE
 70
     2
  9
$LTSCALE
 40
10.0
  9
$OSMODE
 70
    55
  9
$ATTMODE
 70
     1
  9
$TEXTSIZE
 40
0.2
  9
$TRACEWID
 40
0.05
  9
$TEXTSTYLE
  7
STANDARD
  9
$CLAYER
  8
0
  9
$CELTYPE
  6
BYLAYER
  9
$CECOLOR
 62
   256
  9
$DIMSCALE
 40
1.0
  9
$DIMASZ
 40
3.0
  9
$DIMEXO
 40
2.0
  9
$DIMDLI
 40
0.38
  9
$DIMRND
 40
0.0
  9
$DIMDLE
 40
0.0
  9
$DIMEXE
 40
2.0
  9
$DIMTP
 40
0.0
  9
$DIMTM
 40
0.0
  9
$DIMTXT
 40
3.2000000000000002
  9
$DIMCEN
 40
0.0
  9
$DIMTSZ
 40
0.0
  9
$DIMTOL
 70
     0
  9
$DIMLIM
 70
     0
  9
$DIMTIH
 70
     0
  9
$DIMTOH
 70
     0
  9
$DIMSE1
 70
     0
  9
$DIMSE2
 70
     0
  9
$DIMTAD
 70
     1
  9
$DIMZIN
 70
     0
  9
$DIMBLK
  1

  9
$DIMASO
 70
     1
  9
$DIMSHO
 70
     0
  9
$DIMPOST
  1

  9
$DIMAPOST
  1

  9
$DIMALT
 70
     0
  9
$DIMALTD
 70
     2
  9
$DIMALTF
 40
25.399999999999999
  9
$DIMLFAC
 40
1.0
  9
$DIMTOFL
 70
     1
  9
$DIMTVP
 40
1.6000000000000001
  9
$DIMTIX
 70
     1
  9
$DIMSOXD
 70
     0
  9
$DIMSAH
 70
     0
  9
$DIMBLK1
  1

  9
$DIMBLK2
  1

  9
$DIMSTYLE
  2
STANDARD
  9
$DIMCLRD
 70
     0
  9
$DIMCLRE
 70
     0
  9
$DIMCLRT
 70
     0
  9
$DIMTFAC
 40
1.0
  9
$DIMGAP
 40
0.09
  9
$LUNITS
 70
     2
  9
$LUPREC
 70
     4
  9
$SKETCHINC
 40
0.1
  9
$FILLETRAD
 40
2.0
  9
$AUNITS
 70
     0
  9
$AUPREC
 70
     4
  9
$MENU
  1
E:\r13\win\SUPPORT\ACAD
  9
$ELEVATION
 40
0.0
  9
$PELEVATION
 40
0.0
  9
$THICKNESS
 40
0.0
  9
$LIMCHECK
 70
     0
  9
$BLIPMODE
 70
     0
  9
$CHAMFERA
 40
0.0
  9
$CHAMFERB
 40
0.0
  9
$SKPOLY
 70
     0
  9
$TDCREATE
 40
2449839.789965278
  9
$TDUPDATE
 40
2456598.5664576162
  9
$TDINDWG
 40
0.0785309838
  9
$TDUSRTIMER
 40
0.0785309838
  9
$USRTIMER
 70
     1
  9
$ANGBASE
 50
0.0
  9
$ANGDIR
 70
     0
  9
$PDMODE
 70
     0
  9
$PDSIZE
 40
0.0
  9
$PLINEWID
 40
0.0
  9
$COORDS
 70
     1
  9
$SPLFRAME
 70
     0
  9
$SPLINETYPE
 70
     6
  9
$SPLINESEGS
 70
     8
  9
$ATTDIA
 70
     0
  9
$ATTREQ
 70
     1
  9
$HANDLING
 70
     1
  9
$HANDSEED
  5
31D
  9
$SURFTAB1
 70
     6
  9
$SURFTAB2
 70
     6
  9
$SURFTYPE
 70
     6
  9
$SURFU
 70
     6
  9
$SURFV
 70
     6
  9
$UCSNAME
  2

  9
$UCSORG
 10
0.0
 20
0.0
 30
0.0
  9
$UCSXDIR
 10
1.0
 20
0.0
 30
0.0
  9
$UCSYDIR
 10
0.0
 20
1.0
 30
0.0
  9
$PUCSNAME
  2

  9
$PUCSORG
 10
0.0
 20
0.0
 30
0.0
  9
$PUCSXDIR
 10
1.0
 20
0.0
 30
0.0
  9
$PUCSYDIR
 10
0.0
 20
1.0
 30
0.0
  9
$USERI1
 70
     0
  9
$USERI2
 70
     1
  9
$USERI3
 70
     1
  9
$USERI4
 70
     0
  9
$USERI5
 70
     0
  9
$USERR1
 40
0.0
  9
$USERR2
 40
0.0
  9
$USERR3
 40
0.0
  9
$USERR4
 40
0.0
  9
$USERR5
 40
0.0
  9
$WORLDVIEW
 70
     1
  9
$SHADEDGE
 70
     3
  9
$SHADEDIF
 70
    70
  9
$TILEMODE
 70
     1
  9
$MAXACTVP
 70
    16
  9
$PLIMCHECK
 70
     0
  9
$PEXTMIN
 10
1.0000000000000000E+020
 20
1.0000000000000000E+020
 30
1.0000000000000000E+020
  9
$PEXTMAX
 10
-1.0000000000000000E+020
 20
-1.0000000000000000E+020
 30
-1.0000000000000000E+020
  9
$PLIMMIN
 10
0.0
 20
0.0
  9
$PLIMMAX
 10
12.0
 20
9.0
  9
$UNITMODE
 70
     0
  9
$VISRETAIN
 70
     0
  9
$PLINEGEN
 70
     0
  9
$PSLTSCALE
 70
     0
  0
ENDSEC
  0
SECTION
  2
TABLES
  0
TABLE
  2
VPORT
 70
     1
  0
VPORT
  2
*ACTIVE
 70
     0
 10
0.0
 20
0.0
 11
1.0
 21
1.0
 12
187.4942783906524
 22
197.0509055860143
 13
0.0
 23
0.0
 14
10.0
 24
10.0
 15
10.0
 25
10.0
 16
0.0
 26
0.0
 36
1.0
 17
0.0
 27
0.0
 37
0.0
 40
403.57315882993248
 41
1.7807262569832401
 42
50.0
 43
0.0
 44
0.0
 50
0.0
 51
0.0
 71
     0
 72
   500
 73
     1
 74
     0
 75
     0
 76
     0
 77
     0
 78
     2
  0
ENDTAB
  0
TABLE
  2
LTYPE
 70
     4
  0
LTYPE
  2
CONTINUOUS
 70
     0
  3
Solid Line
 72
    65
 73
     0
 40
0.0
  0
LTYPE
  2
CENTER
 70
     0
  3
____ _ ____ _ ____ _ ____ _ ____ _ ____ _ ____
 72
    65
 73
     4
 40
2.0
 49
1.25
 49
-0.25
 49
0.25
 49
-0.25
  0
LTYPE
  2
HIDDEN
 70
     0
  3
_ _ _ _ _ _ _ _ _ _ _ _ _ _ _ _ _ _ _ _ _ _ _
 72
    65
 73
     2
 40
0.375
 49
0.25
 49
-0.125
  0
LTYPE
  2
PHANTOM2
 70
     0
  3
___ _ _ ___ _ _ ___ _ _ ___ _ _
 72
    65
 73
     6
 40
1.25
 49
0.625
 49
-0.125
 49
0.125
 49
-0.125
 49
0.125
 49
-0.125
  0
ENDTAB
  0
TABLE
  2
LAYER
 70
     5
  0
LAYER
  2
0
 70
     0
 62
     7
  6
CONTINUOUS
  0
LAYER
  2
1
 70
     0
 62
     1
  6
CENTER
  0
LAYER
  2
2
 70
     0
 62
     2
  6
HIDDEN
  0
LAYER
  2
3
 70
     0
 62
     3
  6
CONTINUOUS
  0
LAYER
  2
DEFPOINTS
 70
     0
 62
     7
  6
CONTINUOUS
  0
ENDTAB
  0
TABLE
  2
STYLE
 70
     2
  0
STYLE
  2
STANDARD
 70
     0
 40
0.0
 41
1.0
 50
0.0
 71
     0
 42
0.2
  3
TXT
  4
BIGFONT
  0
STYLE
  2
STANDARD1
 70
     0
 40
0.0
 41
1.0
 50
0.0
 71
     0
 42
3.0
  3
txt
  4

  0
ENDTAB
  0
TABLE
  2
VIEW
 70
     1
  0
VIEW
  2
ALL
 70
     0
 40
270.0
 10
220.99159663865549
 20
135.0
 41
0.0
 11
0.0
 21
0.0
 31
1.0
 12
0.0
 22
0.0
 32
0.0
 42
0.0
 43
0.0
 44
0.0
 50
0.0
 71
     0
  0
ENDTAB
  0
TABLE
  2
UCS
 70
     0
  0
ENDTAB
  0
TABLE
  2
APPID
 70
     4
  0
APPID
  2
ACAD
 70
     0
  0
APPID
  2
ACAD_EXEMPT_FROM_CAD_STANDARDS
 70
     0
  0
APPID
  2
ACAD_MLEADERVER
 70
     0
  0
APPID
  2
ACAD_NAV_VCDISPLAY
 70
     0
  0
ENDTAB
  0
TABLE
  2
DIMSTYLE
 70
     1
  0
DIMSTYLE
  2
STANDARD
 70
     0
  3

  4

  5

  6

  7

 40
1.0
 41
0.18
 42
0.0625
 43
0.38
 44
0.18
 45
0.0
 46
0.0
 47
0.0
 48
0.0
140
0.18
141
0.09
142
0.0
143
25.399999999999999
144
1.0
145
0.0
146
1.0
147
0.09
 71
     0
 72
     0
 73
     1
 74
     1
 75
     0
 76
     0
 77
     0
 78
     0
170
     0
171
     2
172
     0
173
     0
174
     0
175
     0
176
     0
177
     0
178
     0
  0
ENDTAB
  0
ENDSEC
  0
SECTION
  2
BLOCKS
  0
BLOCK
  8
0
  2
$MODEL_SPACE
 70
     0
 10
0.0
 20
0.0
 30
0.0
  3
$MODEL_SPACE
  1

  0
ENDBLK
  5
154
  8
0
  0
BLOCK
 67
     1
  8
0
  2
$PAPER_SPACE
 70
     0
 10
0.0
 20
0.0
 30
0.0
  3
$PAPER_SPACE
  1

  0
ENDBLK
  5
152
 67
     1
  8
0
  0
ENDSEC
  0
SECTION
  2
ENTITIES
  0
LINE
  5
36
  8
0
 10
268.0
 20
117.0
 30
0.0
 11
292.0
 21
117.0
 31
0.0
  0
LINE
  5
37
  8
1
 10
280.0
 20
122.0
 30
0.0
 11
280.0
 21
75.0
 31
0.0
  0
LINE
  5
38
  8
0
 10
249.50334141594939
 20
111.4879586400137
 30
0.0
 11
249.50334141594939
 21
100.07927597434841
 31
0.0
  0
LINE
  5
39
  8
0
 10
310.49665858405069
 20
111.4879586400136
 30
0.0
 11
310.49665858405069
 21
100.07927597434841
 31
0.0
  0
LINE
  5
3A
  8
0
 10
291.0
 20
96.0
 30
0.0
 11
291.0
 21
81.299999999999997
 31
0.0
  0
LINE
  5
3B
  8
0
 10
269.99999999999989
 20
80.299999999999983
 30
0.0
 11
290.0
 21
80.299999999999983
 31
0.0
  0
LINE
  5
3C
  8
0
 10
259.0
 20
96.000000000000014
 30
0.0
 11
301.0
 21
96.0
 31
0.0
  0
LINE
  5
3D
  8
0
 10
269.0
 20
81.299999999999997
 30
0.0
 11
270.0
 21
80.299999999999983
 31
0.0
  0
LINE
  5
3E
  8
0
 10
290.0
 20
80.299999999999983
 30
0.0
 11
291.0
 21
81.299999999999997
 31
0.0
  0
LINE
  5
3F
  8
0
 10
291.0
 20
81.299999999999997
 30
0.0
 11
268.99999999999989
 21
81.299999999999997
 31
0.0
  0
ARC
  5
40
  8
0
 10
279.99999999999989
 20
17.722610832073158
 30
0.0
 40
100.0
 50
73.095207183365758
 51
83.107897420653586
  0
ARC
  5
41
  8
0
 10
279.99999999999989
 20
17.722610832073158
 30
0.0
 40
100.0
 50
96.892102579346343
 51
106.9047928166341
  0
LINE
  5
42
  8
0
 10
259.0
 20
96.0
 30
0.0
 11
250.9857033257444
 21
98.147424321770245
 31
0.0
  0
LINE
  5
43
  8
0
 10
301.00000000000011
 20
96.0
 30
0.0
 11
309.01429667425577
 21
98.147424321770245
 31
0.0
  0
ARC
  5
44
  8
0
 10
251.50334141594939
 20
100.07927597434841
 30
0.0
 40
2.0
 50
180.00000000000011
 51
254.9999999999998
  0
ARC
  5
45
  8
0
 10
251.50334141594939
 20
111.4879586400137
 30
0.0
 40
2.0
 50
106.904792816634
 51
180.0000000000004
  0
ARC
  5
46
  8
0
 10
308.49665858405069
 20
111.4879586400136
 30
0.0
 40
2.0
 50
0.0
 51
73.095207183365375
  0
ARC
  5
47
  8
0
 10
308.49665858405069
 20
100.07927597434841
 30
0.0
 40
2.0
 50
285.00000000000011
 51
0.0
  0
ARC
  5
48
  8
0
 10
280.0
 20
90.401768981264453
 30
0.0
 40
22.999999999999989
 50
73.786349236338665
 51
106.2136330020744
  0
ARC
  5
49
  8
0
 10
292.28566237530561
 20
132.65176898126441
 30
0.0
 40
21.0
 50
253.7863854162733
 51
286.21363126562687
  0
ARC
  5
4A
  8
0
 10
304.5713247506111
 20
90.401768981264453
 30
0.0
 40
23.0
 50
76.198739263705363
 51
106.2136355323792
  0
ARC
  5
4B
  8
0
 10
280.0
 20
121.1017689812644
 30
0.0
 40
22.999999999999989
 50
253.7863669979256
 51
286.21365076366141
  0
ARC
  5
4C
  8
0
 10
292.28566237530561
 20
78.851768981264456
 30
0.0
 40
21.0
 50
73.78636873437307
 51
106.2136145837267
  0
ARC
  5
4D
  8
0
 10
304.5713247506111
 20
121.1017689812644
 30
0.0
 40
23.0
 50
253.7863644676207
 51
283.62754092037437
  0
LINE
  5
4E
  8
0
 10
292.04959767199563
 20
110.6530355300895
 30
0.0
 11
292.04959767199563
 21
100.8505024324395
 31
0.0
  0
LINE
  5
4F
  8
0
 10
303.04959767199563
 20
112.3490773970637
 30
0.0
 11
303.04959767199563
 21
99.154460565465172
 31
0.0
  0
LINE
  5
50
  8
0
 10
268.99999999999989
 20
81.299999999999997
 30
0.0
 11
268.99999999999989
 21
96.000000000000014
 31
0.0
  0
LINE
  5
51
  8
0
 10
256.95040232800437
 20
112.3490773970637
 30
0.0
 11
256.95040232800437
 21
99.154460565465172
 31
0.0
  0
LINE
  5
52
  8
0
 10
267.95040232800437
 20
110.6530355300895
 30
0.0
 11
267.95040232800437
 21
100.8505024324395
 31
0.0
  0
ARC
  5
53
  8
0
 10
267.71433762469439
 20
78.851768981264456
 30
0.0
 40
21.0
 50
73.786385416273305
 51
106.2136312656269
  0
ARC
  5
54
  8
0
 10
255.4286752493889
 20
90.401768981264453
 30
0.0
 40
23.0
 50
73.786364467620757
 51
103.80126073629459
  0
ARC
  5
55
  8
0
 10
267.71433762469439
 20
132.65176898126441
 30
0.0
 40
21.0
 50
253.7863687343731
 51
286.21361458372672
  0
ARC
  5
56
  8
0
 10
255.4286752493889
 20
121.1017689812644
 30
0.0
 40
23.0
 50
256.37245907962568
 51
286.21363553237933
  0
LINE
  5
57
  8
0
 10
178.99999999999989
 20
81.299999999999997
 30
0.0
 11
178.99999999999989
 21
96.000000000000014
 31
0.0
  0
LINE
  5
58
  8
0
 10
211.00000000000011
 20
96.0
 30
0.0
 11
216.10248647489149
 21
97.367207130337903
 31
0.0
  0
LINE
  5
59
  8
0
 10
169.0
 20
96.0
 30
0.0
 11
159.98236190979489
 21
98.416268843906607
 31
0.0
  0
ARC
  5
5A
  8
0
 10
189.99999999999989
 20
17.722610832073158
 30
0.0
 40
100.0
 50
96.892102579346343
 51
107.51890150551939
  0
ARC
  5
5B
  8
0
 10
189.99999999999989
 20
17.722610832073158
 30
0.0
 40
100.0
 50
74.866445409628923
 51
83.107897420653586
  0
LINE
  5
5C
  8
0
 10
201.0
 20
81.299999999999997
 30
0.0
 11
178.99999999999989
 21
81.299999999999997
 31
0.0
  0
LINE
  5
5D
  8
0
 10
200.0
 20
80.299999999999983
 30
0.0
 11
201.0
 21
81.299999999999997
 31
0.0
  0
LINE
  5
5E
  8
0
 10
179.0
 20
81.299999999999997
 30
0.0
 11
180.0
 21
80.299999999999983
 31
0.0
  0
LINE
  5
5F
  8
0
 10
168.99999999999989
 20
96.000000000000014
 30
0.0
 11
211.0
 21
96.0
 31
0.0
  0
LINE
  5
60
  8
0
 10
179.99999999999989
 20
80.299999999999983
 30
0.0
 11
200.0
 21
80.299999999999983
 31
0.0
  0
LINE
  5
61
  8
0
 10
201.0
 20
96.0
 30
0.0
 11
201.0
 21
81.299999999999997
 31
0.0
  0
LINE
  5
62
  8
1
 10
190.0
 20
122.0
 30
0.0
 11
190.0
 21
75.0
 31
0.0
  0
LINE
  5
63
  8
0
 10
178.0
 20
117.0
 30
0.0
 11
202.0
 21
117.0
 31
0.0
  0
ARC
  5
64
  8
0
 10
204.6184486624133
 20
224.99095878735099
 30
0.0
 40
22.0
 50
230.5838556518915
 51
273.41616992877431
  0
ARC
  5
65
  8
0
 10
237.30629359716031
 20
180.00000000000011
 30
0.0
 40
22.0
 50
158.5838556518915
 51
201.4161699287742
  0
ARC
  5
66
  8
0
 10
204.6184486624133
 20
135.00904121264909
 30
0.0
 40
22.0
 50
86.583855651891525
 51
129.41616992877431
  0
ARC
  5
67
  8
0
 10
151.7284045390065
 20
152.1940582829713
 30
0.0
 40
22.0
 50
14.58385565189152
 51
57.416169928774302
  0
ARC
  5
68
  8
0
 10
151.7284045390065
 20
207.80594171702859
 30
0.0
 40
22.0
 50
302.58385565189161
 51
345.41616992877431
  0
ARC
  5
69
  8
0
 10
206.5848483846863
 20
192.04959767199551
 30
0.0
 40
11.0
 50
338.58381723710858
 51
93.416131601551868
  0
ARC
  5
6A
  8
0
 10
206.5848483846865
 20
167.9504023280042
 30
0.0
 40
11.0
 50
266.58381723710522
 51
21.416131601563521
  0
ARC
  5
6B
  8
0
 10
183.66515161531359
 20
160.50334141594939
 30
0.0
 40
11.0
 50
194.58381723710971
 51
309.41613160156447
  0
ARC
  5
6C
  8
0
 10
169.5
 20
180.0
 30
0.0
 40
11.0
 50
122.58381723710841
 51
237.41613160156189
  0
ARC
  5
6D
  8
0
 10
183.6651516153135
 20
199.49665858405069
 30
0.0
 40
11.0
 50
50.58381723710491
 51
165.41613160156169
  0
LINE
  5
6E
  8
1
 10
153.5
 20
180.0
 30
0.0
 11
226.5
 21
180.0
 31
0.0
  0
LINE
  5
6F
  8
1
 10
190.0
 20
216.5
 30
0.0
 11
190.0
 21
143.5
 31
0.0
  0
LINE
  5
70
  8
0
 10
88.999999999999915
 20
81.299999999999997
 30
0.0
 11
88.999999999999915
 21
96.000000000000014
 31
0.0
  0
ARC
  5
71
  8
0
 10
128.49665858405069
 20
100.07927597434841
 30
0.0
 40
2.0
 50
285.00000000000011
 51
0.0
  0
ARC
  5
72
  8
0
 10
128.49665858405069
 20
111.4879586400136
 30
0.0
 40
2.0
 50
0.0
 51
73.095207183365375
  0
ARC
  5
73
  8
0
 10
71.503341415949393
 20
111.4879586400137
 30
0.0
 40
2.0
 50
106.904792816634
 51
180.0000000000004
  0
ARC
  5
74
  8
0
 10
71.503341415949421
 20
100.07927597434841
 30
0.0
 40
2.0
 50
180.00000000000011
 51
254.9999999999998
  0
LINE
  5
75
  8
0
 10
121.0
 20
96.0
 30
0.0
 11
129.01429667425569
 21
98.147424321770245
 31
0.0
  0
LINE
  5
76
  8
0
 10
79.0
 20
96.0
 30
0.0
 11
70.985703325744396
 21
98.147424321770245
 31
0.0
  0
ARC
  5
77
  8
0
 10
99.999999999999943
 20
17.722610832073158
 30
0.0
 40
100.0
 50
96.892102579346343
 51
106.9047928166341
  0
ARC
  5
78
  8
0
 10
99.999999999999943
 20
17.722610832073158
 30
0.0
 40
100.0
 50
73.095207183365758
 51
83.107897420653586
  0
LINE
  5
79
  8
0
 10
111.0
 20
81.299999999999997
 30
0.0
 11
88.999999999999915
 21
81.299999999999997
 31
0.0
  0
LINE
  5
7A
  8
0
 10
110.0
 20
80.299999999999983
 30
0.0
 11
111.0
 21
81.299999999999997
 31
0.0
  0
LINE
  5
7B
  8
0
 10
88.999999999999957
 20
81.299999999999997
 30
0.0
 11
89.999999999999986
 21
80.299999999999983
 31
0.0
  0
LINE
  5
7C
  8
0
 10
78.999999999999972
 20
96.000000000000014
 30
0.0
 11
121.0
 21
96.0
 31
0.0
  0
LINE
  5
7D
  8
0
 10
89.999999999999943
 20
80.299999999999983
 30
0.0
 11
110.0
 21
80.299999999999983
 31
0.0
  0
LINE
  5
7E
  8
0
 10
111.0
 20
96.0
 30
0.0
 11
111.0
 21
81.299999999999997
 31
0.0
  0
LINE
  5
7F
  8
0
 10
130.49665858405069
 20
111.4879586400136
 30
0.0
 11
130.49665858405069
 21
100.07927597434841
 31
0.0
  0
LINE
  5
80
  8
0
 10
69.503341415949393
 20
111.4879586400137
 30
0.0
 11
69.503341415949421
 21
100.07927597434841
 31
0.0
  0
LINE
  5
81
  8
1
 10
100.0
 20
122.0
 30
0.0
 11
100.0
 21
75.0
 31
0.0
  0
LINE
  5
82
  8
0
 10
88.000000000000014
 20
117.0
 30
0.0
 11
112.0
 21
117.0
 31
0.0
  0
ARC
  5
83
  8
0
 10
181.83457409654389
 20
134.0249924074711
 30
0.0
 40
22.428144743662731
 50
251.98198245314941
 51
284.90888195962259
  0
ARC
  5
84
  8
0
 10
195.62908710038579
 20
82.213634692732739
 30
0.0
 40
31.188134288531732
 50
75.055301155260125
 51
104.9088391569579
  0
LINE
  5
85
  8
0
 10
158.5
 20
111.177145232497
 30
0.0
 11
158.49999999999989
 21
100.3481204964847
 31
0.0
  0
LINE
  5
86
  8
0
 10
217.5848483846865
 20
112.32396142038461
 30
0.0
 11
217.5848483846865
 21
99.299058782916035
 31
0.0
  0
ARC
  5
87
  8
0
 10
160.5
 20
111.177145232497
 30
0.0
 40
2.0
 50
107.5189015055189
 51
180.0
  0
ARC
  5
88
  8
0
 10
160.49999999999989
 20
100.3481204964847
 30
0.0
 40
2.0
 50
180.0
 51
254.9999999999998
  0
ARC
  5
89
  8
0
 10
215.5848483846865
 20
112.32396142038461
 30
0.0
 40
2.0
 50
0.0
 51
74.866445409628867
  0
ARC
  5
8A
  8
0
 10
215.5848483846865
 20
99.299058782916035
 30
0.0
 40
2.0
 50
284.99999999999989
 51
0.0
  0
ARC
  5
8B
  8
0
 10
208.9714230650506
 20
132.2009001195857
 30
0.0
 40
20.549131138321279
 50
255.05533816388191
 51
293.81723337236468
  0
ARC
  5
8C
  8
0
 10
170.4503417168163
 20
99.025404145202629
 30
0.0
 40
14.376364836061841
 50
71.981954277468432
 51
106.74119004060771
  0
ARC
  5
8D
  8
0
 10
158.55713302041701
 20
138.5642364583764
 30
0.0
 40
26.912467477111971
 50
269.999999892201
 51
286.74119175034582
  0
ARC
  5
8E
  8
0
 10
170.4503417168163
 20
112.4781338173263
 30
0.0
 40
14.376364836061841
 50
253.25880995939221
 51
288.01804572253161
  0
ARC
  5
8F
  8
0
 10
195.62908710038579
 20
129.28990326979621
 30
0.0
 40
31.188134288531732
 50
255.0911608430421
 51
284.94469884473989
  0
ARC
  5
90
  8
0
 10
181.83457409654389
 20
77.478545555057806
 30
0.0
 40
22.428144743662731
 50
75.091118040377424
 51
108.0180175468506
  0
ARC
  5
91
  8
0
 10
208.9714230650506
 20
79.302637842943184
 30
0.0
 40
20.549131138321279
 50
66.182766627635303
 51
104.9446618361181
  0
ARC
  5
92
  8
0
 10
158.55713302041701
 20
72.939301504152482
 30
0.0
 40
26.912467477111971
 50
73.258808249654209
 51
90.000000107799082
  0
LINE
  5
93
  8
0
 10
163.57613071291641
 20
111.1067146688281
 30
0.0
 11
163.57613071291641
 21
100.39682329370081
 31
0.0
  0
LINE
  5
94
  8
0
 10
173.01956801852859
 20
112.15271203517069
 30
0.0
 11
173.01956801852859
 21
99.350825927358144
 31
0.0
  0
LINE
  5
95
  8
0
 10
190.64958017455501
 20
111.98825412939451
 30
0.0
 11
190.6495801745549
 21
99.515283833134319
 31
0.0
  0
LINE
  5
96
  8
0
 10
205.92937690258941
 20
110.8675692038094
 30
0.0
 11
205.92937690258941
 21
100.6359687587197
 31
0.0
  0
ARC
  5
97
  8
0
 10
84.232462868657649
 20
100.6872478520622
 30
0.0
 40
12.745833005713729
 50
77.108823921744971
 51
112.1516212226702
  0
ARC
  5
98
  8
0
 10
115.76753713134239
 20
100.6872478520622
 30
0.0
 40
12.745833005713729
 50
67.848395139269059
 51
102.89117607825651
  0
ARC
  5
99
  8
0
 10
100.0
 20
169.58089820697171
 30
0.0
 40
57.92912922570725
 50
257.10887110807528
 51
282.89112889192478
  0
ARC
  5
9A
  8
0
 10
124.86730054898371
 20
123.039488160367
 30
0.0
 40
11.387719179102531
 50
247.84839653071981
 51
296.55512507629788
  0
ARC
  5
9B
  8
0
 10
75.132699451016251
 20
123.039488160367
 30
0.0
 40
11.387719179102531
 50
243.44487492370209
 51
292.15160346928019
  0
ARC
  5
9C
  8
0
 10
100.0
 20
41.922639755557213
 30
0.0
 40
57.92912922570725
 50
77.108871108075235
 51
102.89112889192469
  0
ARC
  5
9D
  8
0
 10
115.76753713134239
 20
110.8162901104667
 30
0.0
 40
12.745833005713729
 50
257.10882392174358
 51
292.15160486073103
  0
ARC
  5
9E
  8
0
 10
84.232462868657649
 20
110.8162901104667
 30
0.0
 40
12.745833005713729
 50
247.8483787773298
 51
282.891176078255
  0
ARC
  5
9F
  8
0
 10
124.86730054898371
 20
88.464049802161924
 30
0.0
 40
11.387719179102531
 50
63.444874923702052
 51
112.1516034692801
  0
ARC
  5
A0
  8
0
 10
75.132699451016251
 20
88.464049802161924
 30
0.0
 40
11.387719179102531
 50
67.84839653071981
 51
116.5551250762979
  0
LINE
  5
A1
  8
0
 10
77.733575624146155
 20
110.92788093455459
 30
0.0
 11
77.733575624146155
 21
100.5756570279742
 31
0.0
  0
LINE
  5
A2
  8
0
 10
90.731350113160886
 20
111.3852420067422
 30
0.0
 11
90.731350113160886
 21
100.11829595578661
 31
0.0
  0
LINE
  5
A3
  8
0
 10
109.2686445972204
 20
111.3852411642806
 30
0.0
 11
109.2686445972204
 21
100.11829679824829
 31
0.0
  0
LINE
  5
A4
  8
0
 10
122.2664148700505
 20
110.9278829758579
 30
0.0
 11
122.2664148700505
 21
100.5756549866709
 31
0.0
  0
LINE
  5
AC
  8
2
 10
272.94700000000012
 20
80.000000000000014
 30
0.0
 11
274.947
 21
82.000000000000043
 31
0.0
  0
LINE
  5
AD
  8
2
 10
285.05300000000011
 20
82.000000000000043
 30
0.0
 11
274.947
 21
82.000000000000043
 31
0.0
  0
LINE
  5
AE
  8
2
 10
274.947
 20
82.000000000000043
 30
0.0
 11
274.947
 21
105.9999999999999
 31
0.0
  0
LINE
  5
AF
  8
2
 10
274.00000000000011
 20
81.053000000000011
 30
0.0
 11
274.00000000000011
 21
105.9999999999999
 31
0.0
  0
LINE
  5
B5
  8
0
 10
287.5
 20
80.300000000000026
 30
0.0
 11
287.5
 21
80.000000000000014
 31
0.0
  0
LINE
  5
B6
  8
0
 10
272.5
 20
80.300000000000026
 30
0.0
 11
272.5
 21
80.000000000000014
 31
0.0
  0
LINE
  5
B7
  8
0
 10
272.5
 20
80.000000000000014
 30
0.0
 11
287.5
 21
80.000000000000014
 31
0.0
  0
CIRCLE
  5
B8
  8
0
 10
190.0
 20
180.0
 30
0.0
 40
9.5000000000000568
  0
CIRCLE
  5
B9
  8
0
 10
190.0
 20
180.0
 30
0.0
 40
11.00000000000011
  0
CIRCLE
  5
BA
  8
3
 10
190.0
 20
180.0
 30
0.0
 40
6.0
  0
CIRCLE
  5
BB
  8
0
 10
190.0
 20
180.0
 30
0.0
 40
5.052999999999999
  0
LINE
  5
BC
  8
2
 10
273.5
 20
105.9999999999999
 30
0.0
 11
272.5
 21
105.0
 31
0.0
  0
LINE
  5
BD
  8
2
 10
272.5
 20
105.0
 30
0.0
 11
272.5
 21
80.300000000000026
 31
0.0
  0
LINE
  5
BE
  8
2
 10
286.50000000000011
 20
105.9999999999999
 30
0.0
 11
287.5
 21
105.0
 31
0.0
  0
LINE
  5
C0
  8
2
 10
287.5
 20
105.0
 30
0.0
 11
287.5
 21
80.300000000000026
 31
0.0
  0
LINE
  5
C3
  8
2
 10
287.053
 20
80.000000000000014
 30
0.0
 11
285.05300000000011
 21
82.000000000000043
 31
0.0
  0
LINE
  5
C4
  8
2
 10
285.05300000000011
 20
82.000000000000043
 30
0.0
 11
285.05300000000011
 21
105.9999999999999
 31
0.0
  0
LINE
  5
C5
  8
2
 10
286.0
 20
81.053000000000011
 30
0.0
 11
286.0
 21
105.9999999999999
 31
0.0
  0
LINE
  5
C6
  8
2
 10
199.5
 20
115.5
 30
0.0
 11
201.00000000000011
 21
117.0
 31
0.0
  0
LINE
  5
C7
  8
2
 10
199.5
 20
115.5
 30
0.0
 11
199.5
 21
107.5
 31
0.0
  0
ARC
  5
C8
  8
2
 10
198.0
 20
107.5
 30
0.0
 40
1.5
 50
270.00000000000011
 51
0.0000000000000254
  0
LINE
  5
C9
  8
2
 10
196.50000000000011
 20
105.9999999999999
 30
0.0
 11
197.5
 21
105.0
 31
0.0
  0
LINE
  5
CA
  8
2
 10
183.5
 20
105.9999999999999
 30
0.0
 11
182.5
 21
105.0
 31
0.0
  0
LINE
  5
CB
  8
2
 10
182.00000000000011
 20
105.9999999999999
 30
0.0
 11
198.0
 21
105.9999999999999
 31
0.0
  0
LINE
  5
CC
  8
2
 10
180.5
 20
115.5
 30
0.0
 11
180.5
 21
107.5
 31
0.0
  0
LINE
  5
CD
  8
2
 10
180.5
 20
115.5
 30
0.0
 11
199.5
 21
115.5
 31
0.0
  0
LINE
  5
CE
  8
2
 10
180.5
 20
115.5
 30
0.0
 11
179.0
 21
117.0
 31
0.0
  0
ARC
  5
CF
  8
2
 10
182.00000000000011
 20
107.5
 30
0.0
 40
1.5
 50
180.0
 51
269.99999999999989
  0
LINE
  5
D0
  8
2
 10
182.5
 20
105.0
 30
0.0
 11
182.5
 21
80.300000000000026
 31
0.0
  0
LINE
  5
D1
  8
2
 10
184.00000000000011
 20
81.053000000000011
 30
0.0
 11
184.00000000000011
 21
105.9999999999999
 31
0.0
  0
LINE
  5
D2
  8
2
 10
184.947
 20
82.000000000000043
 30
0.0
 11
184.947
 21
105.9999999999999
 31
0.0
  0
LINE
  5
D3
  8
2
 10
196.0
 20
81.053000000000011
 30
0.0
 11
196.0
 21
105.9999999999999
 31
0.0
  0
LINE
  5
D4
  8
2
 10
195.05300000000011
 20
82.000000000000043
 30
0.0
 11
195.05300000000011
 21
105.9999999999999
 31
0.0
  0
LINE
  5
D5
  8
2
 10
197.5
 20
105.0
 30
0.0
 11
197.5
 21
80.300000000000026
 31
0.0
  0
LINE
  5
D6
  8
2
 10
197.053
 20
80.000000000000014
 30
0.0
 11
195.05300000000011
 21
82.000000000000043
 31
0.0
  0
LINE
  5
D7
  8
0
 10
182.5
 20
80.000000000000014
 30
0.0
 11
197.5
 21
80.000000000000014
 31
0.0
  0
LINE
  5
D8
  8
0
 10
182.5
 20
80.300000000000026
 30
0.0
 11
182.5
 21
80.000000000000014
 31
0.0
  0
LINE
  5
D9
  8
0
 10
197.5
 20
80.300000000000026
 30
0.0
 11
197.5
 21
80.000000000000014
 31
0.0
  0
LINE
  5
DA
  8
2
 10
195.05300000000011
 20
82.000000000000043
 30
0.0
 11
184.947
 21
82.000000000000043
 31
0.0
  0
LINE
  5
DB
  8
2
 10
182.94700000000009
 20
80.000000000000014
 30
0.0
 11
184.947
 21
82.000000000000043
 31
0.0
  0
LINE
  5
DF
  8
2
 10
106.5000000000001
 20
105.9999999999999
 30
0.0
 11
107.5
 21
105.0
 31
0.0
  0
LINE
  5
E0
  8
2
 10
93.499999999999986
 20
105.9999999999999
 30
0.0
 11
92.500000000000057
 21
105.0
 31
0.0
  0
LINE
  5
E6
  8
2
 10
92.500000000000057
 20
105.0
 30
0.0
 11
92.500000000000057
 21
80.300000000000026
 31
0.0
  0
LINE
  5
E7
  8
2
 10
94.000000000000114
 20
81.053000000000011
 30
0.0
 11
94.000000000000114
 21
105.9999999999999
 31
0.0
  0
LINE
  5
E8
  8
2
 10
94.946999999999989
 20
82.000000000000043
 30
0.0
 11
94.946999999999989
 21
105.9999999999999
 31
0.0
  0
LINE
  5
E9
  8
2
 10
106.0
 20
81.053000000000011
 30
0.0
 11
106.0
 21
105.9999999999999
 31
0.0
  0
LINE
  5
EA
  8
2
 10
105.0530000000001
 20
82.000000000000043
 30
0.0
 11
105.0530000000001
 21
105.9999999999999
 31
0.0
  0
LINE
  5
EB
  8
2
 10
107.5
 20
105.0
 30
0.0
 11
107.5
 21
80.300000000000026
 31
0.0
  0
LINE
  5
EC
  8
2
 10
107.053
 20
80.000000000000014
 30
0.0
 11
105.0530000000001
 21
82.000000000000043
 31
0.0
  0
LINE
  5
ED
  8
0
 10
92.500000000000057
 20
80.000000000000014
 30
0.0
 11
107.5
 21
80.000000000000014
 31
0.0
  0
LINE
  5
EE
  8
0
 10
92.500000000000057
 20
80.300000000000026
 30
0.0
 11
92.500000000000057
 21
80.000000000000014
 31
0.0
  0
LINE
  5
EF
  8
0
 10
107.5
 20
80.300000000000026
 30
0.0
 11
107.5
 21
80.000000000000014
 31
0.0
  0
LINE
  5
F0
  8
2
 10
105.0530000000001
 20
82.000000000000043
 30
0.0
 11
94.946999999999989
 21
82.000000000000043
 31
0.0
  0
LINE
  5
F1
  8
2
 10
92.947000000000116
 20
80.000000000000014
 30
0.0
 11
94.946999999999989
 21
82.000000000000043
 31
0.0
  0
LINE
  5
222
  8
2
 10
109.5
 20
115.5
 30
0.0
 11
111.0000000000001
 21
117.0
 31
0.0
  0
LINE
  5
223
  8
2
 10
109.5
 20
115.5
 30
0.0
 11
109.5
 21
107.5
 31
0.0
  0
ARC
  5
224
  8
2
 10
108.0
 20
107.5
 30
0.0
 40
1.5
 50
270.0
 51
0.0000000000000254
  0
LINE
  5
225
  8
2
 10
92.000000000000114
 20
105.9999999999999
 30
0.0
 11
108.0
 21
105.9999999999999
 31
0.0
  0
LINE
  5
226
  8
2
 10
90.500000000000057
 20
115.5
 30
0.0
 11
90.500000000000057
 21
107.5
 31
0.0
  0
LINE
  5
227
  8
2
 10
90.500000000000057
 20
115.5
 30
0.0
 11
109.5
 21
115.5
 31
0.0
  0
LINE
  5
228
  8
2
 10
90.500000000000057
 20
115.5
 30
0.0
 11
89.0
 21
117.0
 31
0.0
  0
ARC
  5
229
  8
2
 10
92.000000000000114
 20
107.5
 30
0.0
 40
1.5
 50
180.0
 51
270.0
  0
LINE
  5
22A
  8
2
 10
289.5
 20
115.5
 30
0.0
 11
291.00000000000011
 21
117.0
 31
0.0
  0
LINE
  5
22B
  8
2
 10
289.5
 20
115.5
 30
0.0
 11
289.5
 21
107.5
 31
0.0
  0
ARC
  5
22C
  8
2
 10
288.0
 20
107.5
 30
0.0
 40
1.5
 50
270.0
 51
0.0000000000000254
  0
LINE
  5
22D
  8
2
 10
272.00000000000011
 20
105.9999999999999
 30
0.0
 11
288.0
 21
105.9999999999999
 31
0.0
  0
LINE
  5
22E
  8
2
 10
270.5
 20
115.5
 30
0.0
 11
270.5
 21
107.5
 31
0.0
  0
LINE
  5
22F
  8
2
 10
270.5
 20
115.5
 30
0.0
 11
289.5
 21
115.5
 31
0.0
  0
LINE
  5
230
  8
2
 10
270.5
 20
115.5
 30
0.0
 11
269.0
 21
117.0
 31
0.0
  0
ARC
  5
231
  8
2
 10
272.00000000000011
 20
107.5
 30
0.0
 40
1.5
 50
180.0
 51
270.0
  0
TEXT
  5
2B9
  8
0
 62
     3
 10
0.0
 20
0.0
 30
0.0
 40
10.0
  1
STK60NT
  7
STANDARD1
  0
ENDSEC
  0
EOF
