  0
SECTION
  2
HEADER
  9
$ACADVER
  1
AC1009
  9
$INSBASE
 10
0.0
 20
0.0
 30
0.0
  9
$EXTMIN
 10
0.0
 20
-2.960436562073669
 30
0.0
  9
$EXTMAX
 10
646.34980588609733
 20
382.55030586929411
 30
0.0
  9
$LIMMIN
 10
0.0
 20
0.0
  9
$LIMMAX
 10
750.0
 20
540.0
  9
$ORTHOMODE
 70
     1
  9
$REGENMODE
 70
     1
  9
$FILLMODE
 70
     1
  9
$QTEXTMODE
 70
     0
  9
$MIRRTEXT
 70
     0
  9
$DRAGMODE
 70
     2
  9
$LTSCALE
 40
20.0
  9
$OSMODE
 70
    55
  9
$ATTMODE
 70
     1
  9
$TEXTSIZE
 40
5.0
  9
$TRACEWID
 40
0.05
  9
$TEXTSTYLE
  7
STANDARD
  9
$CLAYER
  8
4
  9
$CELTYPE
  6
BYLAYER
  9
$CECOLOR
 62
   256
  9
$DIMSCALE
 40
2.0
  9
$DIMASZ
 40
3.0
  9
$DIMEXO
 40
2.0
  9
$DIMDLI
 40
0.38
  9
$DIMRND
 40
0.0
  9
$DIMDLE
 40
0.0
  9
$DIMEXE
 40
2.0
  9
$DIMTP
 40
0.0
  9
$DIMTM
 40
0.0
  9
$DIMTXT
 40
3.2000000000000002
  9
$DIMCEN
 40
0.0
  9
$DIMTSZ
 40
0.0
  9
$DIMTOL
 70
     0
  9
$DIMLIM
 70
     0
  9
$DIMTIH
 70
     0
  9
$DIMTOH
 70
     0
  9
$DIMSE1
 70
     0
  9
$DIMSE2
 70
     0
  9
$DIMTAD
 70
     1
  9
$DIMZIN
 70
     0
  9
$DIMBLK
  1

  9
$DIMASO
 70
     1
  9
$DIMSHO
 70
     0
  9
$DIMPOST
  1

  9
$DIMAPOST
  1

  9
$DIMALT
 70
     0
  9
$DIMALTD
 70
     2
  9
$DIMALTF
 40
25.399999999999999
  9
$DIMLFAC
 40
1.0
  9
$DIMTOFL
 70
     1
  9
$DIMTVP
 40
1.6000000000000001
  9
$DIMTIX
 70
     1
  9
$DIMSOXD
 70
     0
  9
$DIMSAH
 70
     0
  9
$DIMBLK1
  1

  9
$DIMBLK2
  1

  9
$DIMSTYLE
  2
STANDARD
  9
$DIMCLRD
 70
     0
  9
$DIMCLRE
 70
     0
  9
$DIMCLRT
 70
     0
  9
$DIMTFAC
 40
1.0
  9
$DIMGAP
 40
0.09
  9
$LUNITS
 70
     2
  9
$LUPREC
 70
     4
  9
$SKETCHINC
 40
0.1
  9
$FILLETRAD
 40
20.0
  9
$AUNITS
 70
     0
  9
$AUPREC
 70
     4
  9
$MENU
  1
E:\r13\win\SUPPORT\ACAD
  9
$ELEVATION
 40
0.0
  9
$PELEVATION
 40
0.0
  9
$THICKNESS
 40
0.0
  9
$LIMCHECK
 70
     0
  9
$BLIPMODE
 70
     0
  9
$CHAMFERA
 40
0.0
  9
$CHAMFERB
 40
0.0
  9
$SKPOLY
 70
     0
  9
$TDCREATE
 40
2449840.6445949082
  9
$TDUPDATE
 40
2456598.5567665738
  9
$TDINDWG
 40
0.0010208218
  9
$TDUSRTIMER
 40
0.0010208218
  9
$USRTIMER
 70
     1
  9
$ANGBASE
 50
0.0
  9
$ANGDIR
 70
     0
  9
$PDMODE
 70
    35
  9
$PDSIZE
 40
0.0
  9
$PLINEWID
 40
0.0
  9
$COORDS
 70
     1
  9
$SPLFRAME
 70
     0
  9
$SPLINETYPE
 70
     6
  9
$SPLINESEGS
 70
     8
  9
$ATTDIA
 70
     0
  9
$ATTREQ
 70
     1
  9
$HANDLING
 70
     1
  9
$HANDSEED
  5
32D
  9
$SURFTAB1
 70
     6
  9
$SURFTAB2
 70
     6
  9
$SURFTYPE
 70
     6
  9
$SURFU
 70
     6
  9
$SURFV
 70
     6
  9
$UCSNAME
  2

  9
$UCSORG
 10
0.0
 20
0.0
 30
0.0
  9
$UCSXDIR
 10
1.0
 20
0.0
 30
0.0
  9
$UCSYDIR
 10
0.0
 20
1.0
 30
0.0
  9
$PUCSNAME
  2

  9
$PUCSORG
 10
0.0
 20
0.0
 30
0.0
  9
$PUCSXDIR
 10
1.0
 20
0.0
 30
0.0
  9
$PUCSYDIR
 10
0.0
 20
1.0
 30
0.0
  9
$USERI1
 70
     0
  9
$USERI2
 70
     1
  9
$USERI3
 70
     1
  9
$USERI4
 70
     0
  9
$USERI5
 70
     0
  9
$USERR1
 40
0.0
  9
$USERR2
 40
0.0
  9
$USERR3
 40
0.0
  9
$USERR4
 40
0.0
  9
$USERR5
 40
0.0
  9
$WORLDVIEW
 70
     1
  9
$SHADEDGE
 70
     3
  9
$SHADEDIF
 70
    70
  9
$TILEMODE
 70
     1
  9
$MAXACTVP
 70
    16
  9
$PLIMCHECK
 70
     0
  9
$PEXTMIN
 10
1.0000000000000000E+020
 20
1.0000000000000000E+020
 30
1.0000000000000000E+020
  9
$PEXTMAX
 10
-1.0000000000000000E+020
 20
-1.0000000000000000E+020
 30
-1.0000000000000000E+020
  9
$PLIMMIN
 10
0.0
 20
0.0
  9
$PLIMMAX
 10
12.0
 20
9.0
  9
$UNITMODE
 70
     0
  9
$VISRETAIN
 70
     0
  9
$PLINEGEN
 70
     0
  9
$PSLTSCALE
 70
     0
  0
ENDSEC
  0
SECTION
  2
TABLES
  0
TABLE
  2
VPORT
 70
     1
  0
VPORT
  2
*ACTIVE
 70
     0
 10
0.0
 20
0.0
 11
1.0
 21
1.0
 12
374.98855678130462
 22
394.89452070385119
 13
0.0
 23
0.0
 14
20.0
 24
20.0
 15
20.0
 25
20.0
 16
0.0
 26
0.0
 36
1.0
 17
0.0
 27
0.0
 37
0.0
 40
802.76084457946263
 41
1.7807262569832401
 42
50.0
 43
0.0
 44
0.0
 50
0.0
 51
0.0
 71
     0
 72
   500
 73
     1
 74
     0
 75
     0
 76
     0
 77
     0
 78
     0
  0
ENDTAB
  0
TABLE
  2
LTYPE
 70
     4
  0
LTYPE
  2
CONTINUOUS
 70
     0
  3
Solid Line
 72
    65
 73
     0
 40
0.0
  0
LTYPE
  2
CENTER
 70
     0
  3
____ _ ____ _ ____ _ ____ _ ____ _ ____ _ ____
 72
    65
 73
     4
 40
2.0
 49
1.25
 49
-0.25
 49
0.25
 49
-0.25
  0
LTYPE
  2
HIDDEN
 70
     0
  3
_ _ _ _ _ _ _ _ _ _ _ _ _ _ _ _ _ _ _ _ _ _ _
 72
    65
 73
     2
 40
0.375
 49
0.25
 49
-0.125
  0
LTYPE
  2
PHANTOM2
 70
     0
  3
___ _ _ ___ _ _ ___ _ _ ___ _ _
 72
    65
 73
     6
 40
1.25
 49
0.625
 49
-0.125
 49
0.125
 49
-0.125
 49
0.125
 49
-0.125
  0
ENDTAB
  0
TABLE
  2
LAYER
 70
     5
  0
LAYER
  2
0
 70
     0
 62
     7
  6
CONTINUOUS
  0
LAYER
  2
1
 70
     0
 62
     1
  6
CENTER
  0
LAYER
  2
3
 70
     0
 62
     3
  6
CONTINUOUS
  0
LAYER
  2
4
 70
     0
 62
     4
  6
CONTINUOUS
  0
LAYER
  2
2
 70
     0
 62
     2
  6
HIDDEN
  0
ENDTAB
  0
TABLE
  2
STYLE
 70
     2
  0
STYLE
  2
STANDARD
 70
     0
 40
0.0
 41
1.0
 50
0.0
 71
     0
 42
5.0
  3
TXT
  4
BIGFONT
  0
STYLE
  2
STANDARD1
 70
     0
 40
0.0
 41
1.0
 50
0.0
 71
     0
 42
3.0
  3
txt
  4

  0
ENDTAB
  0
TABLE
  2
VIEW
 70
     1
  0
VIEW
  2
ALL
 70
     0
 40
589.59982014388493
 10
465.68972012725948
 20
245.20008992805751
 41
0.0
 11
0.0
 21
0.0
 31
1.0
 12
0.0
 22
0.0
 32
0.0
 42
0.0
 43
0.0
 44
0.0
 50
0.0
 71
     0
  0
ENDTAB
  0
TABLE
  2
UCS
 70
     0
  0
ENDTAB
  0
TABLE
  2
APPID
 70
     3
  0
APPID
  2
ACAD
 70
     0
  0
APPID
  2
ACAD_MLEADERVER
 70
     0
  0
APPID
  2
ACAD_NAV_VCDISPLAY
 70
     0
  0
ENDTAB
  0
TABLE
  2
DIMSTYLE
 70
     1
  0
DIMSTYLE
  2
STANDARD
 70
     0
  3

  4

  5

  6

  7

 40
1.0
 41
0.18
 42
0.0625
 43
0.38
 44
0.18
 45
0.0
 46
0.0
 47
0.0
 48
0.0
140
0.18
141
0.09
142
0.0
143
25.399999999999999
144
1.0
145
0.0
146
1.0
147
0.09
 71
     0
 72
     0
 73
     1
 74
     1
 75
     0
 76
     0
 77
     0
 78
     0
170
     0
171
     2
172
     0
173
     0
174
     0
175
     0
176
     0
177
     0
178
     0
  0
ENDTAB
  0
ENDSEC
  0
SECTION
  2
BLOCKS
  0
BLOCK
  8
0
  2
$MODEL_SPACE
 70
     0
 10
0.0
 20
0.0
 30
0.0
  3
$MODEL_SPACE
  1

  0
ENDBLK
  5
1AA
  8
0
  0
BLOCK
 67
     1
  8
0
  2
$PAPER_SPACE
 70
     0
 10
0.0
 20
0.0
 30
0.0
  3
$PAPER_SPACE
  1

  0
ENDBLK
  5
1A8
 67
     1
  8
0
  0
ENDSEC
  0
SECTION
  2
ENTITIES
  0
LINE
  5
98
  8
0
 10
115.1032601328391
 20
372.55030586929422
 30
0.0
 11
115.103260132839
 21
363.05030586929422
 31
0.0
  0
LINE
  5
99
  8
2
 10
125.1032601328391
 20
372.55030586929422
 30
0.0
 11
125.103260132839
 21
363.05030586929422
 31
0.0
  0
ARC
  5
9A
  8
0
 10
120.1032601328391
 20
372.55030586929422
 30
0.0
 40
5.0
 50
90.000000000000327
 51
180.0
  0
ARC
  5
9B
  8
2
 10
120.103260132839
 20
363.05030586929422
 30
0.0
 40
5.0
 50
270.00000000000011
 51
0.0
  0
ARC
  5
9C
  8
2
 10
120.103260132839
 20
372.55030586929422
 30
0.0
 40
5.0
 50
0.0000000000000509
 51
90.000000000000028
  0
ARC
  5
9D
  8
0
 10
120.1032601328391
 20
363.05030586929428
 30
0.0
 40
5.0
 50
180.0
 51
269.99999999999977
  0
ARC
  5
9E
  8
0
 10
470.10326013283913
 20
363.05030586929428
 30
0.0
 40
5.0
 50
270.00000000000028
 51
360.0
  0
ARC
  5
9F
  8
2
 10
470.10326013283913
 20
372.55030586929422
 30
0.0
 40
5.0
 50
90.0
 51
180.0
  0
LINE
  5
A0
  8
1
 10
110.103260132839
 20
367.80030586929422
 30
0.0
 11
480.10326013283901
 21
367.80030586929422
 31
0.0
  0
LINE
  5
A1
  8
1
 10
120.1032570447861
 20
353.05030586929428
 30
0.0
 11
120.1032640109417
 21
382.55030586929411
 31
0.0
  0
LINE
  5
A2
  8
1
 10
470.10326322089202
 20
353.05030586929428
 30
0.0
 11
470.10325625473638
 21
382.55030586929411
 31
0.0
  0
ARC
  5
A3
  8
2
 10
470.10326013283913
 20
363.05030586929422
 30
0.0
 40
5.0
 50
180.0
 51
270.0
  0
ARC
  5
A4
  8
0
 10
470.10326013283913
 20
372.55030586929422
 30
0.0
 40
5.0
 50
0.0
 51
89.999999999999687
  0
LINE
  5
A5
  8
2
 10
465.10326013283901
 20
372.55030586929422
 30
0.0
 11
465.10326013283901
 21
363.05030586929422
 31
0.0
  0
LINE
  5
A6
  8
0
 10
475.10326013283913
 20
372.55030586929422
 30
0.0
 11
475.10326013283913
 21
363.05030586929422
 31
0.0
  0
LINE
  5
A7
  8
0
 10
120.1032605278639
 20
377.55030586929422
 30
0.0
 11
470.10325973781431
 21
377.55030586929422
 31
0.0
  0
LINE
  5
A8
  8
0
 10
120.1032605278639
 20
358.05030586929422
 30
0.0
 11
470.10325973781431
 21
358.05030586929422
 31
0.0
  0
LINE
  5
A9
  8
0
 10
625.34980588609608
 20
180.596003197442
 30
0.0
 11
637.84980588609835
 21
180.5960031974422
 31
0.0
  0
LINE
  5
AA
  8
0
 10
625.34980588609608
 20
178.99600319744209
 30
0.0
 11
637.84980588609835
 21
178.99600319744209
 31
0.0
  0
LINE
  5
AB
  8
0
 10
637.84980588609835
 20
180.596003197442
 30
0.0
 11
637.84980588609835
 21
178.99600319744201
 31
0.0
  0
LINE
  5
AC
  8
0
 10
625.34980588609608
 20
180.596003197442
 30
0.0
 11
625.34980588609608
 21
178.99600319744209
 31
0.0
  0
LINE
  5
AD
  8
0
 10
627.09980588609744
 20
178.59600319744209
 30
0.0
 11
627.09980588609744
 21
178.99600319744209
 31
0.0
  0
LINE
  5
AE
  8
0
 10
636.09980588609744
 20
178.59600319744209
 30
0.0
 11
636.09980588609744
 21
178.99600319744209
 31
0.0
  0
LINE
  5
AF
  8
0
 10
636.4998058860956
 20
174.99600319744209
 30
0.0
 11
626.69980588609917
 21
174.99600319744209
 31
0.0
  0
ARC
  5
B0
  8
0
 10
629.09980588609744
 20
182.27462448226089
 30
0.0
 40
7.2208862578987887
 50
249.7438419996262
 51
290.25615800037377
  0
LINE
  5
B1
  8
0
 10
626.59980588609744
 20
175.05373822436209
 30
0.0
 11
626.69980588609917
 21
174.99600319744209
 31
0.0
  0
LINE
  5
B2
  8
0
 10
626.59980588609744
 20
175.05373822436209
 30
0.0
 11
626.59980588609744
 21
178.596003197442
 31
0.0
  0
LINE
  5
B3
  8
0
 10
636.59980588609744
 20
175.05373822436209
 30
0.0
 11
636.59980588609744
 21
178.596003197442
 31
0.0
  0
LINE
  5
B4
  8
0
 10
636.59980588609744
 20
175.05373822436209
 30
0.0
 11
636.4998058860956
 21
174.99600319744209
 31
0.0
  0
ARC
  5
B5
  8
0
 10
634.09980588609744
 20
182.27462448226089
 30
0.0
 40
7.2208862578987887
 50
249.7438419996262
 51
290.25615800037377
  0
LINE
  5
B6
  8
0
 10
631.59980588609744
 20
175.50032021174741
 30
0.0
 11
631.59980588609744
 21
178.596003197442
 31
0.0
  0
LINE
  5
B7
  8
0
 10
636.59980588609744
 20
178.596003197442
 30
0.0
 11
626.59980588609744
 21
178.596003197442
 31
0.0
  0
LINE
  5
B8
  8
1
 10
616.84980588609665
 20
224.99600319744209
 30
0.0
 11
646.34980588609733
 21
224.99600319744209
 31
0.0
  0
ARC
  5
B9
  8
0
 10
636.34980588609733
 20
224.99600319744209
 30
0.0
 40
5.0
 50
0.0
 51
90.0
  0
ARC
  5
BA
  8
0
 10
626.84980588609733
 20
224.99600319744209
 30
0.0
 40
5.0
 50
90.0
 51
180.0
  0
LINE
  5
BB
  8
0
 10
626.84980588609733
 20
229.99600319744201
 30
0.0
 11
636.34980588609733
 21
229.99600319744201
 31
0.0
  0
LINE
  5
BC
  8
0
 10
621.84980588609733
 20
184.99600319744181
 30
0.0
 11
641.34980588609733
 21
184.99600319744181
 31
0.0
  0
LINE
  5
BD
  8
0
 10
628.59980588609744
 20
180.596003197442
 30
0.0
 11
628.59980588609744
 21
184.99600319744189
 31
0.0
  0
LINE
  5
BE
  8
0
 10
634.59980588609756
 20
180.596003197442
 30
0.0
 11
634.59980588609744
 21
184.99600319744189
 31
0.0
  0
LINE
  5
BF
  8
3
 10
629.14130588609737
 20
180.596003197442
 30
0.0
 11
629.14130588609737
 21
184.99600319744189
 31
0.0
  0
LINE
  5
C0
  8
3
 10
634.05830588609751
 20
180.596003197442
 30
0.0
 11
634.05830588609751
 21
184.99600319744189
 31
0.0
  0
LINE
  5
C1
  8
0
 10
621.84980588609733
 20
224.99600319744209
 30
0.0
 11
621.84980588609733
 21
184.99600319744181
 31
0.0
  0
LINE
  5
C2
  8
0
 10
641.34980588609733
 20
224.99600319744209
 30
0.0
 11
641.34980588609733
 21
184.99600319744181
 31
0.0
  0
LINE
  5
C3
  8
1
 10
631.59980588609733
 20
234.99600319744189
 30
0.0
 11
631.59980588609744
 21
169.99600319744201
 31
0.0
  0
LINE
  5
C4
  8
1
 10
470.10326013283913
 20
205.99600319744201
 30
0.0
 11
470.10326013283913
 21
169.99600319744209
 31
0.0
  0
LINE
  5
C5
  8
0
 10
475.87676282473529
 20
175.5003202117465
 30
0.0
 11
475.00326013283859
 21
174.99600319744209
 31
0.0
  0
ARC
  5
C6
  8
0
 10
474.43338715176128
 20
177.60956097278969
 30
0.0
 40
2.5558227484274911
 50
235.61575253202599
 51
295.61575253066002
  0
ARC
  5
C7
  8
0
 10
470.1032601328273
 20
184.60715623692039
 30
0.0
 40
9.5534180125581827
 50
252.4120462259726
 51
287.5879537741755
  0
LINE
  5
C8
  8
0
 10
475.87676282473529
 20
175.5003202117465
 30
0.0
 11
475.87676282473541
 21
178.596003197442
 31
0.0
  0
LINE
  5
C9
  8
0
 10
472.99001147878732
 20
175.50032021175491
 30
0.0
 11
472.99001147878732
 21
178.596003197442
 31
0.0
  0
LINE
  5
CA
  8
0
 10
467.21650878689093
 20
175.50032021175491
 30
0.0
 11
467.21650878689093
 21
178.596003197442
 31
0.0
  0
LINE
  5
CB
  8
0
 10
464.3297574409429
 20
175.5003202117465
 30
0.0
 11
464.32975744094279
 21
178.596003197442
 31
0.0
  0
ARC
  5
CC
  8
0
 10
465.77313311391691
 20
177.60956097278969
 30
0.0
 40
2.5558227484274911
 50
244.38424746934001
 51
304.38424746797392
  0
LINE
  5
CD
  8
0
 10
464.32975744094279
 20
175.5003202117465
 30
0.0
 11
465.20326013283972
 21
174.99600319744209
 31
0.0
  0
LINE
  5
CE
  8
0
 10
465.20326013283972
 20
174.99600319744209
 30
0.0
 11
475.00326013283859
 21
174.99600319744209
 31
0.0
  0
LINE
  5
CF
  8
0
 10
464.32975744094279
 20
178.596003197442
 30
0.0
 11
475.87676282473541
 21
178.596003197442
 31
0.0
  0
LINE
  5
D0
  8
0
 10
474.60326013283913
 20
178.596003197442
 30
0.0
 11
474.60326013283913
 21
178.99600319744201
 31
0.0
  0
LINE
  5
D1
  8
3
 10
472.5617601328392
 20
180.596003197442
 30
0.0
 11
472.5617601328392
 21
184.99600319744189
 31
0.0
  0
LINE
  5
D2
  8
3
 10
467.644760132839
 20
180.596003197442
 30
0.0
 11
467.644760132839
 21
184.99600319744189
 31
0.0
  0
LINE
  5
D3
  8
0
 10
465.60326013283901
 20
178.596003197442
 30
0.0
 11
465.60326013283913
 21
178.99600319744201
 31
0.0
  0
LINE
  5
D4
  8
0
 10
463.8532601328377
 20
180.596003197442
 30
0.0
 11
463.8532601328377
 21
178.99600319744201
 31
0.0
  0
LINE
  5
D5
  8
0
 10
476.35326013284009
 20
180.596003197442
 30
0.0
 11
476.35326013284009
 21
178.99600319744201
 31
0.0
  0
LINE
  5
D6
  8
0
 10
463.8532601328377
 20
178.99600319744201
 30
0.0
 11
476.35326013284009
 21
178.99600319744201
 31
0.0
  0
LINE
  5
D7
  8
0
 10
463.8532601328377
 20
180.596003197442
 30
0.0
 11
476.35326013284009
 21
180.596003197442
 31
0.0
  0
LINE
  5
D8
  8
0
 10
473.10326013283918
 20
180.596003197442
 30
0.0
 11
473.10326013283913
 21
184.99600319744189
 31
0.0
  0
LINE
  5
D9
  8
0
 10
467.10326013283901
 20
180.596003197442
 30
0.0
 11
467.10326013283901
 21
184.99600319744189
 31
0.0
  0
LINE
  5
DA
  8
2
 10
123.103260132839
 20
184.99600319744201
 30
0.0
 11
123.103260132839
 21
189.99600319744201
 31
0.0
  0
LINE
  5
DB
  8
2
 10
117.103260132839
 20
184.99600319744201
 30
0.0
 11
117.103260132839
 21
189.99600319744201
 31
0.0
  0
LINE
  5
DC
  8
0
 10
126.3532601328403
 20
180.596003197442
 30
0.0
 11
113.853260132838
 21
180.596003197442
 31
0.0
  0
LINE
  5
DD
  8
0
 10
126.3532601328403
 20
178.99600319744201
 30
0.0
 11
113.853260132838
 21
178.99600319744201
 31
0.0
  0
LINE
  5
DE
  8
0
 10
113.853260132838
 20
180.596003197442
 30
0.0
 11
113.853260132838
 21
178.99600319744201
 31
0.0
  0
LINE
  5
DF
  8
0
 10
126.3532601328403
 20
180.596003197442
 30
0.0
 11
126.3532601328403
 21
178.99600319744201
 31
0.0
  0
LINE
  5
E0
  8
2
 10
117.103260132839
 20
189.99600319744201
 30
0.0
 11
123.103260132839
 21
189.99600319744201
 31
0.0
  0
LINE
  5
E1
  8
2
 10
118.103260132839
 20
190.99600319744201
 30
0.0
 11
117.103260132839
 21
189.99600319744201
 31
0.0
  0
LINE
  5
E2
  8
2
 10
123.103260132839
 20
189.99600319744201
 30
0.0
 11
122.103260132839
 21
190.99600319744201
 31
0.0
  0
LINE
  5
E3
  8
0
 10
124.6032601328391
 20
178.596003197442
 30
0.0
 11
124.6032601328391
 21
178.99600319744201
 31
0.0
  0
LINE
  5
E4
  8
2
 10
122.5617601328391
 20
184.99600319744201
 30
0.0
 11
122.5617601328391
 21
190.53750319744191
 31
0.0
  0
LINE
  5
E5
  8
2
 10
117.6447601328389
 20
184.99600319744201
 30
0.0
 11
117.6447601328389
 21
190.53750319744191
 31
0.0
  0
LINE
  5
E6
  8
0
 10
115.6032601328391
 20
178.596003197442
 30
0.0
 11
115.6032601328391
 21
178.99600319744201
 31
0.0
  0
LINE
  5
E7
  8
2
 10
122.103260132839
 20
190.99600319744201
 30
0.0
 11
118.103260132839
 21
190.99600319744201
 31
0.0
  0
LINE
  5
E8
  8
0
 10
125.87676282473529
 20
178.596003197442
 30
0.0
 11
114.3297574409428
 21
178.596003197442
 31
0.0
  0
LINE
  5
E9
  8
0
 10
125.00326013283851
 20
174.99600319744209
 30
0.0
 11
115.2032601328396
 21
174.99600319744209
 31
0.0
  0
LINE
  5
EA
  8
0
 10
125.8767628247352
 20
175.5003202117465
 30
0.0
 11
125.00326013283851
 21
174.99600319744209
 31
0.0
  0
ARC
  5
EB
  8
0
 10
124.4333871517612
 20
177.60956097278969
 30
0.0
 40
2.5558227484274911
 50
235.61575253202619
 51
295.61575253066007
  0
LINE
  5
EC
  8
0
 10
125.8767628247352
 20
175.5003202117465
 30
0.0
 11
125.87676282473529
 21
178.596003197442
 31
0.0
  0
LINE
  5
ED
  8
0
 10
122.9900114787872
 20
175.50032021175491
 30
0.0
 11
122.9900114787872
 21
178.596003197442
 31
0.0
  0
LINE
  5
EE
  8
0
 10
117.2165087868908
 20
175.50032021175491
 30
0.0
 11
117.2165087868908
 21
178.596003197442
 31
0.0
  0
LINE
  5
EF
  8
0
 10
114.3297574409429
 20
175.5003202117465
 30
0.0
 11
114.3297574409428
 21
178.596003197442
 31
0.0
  0
ARC
  5
F0
  8
0
 10
120.10326013285071
 20
184.60715623692039
 30
0.0
 40
9.5534180125581827
 50
252.4120462258245
 51
287.58795377402748
  0
ARC
  5
F1
  8
0
 10
115.7731331139168
 20
177.60956097278969
 30
0.0
 40
2.5558227484274911
 50
244.3842474693401
 51
304.38424746797409
  0
LINE
  5
F2
  8
0
 10
114.3297574409428
 20
175.5003202117465
 30
0.0
 11
115.2032601328396
 21
174.99600319744209
 31
0.0
  0
LINE
  5
F3
  8
2
 10
117.1032601328392
 20
196.99600319744201
 30
0.0
 11
117.6447601328391
 21
197.93390870974031
 31
0.0
  0
LINE
  5
F4
  8
2
 10
123.1032601328391
 20
196.99600319744201
 30
0.0
 11
122.5617601328391
 21
197.93390870974031
 31
0.0
  0
LINE
  5
F5
  8
2
 10
122.5617601328392
 20
201.99600319744201
 30
0.0
 11
120.1032601328391
 21
203.47321902932131
 31
0.0
  0
LINE
  5
F6
  8
2
 10
117.644760132839
 20
201.99600319744189
 30
0.0
 11
120.1032601328391
 21
203.47321902932131
 31
0.0
  0
LINE
  5
F7
  8
2
 10
117.644760132839
 20
201.99600319744201
 30
0.0
 11
122.5617601328392
 21
201.99600319744201
 31
0.0
  0
LINE
  5
F8
  8
2
 10
117.1032601328391
 20
196.99600319744201
 30
0.0
 11
123.1032601328391
 21
196.99600319744201
 31
0.0
  0
LINE
  5
F9
  8
2
 10
123.1032601328391
 20
189.99600319744189
 30
0.0
 11
123.1032601328391
 21
196.99600319744201
 31
0.0
  0
LINE
  5
FA
  8
2
 10
122.5617601328392
 20
190.53750319744179
 30
0.0
 11
122.5617601328392
 21
201.99600319744201
 31
0.0
  0
LINE
  5
FB
  8
2
 10
117.644760132839
 20
190.53750319744191
 30
0.0
 11
117.644760132839
 21
201.99600319744201
 31
0.0
  0
LINE
  5
FC
  8
2
 10
117.1032601328391
 20
189.99600319744201
 30
0.0
 11
117.1032601328391
 21
196.99600319744201
 31
0.0
  0
LINE
  5
FD
  8
0
 10
465.10326013283901
 20
184.99600319744189
 30
0.0
 11
475.10326013283913
 21
184.99600319744189
 31
0.0
  0
LINE
  5
FE
  8
0
 10
115.1032601328391
 20
184.99600319744201
 30
0.0
 11
125.1032601328391
 21
184.99600319744201
 31
0.0
  0
ARC
  5
FF
  8
0
 10
451.10326013283901
 20
205.99600319744201
 30
0.0
 40
14.0
 50
0.0
 51
90.0
  0
ARC
  5
100
  8
0
 10
139.10326013283901
 20
205.99600319744201
 30
0.0
 40
14.0
 50
90.0
 51
179.99999999999989
  0
ARC
  5
101
  8
1
 10
451.10326013283901
 20
205.99600319744201
 30
0.0
 40
19.0
 50
0.0
 51
90.0
  0
ARC
  5
102
  8
1
 10
139.1032601328391
 20
205.99600319744201
 30
0.0
 40
19.0
 50
90.0
 51
179.99999999999989
  0
ARC
  5
103
  8
0
 10
451.10326013283901
 20
205.99600319744201
 30
0.0
 40
24.0
 50
0.0
 51
90.0
  0
ARC
  5
104
  8
0
 10
139.10326013283901
 20
205.99600319744201
 30
0.0
 40
24.0
 50
90.0
 51
179.99999999999989
  0
LINE
  5
105
  8
0
 10
125.1032601328391
 20
205.99600319744201
 30
0.0
 11
125.1032601328391
 21
184.99600319744201
 31
0.0
  0
LINE
  5
106
  8
0
 10
115.1032601328391
 20
205.99600319744201
 30
0.0
 11
115.1032601328391
 21
184.99600319744201
 31
0.0
  0
LINE
  5
107
  8
0
 10
475.10326013283913
 20
205.99600319744201
 30
0.0
 11
475.10326013283913
 21
184.99600319744189
 31
0.0
  0
LINE
  5
108
  8
0
 10
465.10326013283901
 20
205.99600319744201
 30
0.0
 11
465.10326013283901
 21
184.99600319744189
 31
0.0
  0
LINE
  5
109
  8
0
 10
139.10326013283901
 20
229.99600319744201
 30
0.0
 11
451.10326013283901
 21
229.99600319744201
 31
0.0
  0
LINE
  5
10A
  8
0
 10
139.10326013283901
 20
219.99600319744201
 30
0.0
 11
451.10326013283901
 21
219.99600319744201
 31
0.0
  0
LINE
  5
10B
  8
1
 10
120.1032601328391
 20
205.99600319744201
 30
0.0
 11
120.1032601328391
 21
169.99600319744209
 31
0.0
  0
LINE
  5
10C
  8
1
 10
139.1032601328391
 20
224.99600319744201
 30
0.0
 11
451.10326013283901
 21
224.99600319744209
 31
0.0
  0
LINE
  5
10D
  8
2
 10
626.84980588609733
 20
219.99600319744201
 30
0.0
 11
636.34980588609733
 21
219.99600319744201
 31
0.0
  0
ARC
  5
10E
  8
2
 10
626.84980588609733
 20
224.99600319744209
 30
0.0
 40
5.0
 50
180.0
 51
270.0
  0
ARC
  5
10F
  8
2
 10
636.34980588609733
 20
224.99600319744209
 30
0.0
 40
5.0
 50
270.0
 51
0.0
  0
LINE
  5
110
  8
0
 10
123.103260132839
 20
184.99600319744201
 30
0.0
 11
123.103260132839
 21
180.596003197442
 31
0.0
  0
LINE
  5
111
  8
3
 10
122.5617601328391
 20
184.99600319744201
 30
0.0
 11
122.5617601328391
 21
180.596003197442
 31
0.0
  0
LINE
  5
112
  8
3
 10
117.644760132839
 20
184.99600319744201
 30
0.0
 11
117.644760132839
 21
180.596003197442
 31
0.0
  0
LINE
  5
113
  8
0
 10
117.1032601328391
 20
184.99600319744201
 30
0.0
 11
117.1032601328391
 21
180.596003197442
 31
0.0
  0
LINE
  5
114
  8
2
 10
467.10326013283901
 20
189.99600319744221
 30
0.0
 11
467.10326013283901
 21
196.99600319744209
 31
0.0
  0
LINE
  5
115
  8
2
 10
467.644760132839
 20
190.53750319744211
 30
0.0
 11
467.644760132839
 21
201.99600319744209
 31
0.0
  0
LINE
  5
116
  8
2
 10
472.5617601328392
 20
190.53750319744199
 30
0.0
 11
472.5617601328392
 21
201.99600319744209
 31
0.0
  0
LINE
  5
117
  8
2
 10
473.10326013283913
 20
189.99600319744209
 30
0.0
 11
473.10326013283913
 21
196.99600319744209
 31
0.0
  0
LINE
  5
118
  8
2
 10
467.10326013283901
 20
196.99600319744209
 30
0.0
 11
473.10326013283913
 21
196.99600319744209
 31
0.0
  0
LINE
  5
119
  8
2
 10
467.644760132839
 20
201.99600319744209
 30
0.0
 11
472.5617601328392
 21
201.99600319744209
 31
0.0
  0
LINE
  5
11A
  8
2
 10
467.644760132839
 20
201.99600319744209
 30
0.0
 11
470.10326013283913
 21
203.4732190293214
 31
0.0
  0
LINE
  5
11B
  8
2
 10
472.5617601328392
 20
201.99600319744209
 30
0.0
 11
470.10326013283913
 21
203.4732190293214
 31
0.0
  0
LINE
  5
11C
  8
2
 10
473.10326013283913
 20
196.99600319744209
 30
0.0
 11
472.5617601328392
 21
197.93390870974051
 31
0.0
  0
LINE
  5
11D
  8
2
 10
467.10326013283918
 20
196.99600319744209
 30
0.0
 11
467.64476013283911
 21
197.93390870974051
 31
0.0
  0
LINE
  5
11E
  8
2
 10
472.1032601328389
 20
190.99600319744221
 30
0.0
 11
468.1032601328389
 21
190.99600319744221
 31
0.0
  0
LINE
  5
11F
  8
2
 10
467.64476013283888
 20
184.99600319744209
 30
0.0
 11
467.64476013283888
 21
190.53750319744199
 31
0.0
  0
LINE
  5
120
  8
2
 10
472.56176013283908
 20
184.99600319744209
 30
0.0
 11
472.56176013283908
 21
190.53750319744211
 31
0.0
  0
LINE
  5
121
  8
2
 10
473.10326013283901
 20
189.99600319744221
 30
0.0
 11
472.1032601328389
 21
190.99600319744221
 31
0.0
  0
LINE
  5
122
  8
2
 10
468.1032601328389
 20
190.99600319744221
 30
0.0
 11
467.10326013283901
 21
189.99600319744221
 31
0.0
  0
LINE
  5
123
  8
2
 10
467.10326013283901
 20
189.99600319744221
 30
0.0
 11
473.10326013283901
 21
189.99600319744221
 31
0.0
  0
LINE
  5
124
  8
2
 10
467.10326013283901
 20
184.99600319744209
 30
0.0
 11
467.10326013283901
 21
189.99600319744221
 31
0.0
  0
LINE
  5
125
  8
2
 10
473.10326013283901
 20
184.99600319744209
 30
0.0
 11
473.10326013283901
 21
189.99600319744221
 31
0.0
  0
TEXT
  5
294
  8
0
 62
     3
 10
0.0
 20
0.0
 30
0.0
 40
10.0
  1
SRH2-350BN
  7
STANDARD1
  0
ENDSEC
  0
EOF
