  0
SECTION
  2
HEADER
  9
$ACADVER
  1
AC1009
  9
$INSBASE
 10
0.0
 20
0.0
 30
0.0
  9
$EXTMIN
 10
0.0
 20
-2.960436562073669
 30
0.0
  9
$EXTMAX
 10
357.79364230696177
 20
207.41917369767589
 30
0.0
  9
$LIMMIN
 10
0.0
 20
0.0
  9
$LIMMAX
 10
375.0
 20
270.0
  9
$ORTHOMODE
 70
     1
  9
$REGENMODE
 70
     1
  9
$FILLMODE
 70
     1
  9
$QTEXTMODE
 70
     0
  9
$MIRRTEXT
 70
     0
  9
$DRAGMODE
 70
     2
  9
$LTSCALE
 40
10.0
  9
$OSMODE
 70
    55
  9
$ATTMODE
 70
     1
  9
$TEXTSIZE
 40
4.000000000000048
  9
$TRACEWID
 40
0.05
  9
$TEXTSTYLE
  7
STANDARD
  9
$CLAYER
  8
4
  9
$CELTYPE
  6
BYLAYER
  9
$CECOLOR
 62
   256
  9
$DIMSCALE
 40
1.0
  9
$DIMASZ
 40
3.0
  9
$DIMEXO
 40
2.0
  9
$DIMDLI
 40
0.38
  9
$DIMRND
 40
0.0
  9
$DIMDLE
 40
0.0
  9
$DIMEXE
 40
2.0
  9
$DIMTP
 40
0.0
  9
$DIMTM
 40
0.0
  9
$DIMTXT
 40
3.2000000000000002
  9
$DIMCEN
 40
0.0
  9
$DIMTSZ
 40
0.0
  9
$DIMTOL
 70
     0
  9
$DIMLIM
 70
     0
  9
$DIMTIH
 70
     0
  9
$DIMTOH
 70
     0
  9
$DIMSE1
 70
     0
  9
$DIMSE2
 70
     0
  9
$DIMTAD
 70
     1
  9
$DIMZIN
 70
     0
  9
$DIMBLK
  1

  9
$DIMASO
 70
     1
  9
$DIMSHO
 70
     0
  9
$DIMPOST
  1

  9
$DIMAPOST
  1

  9
$DIMALT
 70
     0
  9
$DIMALTD
 70
     2
  9
$DIMALTF
 40
25.399999999999999
  9
$DIMLFAC
 40
1.0
  9
$DIMTOFL
 70
     1
  9
$DIMTVP
 40
1.6000000000000001
  9
$DIMTIX
 70
     1
  9
$DIMSOXD
 70
     0
  9
$DIMSAH
 70
     0
  9
$DIMBLK1
  1

  9
$DIMBLK2
  1

  9
$DIMSTYLE
  2
STANDARD
  9
$DIMCLRD
 70
     0
  9
$DIMCLRE
 70
     0
  9
$DIMCLRT
 70
     0
  9
$DIMTFAC
 40
1.0
  9
$DIMGAP
 40
0.09
  9
$LUNITS
 70
     2
  9
$LUPREC
 70
     4
  9
$SKETCHINC
 40
0.1
  9
$FILLETRAD
 40
14.0
  9
$AUNITS
 70
     0
  9
$AUPREC
 70
     4
  9
$MENU
  1
E:\r13\win\SUPPORT\ACAD
  9
$ELEVATION
 40
0.0
  9
$PELEVATION
 40
0.0
  9
$THICKNESS
 40
0.0
  9
$LIMCHECK
 70
     0
  9
$BLIPMODE
 70
     0
  9
$CHAMFERA
 40
0.0
  9
$CHAMFERB
 40
0.0
  9
$SKPOLY
 70
     0
  9
$TDCREATE
 40
2449840.6443055561
  9
$TDUPDATE
 40
2456598.5566799082
  9
$TDINDWG
 40
0.000776088
  9
$TDUSRTIMER
 40
0.000776088
  9
$USRTIMER
 70
     1
  9
$ANGBASE
 50
0.0
  9
$ANGDIR
 70
     0
  9
$PDMODE
 70
    35
  9
$PDSIZE
 40
0.0
  9
$PLINEWID
 40
0.0
  9
$COORDS
 70
     1
  9
$SPLFRAME
 70
     0
  9
$SPLINETYPE
 70
     6
  9
$SPLINESEGS
 70
     8
  9
$ATTDIA
 70
     0
  9
$ATTREQ
 70
     1
  9
$HANDLING
 70
     1
  9
$HANDSEED
  5
3AF
  9
$SURFTAB1
 70
     6
  9
$SURFTAB2
 70
     6
  9
$SURFTYPE
 70
     6
  9
$SURFU
 70
     6
  9
$SURFV
 70
     6
  9
$UCSNAME
  2

  9
$UCSORG
 10
0.0
 20
0.0
 30
0.0
  9
$UCSXDIR
 10
1.0
 20
0.0
 30
0.0
  9
$UCSYDIR
 10
0.0
 20
1.0
 30
0.0
  9
$PUCSNAME
  2

  9
$PUCSORG
 10
0.0
 20
0.0
 30
0.0
  9
$PUCSXDIR
 10
1.0
 20
0.0
 30
0.0
  9
$PUCSYDIR
 10
0.0
 20
1.0
 30
0.0
  9
$USERI1
 70
     0
  9
$USERI2
 70
     1
  9
$USERI3
 70
     1
  9
$USERI4
 70
     0
  9
$USERI5
 70
     0
  9
$USERR1
 40
0.0
  9
$USERR2
 40
0.0
  9
$USERR3
 40
0.0
  9
$USERR4
 40
0.0
  9
$USERR5
 40
0.0
  9
$WORLDVIEW
 70
     1
  9
$SHADEDGE
 70
     3
  9
$SHADEDIF
 70
    70
  9
$TILEMODE
 70
     1
  9
$MAXACTVP
 70
    16
  9
$PLIMCHECK
 70
     0
  9
$PEXTMIN
 10
1.0000000000000000E+020
 20
1.0000000000000000E+020
 30
1.0000000000000000E+020
  9
$PEXTMAX
 10
-1.0000000000000000E+020
 20
-1.0000000000000000E+020
 30
-1.0000000000000000E+020
  9
$PLIMMIN
 10
0.0
 20
0.0
  9
$PLIMMAX
 10
12.0
 20
9.0
  9
$UNITMODE
 70
     0
  9
$VISRETAIN
 70
     0
  9
$PLINEGEN
 70
     0
  9
$PSLTSCALE
 70
     0
  0
ENDSEC
  0
SECTION
  2
TABLES
  0
TABLE
  2
VPORT
 70
     1
  0
VPORT
  2
*ACTIVE
 70
     0
 10
0.0
 20
0.0
 11
1.0
 21
1.0
 12
187.4942783906524
 22
197.0509055860143
 13
0.0
 23
0.0
 14
10.0
 24
10.0
 15
10.0
 25
10.0
 16
0.0
 26
0.0
 36
1.0
 17
0.0
 27
0.0
 37
0.0
 40
403.57315882993248
 41
1.7807262569832401
 42
50.0
 43
0.0
 44
0.0
 50
0.0
 51
0.0
 71
     0
 72
   500
 73
     1
 74
     0
 75
     0
 76
     0
 77
     0
 78
     0
  0
ENDTAB
  0
TABLE
  2
LTYPE
 70
     4
  0
LTYPE
  2
CONTINUOUS
 70
     0
  3
Solid Line
 72
    65
 73
     0
 40
0.0
  0
LTYPE
  2
CENTER
 70
     0
  3
____ _ ____ _ ____ _ ____ _ ____ _ ____ _ ____
 72
    65
 73
     4
 40
2.0
 49
1.25
 49
-0.25
 49
0.25
 49
-0.25
  0
LTYPE
  2
HIDDEN
 70
     0
  3
_ _ _ _ _ _ _ _ _ _ _ _ _ _ _ _ _ _ _ _ _ _ _
 72
    65
 73
     2
 40
0.375
 49
0.25
 49
-0.125
  0
LTYPE
  2
PHANTOM2
 70
     0
  3
___ _ _ ___ _ _ ___ _ _ ___ _ _
 72
    65
 73
     6
 40
1.25
 49
0.625
 49
-0.125
 49
0.125
 49
-0.125
 49
0.125
 49
-0.125
  0
ENDTAB
  0
TABLE
  2
LAYER
 70
     5
  0
LAYER
  2
0
 70
     0
 62
     7
  6
CONTINUOUS
  0
LAYER
  2
1
 70
     0
 62
     1
  6
CENTER
  0
LAYER
  2
3
 70
     0
 62
     3
  6
CONTINUOUS
  0
LAYER
  2
4
 70
     0
 62
     4
  6
CONTINUOUS
  0
LAYER
  2
2
 70
     0
 62
     2
  6
HIDDEN
  0
ENDTAB
  0
TABLE
  2
STYLE
 70
     2
  0
STYLE
  2
STANDARD
 70
     0
 40
0.0
 41
1.0
 50
0.0
 71
     0
 42
4.000000000000048
  3
TXT
  4
BIGFONT
  0
STYLE
  2
STANDARD1
 70
     0
 40
0.0
 41
1.0
 50
0.0
 71
     0
 42
3.0
  3
txt
  4

  0
ENDTAB
  0
TABLE
  2
VIEW
 70
     1
  0
VIEW
  2
ALL
 70
     0
 40
279.79274611398961
 10
220.99159663865549
 20
139.8963730569948
 41
0.0
 11
0.0
 21
0.0
 31
1.0
 12
0.0
 22
0.0
 32
0.0
 42
0.0
 43
0.0
 44
0.0
 50
0.0
 71
     0
  0
ENDTAB
  0
TABLE
  2
UCS
 70
     0
  0
ENDTAB
  0
TABLE
  2
APPID
 70
     3
  0
APPID
  2
ACAD
 70
     0
  0
APPID
  2
ACAD_MLEADERVER
 70
     0
  0
APPID
  2
ACAD_NAV_VCDISPLAY
 70
     0
  0
ENDTAB
  0
TABLE
  2
DIMSTYLE
 70
     1
  0
DIMSTYLE
  2
STANDARD
 70
     0
  3

  4

  5

  6

  7

 40
1.0
 41
0.18
 42
0.0625
 43
0.38
 44
0.18
 45
0.0
 46
0.0
 47
0.0
 48
0.0
140
0.18
141
0.09
142
0.0
143
25.399999999999999
144
1.0
145
0.0
146
1.0
147
0.09
 71
     0
 72
     0
 73
     1
 74
     1
 75
     0
 76
     0
 77
     0
 78
     0
170
     0
171
     2
172
     0
173
     0
174
     0
175
     0
176
     0
177
     0
178
     0
  0
ENDTAB
  0
ENDSEC
  0
SECTION
  2
BLOCKS
  0
BLOCK
  8
0
  2
$MODEL_SPACE
 70
     0
 10
0.0
 20
0.0
 30
0.0
  3
$MODEL_SPACE
  1

  0
ENDBLK
  5
22C
  8
0
  0
BLOCK
 67
     1
  8
0
  2
$PAPER_SPACE
 70
     0
 10
0.0
 20
0.0
 30
0.0
  3
$PAPER_SPACE
  1

  0
ENDBLK
  5
22A
 67
     1
  8
0
  0
ENDSEC
  0
SECTION
  2
ENTITIES
  0
LINE
  5
116
  8
1
 10
32.085898902806683
 20
196.41917350089159
 30
0.0
 11
300.41922874407493
 21
196.4191735008915
 31
0.0
  0
LINE
  5
117
  8
1
 10
41.252561555078501
 20
185.419173304108
 30
0.0
 11
41.252566750177721
 21
207.41917369767589
 31
0.0
  0
LINE
  5
118
  8
1
 10
291.25256609180309
 20
185.41917330410871
 30
0.0
 11
291.25256089670381
 21
207.41917369767569
 31
0.0
  0
LINE
  5
119
  8
1
 10
335.7936423069612
 20
135.23233972093789
 30
0.0
 11
357.79364230696177
 21
135.23233972093789
 31
0.0
  0
LINE
  5
11A
  8
0
 10
340.7936423069612
 20
99.232339720937901
 30
0.0
 11
352.79364230696081
 21
99.232339720937858
 31
0.0
  0
LINE
  5
11B
  8
0
 10
344.29364230696132
 20
95.232339720937958
 30
0.0
 11
344.29364230696132
 21
99.232339720937972
 31
0.0
  0
LINE
  5
11C
  8
0
 10
349.29364230696137
 20
95.232339720937944
 30
0.0
 11
349.29364230696137
 21
99.232339720937972
 31
0.0
  0
LINE
  5
11D
  8
3
 10
344.74489230696128
 20
95.232339720937958
 30
0.0
 11
344.74489230696128
 21
99.232339720937972
 31
0.0
  0
LINE
  5
11E
  8
3
 10
348.84239230696147
 20
95.232339720937944
 30
0.0
 11
348.84239230696147
 21
99.232339720937972
 31
0.0
  0
LINE
  5
11F
  8
0
 10
340.7936423069612
 20
135.2323416282866
 30
0.0
 11
340.7936423069612
 21
99.232339720937901
 31
0.0
  0
LINE
  5
120
  8
0
 10
352.79364230696081
 20
135.2323416282866
 30
0.0
 11
352.79364230696081
 21
99.232339720937901
 31
0.0
  0
LINE
  5
121
  8
1
 10
346.79364230696132
 20
144.3990063876046
 30
0.0
 11
346.79364230696132
 21
85.732339720938015
 31
0.0
  0
LINE
  5
122
  8
1
 10
291.25256382344071
 20
117.0656730542712
 30
0.0
 11
291.25256382344082
 21
85.732339720938015
 31
0.0
  0
LINE
  5
123
  8
3
 10
293.30131382344092
 20
95.232339720937944
 30
0.0
 11
293.30131382344092
 21
99.232339720937901
 31
0.0
  0
LINE
  5
124
  8
3
 10
289.20381382344073
 20
95.232339720937944
 30
0.0
 11
289.20381382344073
 21
99.232339720937901
 31
0.0
  0
LINE
  5
125
  8
0
 10
293.75256382344082
 20
95.232339720937958
 30
0.0
 11
293.75256382344082
 21
99.232339720937901
 31
0.0
  0
LINE
  5
126
  8
0
 10
288.75256382344082
 20
95.232339720937958
 30
0.0
 11
288.75256382344082
 21
99.232339720937901
 31
0.0
  0
LINE
  5
127
  8
2
 10
43.752563823440717
 20
99.232339720937858
 30
0.0
 11
43.752563823440717
 21
103.3990063876046
 31
0.0
  0
LINE
  5
128
  8
2
 10
38.752563823440731
 20
99.232339720937915
 30
0.0
 11
38.752563823440738
 21
103.3990063876046
 31
0.0
  0
LINE
  5
129
  8
2
 10
38.752563823440738
 20
103.3990063876046
 30
0.0
 11
43.752563823440717
 21
103.3990063876046
 31
0.0
  0
LINE
  5
12A
  8
2
 10
39.585897156774053
 20
104.2323397209379
 30
0.0
 11
38.752563823440738
 21
103.3990063876046
 31
0.0
  0
LINE
  5
12B
  8
2
 10
43.752563823440717
 20
103.3990063876046
 30
0.0
 11
42.919230490107402
 21
104.2323397209379
 31
0.0
  0
LINE
  5
12C
  8
2
 10
43.301313823440822
 20
99.232339720937887
 30
0.0
 11
43.301313823440822
 21
103.8502563876046
 31
0.0
  0
LINE
  5
12D
  8
2
 10
39.203813823440669
 20
99.232339720937901
 30
0.0
 11
39.203813823440669
 21
103.8502563876045
 31
0.0
  0
LINE
  5
12E
  8
2
 10
42.919230490107402
 20
104.2323397209379
 30
0.0
 11
39.585897156774053
 21
104.2323397209379
 31
0.0
  0
LINE
  5
12F
  8
2
 10
38.752563823440873
 20
109.2323397209379
 30
0.0
 11
39.203813823440811
 21
110.01392764785319
 31
0.0
  0
LINE
  5
130
  8
2
 10
43.752563823440781
 20
109.2323397209379
 30
0.0
 11
43.301313823440843
 21
110.01392764785319
 31
0.0
  0
LINE
  5
131
  8
2
 10
43.301313823440857
 20
113.3990063876046
 30
0.0
 11
41.252563823440809
 21
114.6300195808373
 31
0.0
  0
LINE
  5
132
  8
2
 10
39.20381382344074
 20
113.3990063876045
 30
0.0
 11
41.252563823440809
 21
114.6300195808373
 31
0.0
  0
LINE
  5
133
  8
2
 10
39.203813823440711
 20
113.3990063876046
 30
0.0
 11
43.301313823440857
 21
113.3990063876046
 31
0.0
  0
LINE
  5
134
  8
2
 10
38.752563823440767
 20
109.2323397209379
 30
0.0
 11
43.752563823440781
 21
109.2323397209379
 31
0.0
  0
LINE
  5
135
  8
2
 10
43.752563823440781
 20
103.3990063876045
 30
0.0
 11
43.752563823440781
 21
109.2323397209379
 31
0.0
  0
LINE
  5
136
  8
2
 10
43.301313823440871
 20
103.8502563876045
 30
0.0
 11
43.301313823440857
 21
113.3990063876046
 31
0.0
  0
LINE
  5
137
  8
2
 10
39.203813823440733
 20
103.8502563876046
 30
0.0
 11
39.203813823440711
 21
113.3990063876046
 31
0.0
  0
LINE
  5
138
  8
2
 10
38.752563823440781
 20
103.3990063876046
 30
0.0
 11
38.752563823440767
 21
109.2323397209379
 31
0.0
  0
LINE
  5
139
  8
0
 10
287.25256382344071
 20
99.232339720937901
 30
0.0
 11
295.25256382344082
 21
99.232339720937901
 31
0.0
  0
LINE
  5
13A
  8
0
 10
37.252563823440767
 20
99.232339720937929
 30
0.0
 11
45.252563823440767
 21
99.232339720937858
 31
0.0
  0
LINE
  5
13B
  8
1
 10
41.252563823440759
 20
117.2323397209379
 30
0.0
 11
41.252563823440759
 21
85.732339720938015
 31
0.0
  0
LINE
  5
13C
  8
1
 10
59.252563823440752
 20
135.23233972093789
 30
0.0
 11
273.25256382344071
 21
135.23233972093789
 31
0.0
  0
LINE
  5
13D
  8
0
 10
41.251162772579512
 20
202.4191735008915
 30
0.0
 11
291.25256207740807
 21
202.4191735008915
 31
0.0
  0
LINE
  5
13E
  8
0
 10
41.251162775172922
 20
190.4191735008915
 30
0.0
 11
291.2525649110986
 21
190.41917350089159
 31
0.0
  0
ARC
  5
13F
  8
1
 10
59.252563823440767
 20
117.2323397209379
 30
0.0
 40
18.0
 50
90.000000000000057
 51
179.99999999999989
  0
ARC
  5
140
  8
1
 10
273.25256382344071
 20
117.2323397209379
 30
0.0
 40
18.0
 50
0.0000000000000254
 51
90.0
  0
LINE
  5
141
  8
0
 10
286.25256382344082
 20
95.232339720937958
 30
0.0
 11
296.25256382344071
 21
95.232339720937958
 31
0.0
  0
LINE
  5
142
  8
0
 10
296.25256382344071
 20
95.232339720937958
 30
0.0
 11
296.25256382344082
 21
94.232339720937986
 31
0.0
  0
LINE
  5
143
  8
0
 10
286.25256382344071
 20
95.232339720937958
 30
0.0
 11
286.25256382344071
 21
94.232339720937986
 31
0.0
  0
LINE
  5
144
  8
0
 10
286.25256382344082
 20
94.232339720937972
 30
0.0
 11
296.25256382344082
 21
94.232339720937972
 31
0.0
  0
LINE
  5
145
  8
0
 10
295.8713659769578
 20
91.147340337764547
 30
0.0
 11
295.1525638234437
 21
90.732339720938015
 31
0.0
  0
ARC
  5
146
  8
0
 10
294.71666543857862
 20
92.834732946602131
 30
0.0
 40
2.044658198744437
 50
235.61575253207371
 51
295.61575253331978
  0
ARC
  5
147
  8
0
 10
291.25256382342798
 20
98.432809157893715
 30
0.0
 40
7.6427344100359971
 50
252.41204622597419
 51
287.5879537742274
  0
ARC
  5
148
  8
0
 10
287.7884622083032
 20
92.834732946602131
 30
0.0
 40
2.044658198744437
 50
244.38424746668019
 51
304.3842474679264
  0
LINE
  5
149
  8
0
 10
286.63376166992379
 20
91.147340337764547
 30
0.0
 11
287.35256382343812
 21
90.732339720938015
 31
0.0
  0
LINE
  5
14A
  8
0
 10
295.8713659769578
 20
91.147340337764547
 30
0.0
 11
295.8713659769578
 21
94.232339720937944
 31
0.0
  0
LINE
  5
14B
  8
0
 10
295.15256382344182
 20
90.732339720937944
 30
0.0
 11
287.35256382343829
 21
90.732339720938015
 31
0.0
  0
LINE
  5
14C
  8
0
 10
293.56196490019931
 20
91.147340337774679
 30
0.0
 11
293.56196490018709
 21
94.232339720937986
 31
0.0
  0
LINE
  5
14D
  8
0
 10
288.94316274668228
 20
94.232339720938015
 30
0.0
 11
288.94316274668228
 21
91.14734033777269
 31
0.0
  0
LINE
  5
14E
  8
0
 10
286.63376166992413
 20
91.147340337764618
 30
0.0
 11
286.63376166992379
 21
94.232339720938015
 31
0.0
  0
LINE
  5
14F
  8
0
 10
36.633761669924041
 20
91.147340337764618
 30
0.0
 11
36.633761669923793
 21
94.232339720938015
 31
0.0
  0
LINE
  5
150
  8
0
 10
38.943162746682361
 20
94.232339720938015
 30
0.0
 11
38.943162746682361
 21
91.14734033777269
 31
0.0
  0
LINE
  5
151
  8
0
 10
43.561964900199342
 20
91.147340337774679
 30
0.0
 11
43.561964900187093
 21
94.232339720937986
 31
0.0
  0
LINE
  5
152
  8
0
 10
45.152563823441852
 20
90.732339720937944
 30
0.0
 11
37.35256382343826
 21
90.732339720938015
 31
0.0
  0
LINE
  5
153
  8
0
 10
45.871365976957833
 20
91.147340337764547
 30
0.0
 11
45.871365976957833
 21
94.232339720937944
 31
0.0
  0
LINE
  5
154
  8
0
 10
36.633761669923871
 20
91.147340337764547
 30
0.0
 11
37.352563823438089
 21
90.732339720938015
 31
0.0
  0
ARC
  5
155
  8
0
 10
37.788462208303123
 20
92.834732946602131
 30
0.0
 40
2.044658198744437
 50
244.38424746668019
 51
304.3842474679264
  0
ARC
  5
156
  8
0
 10
41.252563823427998
 20
98.432809157893715
 30
0.0
 40
7.6427344100359971
 50
252.41204622597419
 51
287.5879537742274
  0
ARC
  5
157
  8
0
 10
44.716665438578588
 20
92.834732946602131
 30
0.0
 40
2.044658198744437
 50
235.61575253207371
 51
295.61575253331978
  0
LINE
  5
158
  8
0
 10
45.871365976957833
 20
91.147340337764547
 30
0.0
 11
45.152563823443607
 21
90.732339720938015
 31
0.0
  0
LINE
  5
159
  8
0
 10
36.252563823440767
 20
94.232339720937972
 30
0.0
 11
46.252563823440759
 21
94.232339720937972
 31
0.0
  0
LINE
  5
15A
  8
0
 10
36.252563823440738
 20
95.232339720937958
 30
0.0
 11
36.252563823440738
 21
94.232339720937986
 31
0.0
  0
LINE
  5
15B
  8
0
 10
46.252563823440731
 20
95.232339720937958
 30
0.0
 11
46.252563823440759
 21
94.232339720937986
 31
0.0
  0
LINE
  5
15C
  8
0
 10
36.252563823440767
 20
95.232339720937958
 30
0.0
 11
46.252563823440731
 21
95.232339720937958
 31
0.0
  0
LINE
  5
15D
  8
0
 10
341.79364230696132
 20
94.232339720937972
 30
0.0
 11
351.79364230696132
 21
94.232339720937972
 31
0.0
  0
LINE
  5
15E
  8
0
 10
341.79364230696132
 20
95.232339720937958
 30
0.0
 11
341.79364230696132
 21
94.232339720937986
 31
0.0
  0
LINE
  5
15F
  8
0
 10
351.79364230696132
 20
95.232339720937958
 30
0.0
 11
351.79364230696132
 21
94.232339720937986
 31
0.0
  0
LINE
  5
160
  8
0
 10
341.79364230696132
 20
95.232339720937958
 30
0.0
 11
351.79364230696132
 21
95.232339720937958
 31
0.0
  0
LINE
  5
161
  8
0
 10
350.79364230696132
 20
90.790074747857574
 30
0.0
 11
350.69364230695987
 21
90.732339720937858
 31
0.0
  0
ARC
  5
162
  8
0
 10
348.79364230696132
 20
96.566783754185195
 30
0.0
 40
5.7767090063276196
 50
249.7438419996576
 51
290.25615800034228
  0
LINE
  5
163
  8
0
 10
350.79364230696149
 20
90.790074747857574
 30
0.0
 11
350.7936423069612
 21
94.232339720937972
 31
0.0
  0
LINE
  5
164
  8
0
 10
342.7936423069612
 20
90.790074747857574
 30
0.0
 11
342.79364230696137
 21
94.232339720937972
 31
0.0
  0
ARC
  5
165
  8
0
 10
344.79364230696132
 20
96.566783754185195
 30
0.0
 40
5.7767090063276196
 50
249.7438419996576
 51
290.25615800034228
  0
LINE
  5
166
  8
0
 10
342.79364230696132
 20
90.790074747857574
 30
0.0
 11
342.8936423069627
 21
90.732339720937858
 31
0.0
  0
LINE
  5
167
  8
0
 10
350.69364230695987
 20
90.732339720937858
 30
0.0
 11
342.8936423069627
 21
90.732339720937858
 31
0.0
  0
LINE
  5
168
  8
0
 10
346.79364230695739
 20
94.232339720937944
 30
0.0
 11
346.79364230696859
 21
91.147340337764405
 31
0.0
  0
LINE
  5
169
  8
0
 10
59.252563823440752
 20
139.23233972093789
 30
0.0
 11
273.25256382344071
 21
139.23233972093789
 31
0.0
  0
LINE
  5
16A
  8
0
 10
59.252563823440752
 20
131.23233972093789
 30
0.0
 11
273.25256382344071
 21
131.23233972093789
 31
0.0
  0
ARC
  5
16B
  8
0
 10
59.252563823440767
 20
117.2323397209379
 30
0.0
 40
22.0
 50
90.000000000000057
 51
179.99999999999989
  0
ARC
  5
16C
  8
0
 10
59.252563823440767
 20
117.2323397209379
 30
0.0
 40
14.0
 50
90.000000000000057
 51
179.99999999999989
  0
LINE
  5
16D
  8
0
 10
45.252563823440767
 20
117.2323397209379
 30
0.0
 11
45.252563823440767
 21
99.232339720937901
 31
0.0
  0
LINE
  5
16E
  8
0
 10
37.252563823440767
 20
117.2323397209379
 30
0.0
 11
37.252563823440767
 21
99.232339720937944
 31
0.0
  0
ARC
  5
16F
  8
0
 10
273.25256382344071
 20
117.2323397209379
 30
0.0
 40
14.0
 50
0.0000000000000254
 51
90.0
  0
ARC
  5
170
  8
0
 10
273.25256382344071
 20
117.2323397209379
 30
0.0
 40
22.0
 50
0.0000000000000254
 51
90.0
  0
LINE
  5
171
  8
0
 10
287.25256382344071
 20
117.0656730542712
 30
0.0
 11
287.25256382344071
 21
99.232339720937901
 31
0.0
  0
LINE
  5
172
  8
0
 10
295.25256382344071
 20
117.0656730542712
 30
0.0
 11
295.25256382344082
 21
99.232339720937901
 31
0.0
  0
ARC
  5
173
  8
0
 10
345.2936423069612
 20
135.23233972093789
 30
0.0
 40
4.5
 50
117.26604445073281
 51
180.0
  0
LINE
  5
174
  8
0
 10
343.23208949415238
 20
139.232339720938
 30
0.0
 11
350.35519511976679
 21
139.232339720938
 31
0.0
  0
ARC
  5
175
  8
0
 10
348.29364230696137
 20
135.23233972093789
 30
0.0
 40
4.5
 50
0.0
 51
62.733955549267243
  0
LINE
  5
176
  8
0
 10
37.252563311600312
 20
192.85762270811631
 30
0.0
 11
37.252564993656478
 21
199.98072755733619
 31
0.0
  0
ARC
  5
177
  8
0
 10
41.25256435270137
 20
197.9191735008915
 30
0.0
 40
4.5
 50
89.999984507578205
 51
152.73393773549711
  0
ARC
  5
178
  8
0
 10
41.25256435270137
 20
194.91917350089159
 30
0.0
 40
4.5
 50
207.26606226450281
 51
270.00001549242182
  0
ARC
  5
179
  8
2
 10
41.25256598997305
 20
194.91917350089159
 30
0.0
 40
4.5
 50
269.99998450757818
 51
332.73393773549719
  0
ARC
  5
17A
  8
2
 10
41.25256598997305
 20
197.9191735008915
 30
0.0
 40
4.5
 50
27.266062264502882
 51
90.000015492421824
  0
LINE
  5
17B
  8
2
 10
45.252567031074108
 20
192.85762270811631
 30
0.0
 11
45.252565349017942
 21
199.98072755733619
 31
0.0
  0
LINE
  5
17C
  8
2
 10
287.25256061580751
 20
192.85762270811631
 30
0.0
 11
287.25256229786362
 21
199.98072755733619
 31
0.0
  0
ARC
  5
17D
  8
2
 10
291.2525616569086
 20
197.9191735008915
 30
0.0
 40
4.5
 50
89.999984507578205
 51
152.73393773549711
  0
ARC
  5
17E
  8
2
 10
291.2525616569086
 20
194.91917350089159
 30
0.0
 40
4.5
 50
207.26606226450281
 51
270.00001549242182
  0
ARC
  5
17F
  8
0
 10
291.25256329418022
 20
194.91917350089159
 30
0.0
 40
4.5
 50
269.99998450757818
 51
332.73393773549719
  0
ARC
  5
180
  8
0
 10
291.25256329418022
 20
197.9191735008915
 30
0.0
 40
4.5
 50
27.266062264502882
 51
90.000015492421824
  0
LINE
  5
181
  8
0
 10
295.25256433528119
 20
192.85762270811631
 30
0.0
 11
295.25256265322508
 21
199.98072755733619
 31
0.0
  0
ARC
  5
18B
  8
2
 10
348.29364230696137
 20
135.23233972093789
 30
0.0
 40
4.5
 50
297.26604445073281
 51
360.0
  0
LINE
  5
18C
  8
2
 10
343.23208949415238
 20
131.23233972093789
 30
0.0
 11
350.35519511976679
 21
131.23233972093789
 31
0.0
  0
ARC
  5
18D
  8
2
 10
345.2936423069612
 20
135.23233972093789
 30
0.0
 40
4.5
 50
180.0
 51
242.73395554926731
  0
LINE
  5
18E
  8
0
 10
43.752563823440717
 20
99.232339720937858
 30
0.0
 11
43.752563823440717
 21
95.232339720937958
 31
0.0
  0
LINE
  5
18F
  8
3
 10
43.301313823440822
 20
99.232339720937887
 30
0.0
 11
43.301313823440822
 21
95.232339720937958
 31
0.0
  0
LINE
  5
190
  8
3
 10
39.203813823440711
 20
99.232339720937887
 30
0.0
 11
39.203813823440711
 21
95.232339720937958
 31
0.0
  0
LINE
  5
191
  8
0
 10
38.752563823440809
 20
99.232339720937858
 30
0.0
 11
38.752563823440809
 21
95.232339720937958
 31
0.0
  0
LINE
  5
192
  8
2
 10
288.75256382344082
 20
103.3990063876048
 30
0.0
 11
288.75256382344082
 21
109.2323397209381
 31
0.0
  0
LINE
  5
193
  8
2
 10
289.20381382344078
 20
103.8502563876047
 30
0.0
 11
289.20381382344073
 21
113.3990063876047
 31
0.0
  0
LINE
  5
194
  8
2
 10
293.30131382344092
 20
103.8502563876046
 30
0.0
 11
293.30131382344092
 21
113.3990063876047
 31
0.0
  0
LINE
  5
195
  8
2
 10
293.75256382344082
 20
103.3990063876047
 30
0.0
 11
293.75256382344082
 21
109.2323397209381
 31
0.0
  0
LINE
  5
196
  8
2
 10
288.75256382344082
 20
109.2323397209381
 30
0.0
 11
293.75256382344082
 21
109.2323397209381
 31
0.0
  0
LINE
  5
197
  8
2
 10
289.20381382344073
 20
113.3990063876047
 30
0.0
 11
293.30131382344092
 21
113.3990063876047
 31
0.0
  0
LINE
  5
198
  8
2
 10
289.20381382344078
 20
113.3990063876047
 30
0.0
 11
291.25256382344082
 21
114.6300195808375
 31
0.0
  0
LINE
  5
199
  8
2
 10
293.30131382344092
 20
113.3990063876047
 30
0.0
 11
291.25256382344082
 21
114.6300195808375
 31
0.0
  0
LINE
  5
19A
  8
2
 10
293.75256382344082
 20
109.2323397209381
 30
0.0
 11
293.30131382344092
 21
110.01392764785339
 31
0.0
  0
LINE
  5
19B
  8
2
 10
288.75256382344088
 20
109.2323397209381
 30
0.0
 11
289.20381382344078
 21
110.01392764785339
 31
0.0
  0
LINE
  5
19C
  8
2
 10
292.91923049010751
 20
104.2323397209381
 30
0.0
 11
289.58589715677408
 21
104.2323397209381
 31
0.0
  0
LINE
  5
19D
  8
2
 10
289.20381382344073
 20
99.232339720938072
 30
0.0
 11
289.20381382344073
 21
103.8502563876047
 31
0.0
  0
LINE
  5
19E
  8
2
 10
293.30131382344092
 20
99.232339720938043
 30
0.0
 11
293.30131382344092
 21
103.8502563876047
 31
0.0
  0
LINE
  5
19F
  8
2
 10
293.75256382344082
 20
103.3990063876048
 30
0.0
 11
292.91923049010751
 21
104.2323397209381
 31
0.0
  0
LINE
  5
1A0
  8
2
 10
289.58589715677408
 20
104.2323397209381
 30
0.0
 11
288.75256382344082
 21
103.3990063876048
 31
0.0
  0
LINE
  5
1A1
  8
2
 10
288.75256382344082
 20
103.3990063876048
 30
0.0
 11
293.75256382344082
 21
103.3990063876048
 31
0.0
  0
LINE
  5
1A2
  8
2
 10
288.75256382344082
 20
99.232339720938086
 30
0.0
 11
288.75256382344082
 21
103.3990063876048
 31
0.0
  0
LINE
  5
1A3
  8
2
 10
293.75256382344082
 20
99.232339720938043
 30
0.0
 11
293.75256382344082
 21
103.3990063876048
 31
0.0
  0
TEXT
  5
316
  8
0
 62
     3
 10
0.0
 20
0.0
 30
0.0
 40
10.0
  1
SRH2-250AN
  7
STANDARD1
  0
ENDSEC
  0
EOF
