  0
SECTION
  2
HEADER
  9
$ACADVER
  1
AC1009
  9
$INSBASE
 10
0.0
 20
0.0
 30
0.0
  9
$EXTMIN
 10
0.0
 20
-2.960436562073669
 30
0.0
  9
$EXTMAX
 10
294.09275642248542
 20
207.41917369767589
 30
0.0
  9
$LIMMIN
 10
0.0
 20
0.0
  9
$LIMMAX
 10
375.0
 20
270.0
  9
$ORTHOMODE
 70
     1
  9
$REGENMODE
 70
     1
  9
$FILLMODE
 70
     1
  9
$QTEXTMODE
 70
     0
  9
$MIRRTEXT
 70
     0
  9
$DRAGMODE
 70
     2
  9
$LTSCALE
 40
10.0
  9
$OSMODE
 70
    55
  9
$ATTMODE
 70
     1
  9
$TEXTSIZE
 40
4.000000000000048
  9
$TRACEWID
 40
0.05
  9
$TEXTSTYLE
  7
STANDARD
  9
$CLAYER
  8
4
  9
$CELTYPE
  6
BYLAYER
  9
$CECOLOR
 62
   256
  9
$DIMSCALE
 40
1.0
  9
$DIMASZ
 40
3.0
  9
$DIMEXO
 40
2.0
  9
$DIMDLI
 40
0.38
  9
$DIMRND
 40
0.0
  9
$DIMDLE
 40
0.0
  9
$DIMEXE
 40
2.0
  9
$DIMTP
 40
0.0
  9
$DIMTM
 40
0.0
  9
$DIMTXT
 40
3.2000000000000002
  9
$DIMCEN
 40
0.0
  9
$DIMTSZ
 40
0.0
  9
$DIMTOL
 70
     0
  9
$DIMLIM
 70
     0
  9
$DIMTIH
 70
     0
  9
$DIMTOH
 70
     0
  9
$DIMSE1
 70
     0
  9
$DIMSE2
 70
     0
  9
$DIMTAD
 70
     1
  9
$DIMZIN
 70
     0
  9
$DIMBLK
  1

  9
$DIMASO
 70
     1
  9
$DIMSHO
 70
     0
  9
$DIMPOST
  1

  9
$DIMAPOST
  1

  9
$DIMALT
 70
     0
  9
$DIMALTD
 70
     2
  9
$DIMALTF
 40
25.399999999999999
  9
$DIMLFAC
 40
1.0
  9
$DIMTOFL
 70
     1
  9
$DIMTVP
 40
1.6000000000000001
  9
$DIMTIX
 70
     1
  9
$DIMSOXD
 70
     0
  9
$DIMSAH
 70
     0
  9
$DIMBLK1
  1

  9
$DIMBLK2
  1

  9
$DIMSTYLE
  2
STANDARD
  9
$DIMCLRD
 70
     0
  9
$DIMCLRE
 70
     0
  9
$DIMCLRT
 70
     0
  9
$DIMTFAC
 40
1.0
  9
$DIMGAP
 40
0.09
  9
$LUNITS
 70
     2
  9
$LUPREC
 70
     4
  9
$SKETCHINC
 40
0.1
  9
$FILLETRAD
 40
14.0
  9
$AUNITS
 70
     0
  9
$AUPREC
 70
     4
  9
$MENU
  1
E:\r13\win\SUPPORT\ACAD
  9
$ELEVATION
 40
0.0
  9
$PELEVATION
 40
0.0
  9
$THICKNESS
 40
0.0
  9
$LIMCHECK
 70
     0
  9
$BLIPMODE
 70
     0
  9
$CHAMFERA
 40
0.0
  9
$CHAMFERB
 40
0.0
  9
$SKPOLY
 70
     0
  9
$TDCREATE
 40
2449840.643981481
  9
$TDUPDATE
 40
2456598.556505498
  9
$TDINDWG
 40
0.0008676852
  9
$TDUSRTIMER
 40
0.0008676852
  9
$USRTIMER
 70
     1
  9
$ANGBASE
 50
0.0
  9
$ANGDIR
 70
     0
  9
$PDMODE
 70
    35
  9
$PDSIZE
 40
0.0
  9
$PLINEWID
 40
0.0
  9
$COORDS
 70
     1
  9
$SPLFRAME
 70
     0
  9
$SPLINETYPE
 70
     6
  9
$SPLINESEGS
 70
     8
  9
$ATTDIA
 70
     0
  9
$ATTREQ
 70
     1
  9
$HANDLING
 70
     1
  9
$HANDSEED
  5
3C2
  9
$SURFTAB1
 70
     6
  9
$SURFTAB2
 70
     6
  9
$SURFTYPE
 70
     6
  9
$SURFU
 70
     6
  9
$SURFV
 70
     6
  9
$UCSNAME
  2

  9
$UCSORG
 10
0.0
 20
0.0
 30
0.0
  9
$UCSXDIR
 10
1.0
 20
0.0
 30
0.0
  9
$UCSYDIR
 10
0.0
 20
1.0
 30
0.0
  9
$PUCSNAME
  2

  9
$PUCSORG
 10
0.0
 20
0.0
 30
0.0
  9
$PUCSXDIR
 10
1.0
 20
0.0
 30
0.0
  9
$PUCSYDIR
 10
0.0
 20
1.0
 30
0.0
  9
$USERI1
 70
     0
  9
$USERI2
 70
     1
  9
$USERI3
 70
     1
  9
$USERI4
 70
     0
  9
$USERI5
 70
     0
  9
$USERR1
 40
0.0
  9
$USERR2
 40
0.0
  9
$USERR3
 40
0.0
  9
$USERR4
 40
0.0
  9
$USERR5
 40
0.0
  9
$WORLDVIEW
 70
     1
  9
$SHADEDGE
 70
     3
  9
$SHADEDIF
 70
    70
  9
$TILEMODE
 70
     1
  9
$MAXACTVP
 70
    16
  9
$PLIMCHECK
 70
     0
  9
$PEXTMIN
 10
1.0000000000000000E+020
 20
1.0000000000000000E+020
 30
1.0000000000000000E+020
  9
$PEXTMAX
 10
-1.0000000000000000E+020
 20
-1.0000000000000000E+020
 30
-1.0000000000000000E+020
  9
$PLIMMIN
 10
0.0
 20
0.0
  9
$PLIMMAX
 10
12.0
 20
9.0
  9
$UNITMODE
 70
     0
  9
$VISRETAIN
 70
     0
  9
$PLINEGEN
 70
     0
  9
$PSLTSCALE
 70
     0
  0
ENDSEC
  0
SECTION
  2
TABLES
  0
TABLE
  2
VPORT
 70
     1
  0
VPORT
  2
*ACTIVE
 70
     0
 10
0.0
 20
0.0
 11
1.0
 21
1.0
 12
187.4942783906524
 22
197.0509055860143
 13
0.0
 23
0.0
 14
10.0
 24
10.0
 15
10.0
 25
10.0
 16
0.0
 26
0.0
 36
1.0
 17
0.0
 27
0.0
 37
0.0
 40
403.57315882993248
 41
1.7807262569832401
 42
50.0
 43
0.0
 44
0.0
 50
0.0
 51
0.0
 71
     0
 72
   500
 73
     1
 74
     0
 75
     0
 76
     0
 77
     0
 78
     0
  0
ENDTAB
  0
TABLE
  2
LTYPE
 70
     4
  0
LTYPE
  2
CONTINUOUS
 70
     0
  3
Solid Line
 72
    65
 73
     0
 40
0.0
  0
LTYPE
  2
CENTER
 70
     0
  3
____ _ ____ _ ____ _ ____ _ ____ _ ____ _ ____
 72
    65
 73
     4
 40
2.0
 49
1.25
 49
-0.25
 49
0.25
 49
-0.25
  0
LTYPE
  2
HIDDEN
 70
     0
  3
_ _ _ _ _ _ _ _ _ _ _ _ _ _ _ _ _ _ _ _ _ _ _
 72
    65
 73
     2
 40
0.375
 49
0.25
 49
-0.125
  0
LTYPE
  2
PHANTOM2
 70
     0
  3
___ _ _ ___ _ _ ___ _ _ ___ _ _
 72
    65
 73
     6
 40
1.25
 49
0.625
 49
-0.125
 49
0.125
 49
-0.125
 49
0.125
 49
-0.125
  0
ENDTAB
  0
TABLE
  2
LAYER
 70
     5
  0
LAYER
  2
0
 70
     0
 62
     7
  6
CONTINUOUS
  0
LAYER
  2
1
 70
     0
 62
     1
  6
CENTER
  0
LAYER
  2
3
 70
     0
 62
     3
  6
CONTINUOUS
  0
LAYER
  2
4
 70
     0
 62
     4
  6
CONTINUOUS
  0
LAYER
  2
2
 70
     0
 62
     2
  6
HIDDEN
  0
ENDTAB
  0
TABLE
  2
STYLE
 70
     2
  0
STYLE
  2
STANDARD
 70
     0
 40
0.0
 41
1.0
 50
0.0
 71
     0
 42
4.000000000000048
  3
TXT
  4
BIGFONT
  0
STYLE
  2
STANDARD1
 70
     0
 40
0.0
 41
1.0
 50
0.0
 71
     0
 42
3.0
  3
txt
  4

  0
ENDTAB
  0
TABLE
  2
VIEW
 70
     1
  0
VIEW
  2
ALL
 70
     0
 40
279.79274611398961
 10
220.99159663865549
 20
139.8963730569948
 41
0.0
 11
0.0
 21
0.0
 31
1.0
 12
0.0
 22
0.0
 32
0.0
 42
0.0
 43
0.0
 44
0.0
 50
0.0
 71
     0
  0
ENDTAB
  0
TABLE
  2
UCS
 70
     0
  0
ENDTAB
  0
TABLE
  2
APPID
 70
     3
  0
APPID
  2
ACAD
 70
     0
  0
APPID
  2
ACAD_MLEADERVER
 70
     0
  0
APPID
  2
ACAD_NAV_VCDISPLAY
 70
     0
  0
ENDTAB
  0
TABLE
  2
DIMSTYLE
 70
     1
  0
DIMSTYLE
  2
STANDARD
 70
     0
  3

  4

  5

  6

  7

 40
1.0
 41
0.18
 42
0.0625
 43
0.38
 44
0.18
 45
0.0
 46
0.0
 47
0.0
 48
0.0
140
0.18
141
0.09
142
0.0
143
25.399999999999999
144
1.0
145
0.0
146
1.0
147
0.09
 71
     0
 72
     0
 73
     1
 74
     1
 75
     0
 76
     0
 77
     0
 78
     0
170
     0
171
     2
172
     0
173
     0
174
     0
175
     0
176
     0
177
     0
178
     0
  0
ENDTAB
  0
ENDSEC
  0
SECTION
  2
BLOCKS
  0
BLOCK
  8
0
  2
$MODEL_SPACE
 70
     0
 10
0.0
 20
0.0
 30
0.0
  3
$MODEL_SPACE
  1

  0
ENDBLK
  5
23F
  8
0
  0
BLOCK
 67
     1
  8
0
  2
$PAPER_SPACE
 70
     0
 10
0.0
 20
0.0
 30
0.0
  3
$PAPER_SPACE
  1

  0
ENDBLK
  5
23D
 67
     1
  8
0
  0
ENDSEC
  0
SECTION
  2
ENTITIES
  0
LINE
  5
116
  8
1
 10
77.072266714901289
 20
196.41917350089159
 30
0.0
 11
215.40559655616951
 21
196.4191735008915
 31
0.0
  0
LINE
  5
117
  8
1
 10
86.238929367173114
 20
185.419173304108
 30
0.0
 11
86.238934562272334
 21
207.41917369767589
 31
0.0
  0
LINE
  5
118
  8
1
 10
206.23893390389759
 20
185.41917330410871
 30
0.0
 11
206.2389287087984
 21
207.41917369767569
 31
0.0
  0
LINE
  5
119
  8
1
 10
272.09275642248468
 20
135.23233972093789
 30
0.0
 11
294.09275642248542
 21
135.23233972093789
 31
0.0
  0
LINE
  5
11A
  8
0
 10
277.0927564224848
 20
99.232339720937901
 30
0.0
 11
289.09275642248429
 21
99.232339720937858
 31
0.0
  0
LINE
  5
11B
  8
0
 10
280.59275642248491
 20
95.232339720937958
 30
0.0
 11
280.59275642248491
 21
99.232339720937972
 31
0.0
  0
LINE
  5
11C
  8
0
 10
285.59275642248502
 20
95.232339720937944
 30
0.0
 11
285.59275642248491
 21
99.232339720937972
 31
0.0
  0
LINE
  5
11D
  8
3
 10
281.04400642248493
 20
95.232339720937958
 30
0.0
 11
281.04400642248481
 21
99.232339720937972
 31
0.0
  0
LINE
  5
11E
  8
3
 10
285.14150642248501
 20
95.232339720937944
 30
0.0
 11
285.14150642248501
 21
99.232339720937972
 31
0.0
  0
LINE
  5
11F
  8
0
 10
277.0927564224848
 20
135.2323416282866
 30
0.0
 11
277.0927564224848
 21
99.232339720937901
 31
0.0
  0
LINE
  5
120
  8
0
 10
289.09275642248429
 20
135.2323416282866
 30
0.0
 11
289.09275642248429
 21
99.232339720937901
 31
0.0
  0
LINE
  5
121
  8
1
 10
283.09275642248491
 20
144.3990063876046
 30
0.0
 11
283.09275642248491
 21
85.732339720938015
 31
0.0
  0
LINE
  5
122
  8
1
 10
206.23893163553529
 20
117.0656730542712
 30
0.0
 11
206.23893163553541
 21
85.732339720938015
 31
0.0
  0
LINE
  5
123
  8
3
 10
208.28768163553551
 20
95.232339720937944
 30
0.0
 11
208.28768163553551
 21
99.232339720937901
 31
0.0
  0
LINE
  5
124
  8
3
 10
204.19018163553531
 20
95.232339720937944
 30
0.0
 11
204.19018163553531
 21
99.232339720937901
 31
0.0
  0
LINE
  5
125
  8
0
 10
208.73893163553541
 20
95.232339720937958
 30
0.0
 11
208.73893163553541
 21
99.232339720937901
 31
0.0
  0
LINE
  5
126
  8
0
 10
203.73893163553541
 20
95.232339720937958
 30
0.0
 11
203.73893163553541
 21
99.232339720937901
 31
0.0
  0
LINE
  5
127
  8
2
 10
88.738931635535337
 20
99.232339720937858
 30
0.0
 11
88.738931635535337
 21
103.3990063876046
 31
0.0
  0
LINE
  5
128
  8
2
 10
83.738931635535337
 20
99.232339720937915
 30
0.0
 11
83.738931635535351
 21
103.3990063876046
 31
0.0
  0
LINE
  5
129
  8
2
 10
83.738931635535351
 20
103.3990063876046
 30
0.0
 11
88.738931635535337
 21
103.3990063876046
 31
0.0
  0
LINE
  5
12A
  8
2
 10
84.572264968868666
 20
104.2323397209379
 30
0.0
 11
83.738931635535351
 21
103.3990063876046
 31
0.0
  0
LINE
  5
12B
  8
2
 10
88.738931635535337
 20
103.3990063876046
 30
0.0
 11
87.905598302202009
 21
104.2323397209379
 31
0.0
  0
LINE
  5
12C
  8
2
 10
88.287681635535435
 20
99.232339720937887
 30
0.0
 11
88.287681635535435
 21
103.8502563876046
 31
0.0
  0
LINE
  5
12D
  8
2
 10
84.190181635535296
 20
99.232339720937901
 30
0.0
 11
84.190181635535296
 21
103.8502563876045
 31
0.0
  0
LINE
  5
12E
  8
2
 10
87.905598302202009
 20
104.2323397209379
 30
0.0
 11
84.572264968868666
 21
104.2323397209379
 31
0.0
  0
LINE
  5
12F
  8
2
 10
83.738931635535479
 20
109.2323397209379
 30
0.0
 11
84.190181635535424
 21
110.01392764785319
 31
0.0
  0
LINE
  5
130
  8
2
 10
88.738931635535394
 20
109.2323397209379
 30
0.0
 11
88.287681635535449
 21
110.01392764785319
 31
0.0
  0
LINE
  5
131
  8
2
 10
88.287681635535463
 20
113.3990063876046
 30
0.0
 11
86.238931635535423
 21
114.6300195808373
 31
0.0
  0
LINE
  5
132
  8
2
 10
84.190181635535353
 20
113.3990063876045
 30
0.0
 11
86.238931635535423
 21
114.6300195808373
 31
0.0
  0
LINE
  5
133
  8
2
 10
84.190181635535325
 20
113.3990063876046
 30
0.0
 11
88.287681635535463
 21
113.3990063876046
 31
0.0
  0
LINE
  5
134
  8
2
 10
83.738931635535366
 20
109.2323397209379
 30
0.0
 11
88.738931635535394
 21
109.2323397209379
 31
0.0
  0
LINE
  5
135
  8
2
 10
88.738931635535394
 20
103.3990063876045
 30
0.0
 11
88.738931635535394
 21
109.2323397209379
 31
0.0
  0
LINE
  5
136
  8
2
 10
88.287681635535492
 20
103.8502563876045
 30
0.0
 11
88.287681635535463
 21
113.3990063876046
 31
0.0
  0
LINE
  5
137
  8
2
 10
84.190181635535339
 20
103.8502563876046
 30
0.0
 11
84.190181635535325
 21
113.3990063876046
 31
0.0
  0
LINE
  5
138
  8
2
 10
83.738931635535394
 20
103.3990063876046
 30
0.0
 11
83.738931635535366
 21
109.2323397209379
 31
0.0
  0
LINE
  5
139
  8
0
 10
202.23893163553541
 20
99.232339720937901
 30
0.0
 11
210.23893163553541
 21
99.232339720937901
 31
0.0
  0
LINE
  5
13A
  8
0
 10
82.238931635535394
 20
99.232339720937929
 30
0.0
 11
90.238931635535366
 21
99.232339720937858
 31
0.0
  0
LINE
  5
13B
  8
1
 10
86.238931635535366
 20
117.2323397209379
 30
0.0
 11
86.238931635535366
 21
85.732339720938015
 31
0.0
  0
LINE
  5
13C
  8
1
 10
104.23893163553529
 20
135.23233972093789
 30
0.0
 11
188.23893163553529
 21
135.23233972093789
 31
0.0
  0
LINE
  5
13D
  8
0
 10
86.237530584674118
 20
202.4191735008915
 30
0.0
 11
206.2389298895028
 21
202.4191735008915
 31
0.0
  0
LINE
  5
13E
  8
0
 10
86.237530587267528
 20
190.4191735008915
 30
0.0
 11
206.23893272319319
 21
190.41917350089159
 31
0.0
  0
ARC
  5
13F
  8
1
 10
104.23893163553539
 20
117.2323397209379
 30
0.0
 40
18.0
 50
90.000000000000057
 51
179.99999999999989
  0
ARC
  5
140
  8
1
 10
188.23893163553529
 20
117.2323397209379
 30
0.0
 40
18.0
 50
0.0000000000000254
 51
90.0
  0
LINE
  5
141
  8
0
 10
201.23893163553541
 20
95.232339720937958
 30
0.0
 11
211.23893163553541
 21
95.232339720937958
 31
0.0
  0
LINE
  5
142
  8
0
 10
211.23893163553541
 20
95.232339720937958
 30
0.0
 11
211.23893163553541
 21
94.232339720937986
 31
0.0
  0
LINE
  5
143
  8
0
 10
201.23893163553541
 20
95.232339720937958
 30
0.0
 11
201.23893163553541
 21
94.232339720937986
 31
0.0
  0
LINE
  5
144
  8
0
 10
201.23893163553541
 20
94.232339720937972
 30
0.0
 11
211.23893163553541
 21
94.232339720937972
 31
0.0
  0
LINE
  5
145
  8
0
 10
210.85773378905239
 20
91.147340337764547
 30
0.0
 11
210.1389316355382
 21
90.732339720938015
 31
0.0
  0
ARC
  5
146
  8
0
 10
209.7030332506732
 20
92.834732946602131
 30
0.0
 40
2.044658198744437
 50
235.61575253207371
 51
295.61575253331978
  0
ARC
  5
147
  8
0
 10
206.23893163552259
 20
98.432809157893715
 30
0.0
 40
7.6427344100359971
 50
252.41204622597419
 51
287.5879537742274
  0
ARC
  5
148
  8
0
 10
202.7748300203977
 20
92.834732946602131
 30
0.0
 40
2.044658198744437
 50
244.38424746668019
 51
304.3842474679264
  0
LINE
  5
149
  8
0
 10
201.62012948201851
 20
91.147340337764547
 30
0.0
 11
202.3389316355327
 21
90.732339720938015
 31
0.0
  0
LINE
  5
14A
  8
0
 10
210.85773378905239
 20
91.147340337764547
 30
0.0
 11
210.85773378905239
 21
94.232339720937944
 31
0.0
  0
LINE
  5
14B
  8
0
 10
210.13893163553649
 20
90.732339720937944
 30
0.0
 11
202.3389316355329
 21
90.732339720938015
 31
0.0
  0
LINE
  5
14C
  8
0
 10
208.5483327122939
 20
91.147340337774679
 30
0.0
 11
208.54833271228171
 21
94.232339720937986
 31
0.0
  0
LINE
  5
14D
  8
0
 10
203.929530558777
 20
94.232339720938015
 30
0.0
 11
203.929530558777
 21
91.14734033777269
 31
0.0
  0
LINE
  5
14E
  8
0
 10
201.62012948201871
 20
91.147340337764618
 30
0.0
 11
201.6201294820184
 21
94.232339720938015
 31
0.0
  0
LINE
  5
14F
  8
0
 10
81.620129482018655
 20
91.147340337764618
 30
0.0
 11
81.620129482018385
 21
94.232339720938015
 31
0.0
  0
LINE
  5
150
  8
0
 10
83.929530558776975
 20
94.232339720938015
 30
0.0
 11
83.929530558776975
 21
91.14734033777269
 31
0.0
  0
LINE
  5
151
  8
0
 10
88.548332712293956
 20
91.147340337774679
 30
0.0
 11
88.548332712281706
 21
94.232339720937986
 31
0.0
  0
LINE
  5
152
  8
0
 10
90.138931635536466
 20
90.732339720937944
 30
0.0
 11
82.338931635532873
 21
90.732339720938015
 31
0.0
  0
LINE
  5
153
  8
0
 10
90.857733789052446
 20
91.147340337764547
 30
0.0
 11
90.857733789052446
 21
94.232339720937944
 31
0.0
  0
LINE
  5
154
  8
0
 10
81.620129482018484
 20
91.147340337764547
 30
0.0
 11
82.338931635532703
 21
90.732339720938015
 31
0.0
  0
ARC
  5
155
  8
0
 10
82.774830020397715
 20
92.834732946602131
 30
0.0
 40
2.044658198744437
 50
244.38424746668019
 51
304.3842474679264
  0
ARC
  5
156
  8
0
 10
86.238931635522619
 20
98.432809157893715
 30
0.0
 40
7.6427344100359971
 50
252.41204622597419
 51
287.5879537742274
  0
ARC
  5
157
  8
0
 10
89.703033250673201
 20
92.834732946602131
 30
0.0
 40
2.044658198744437
 50
235.61575253207371
 51
295.61575253331978
  0
LINE
  5
158
  8
0
 10
90.857733789052446
 20
91.147340337764547
 30
0.0
 11
90.138931635538214
 21
90.732339720938015
 31
0.0
  0
LINE
  5
159
  8
0
 10
81.238931635535366
 20
94.232339720937972
 30
0.0
 11
91.238931635535366
 21
94.232339720937972
 31
0.0
  0
LINE
  5
15A
  8
0
 10
81.238931635535351
 20
95.232339720937958
 30
0.0
 11
81.238931635535351
 21
94.232339720937986
 31
0.0
  0
LINE
  5
15B
  8
0
 10
91.238931635535351
 20
95.232339720937958
 30
0.0
 11
91.238931635535366
 21
94.232339720937986
 31
0.0
  0
LINE
  5
15C
  8
0
 10
81.238931635535366
 20
95.232339720937958
 30
0.0
 11
91.238931635535351
 21
95.232339720937958
 31
0.0
  0
LINE
  5
15D
  8
0
 10
278.09275642248491
 20
94.232339720937972
 30
0.0
 11
288.0927564224848
 21
94.232339720937972
 31
0.0
  0
LINE
  5
15E
  8
0
 10
278.0927564224848
 20
95.232339720937958
 30
0.0
 11
278.0927564224848
 21
94.232339720937986
 31
0.0
  0
LINE
  5
15F
  8
0
 10
288.0927564224848
 20
95.232339720937958
 30
0.0
 11
288.0927564224848
 21
94.232339720937986
 31
0.0
  0
LINE
  5
160
  8
0
 10
278.09275642248491
 20
95.232339720937958
 30
0.0
 11
288.0927564224848
 21
95.232339720937958
 31
0.0
  0
LINE
  5
161
  8
0
 10
287.09275642248491
 20
90.790074747857574
 30
0.0
 11
286.99275642248341
 21
90.732339720937858
 31
0.0
  0
ARC
  5
162
  8
0
 10
285.0927564224848
 20
96.566783754185195
 30
0.0
 40
5.7767090063276196
 50
249.7438419996576
 51
290.25615800034228
  0
LINE
  5
163
  8
0
 10
287.09275642248502
 20
90.790074747857574
 30
0.0
 11
287.09275642248468
 21
94.232339720937972
 31
0.0
  0
LINE
  5
164
  8
0
 10
279.09275642248468
 20
90.790074747857574
 30
0.0
 11
279.09275642248502
 21
94.232339720937972
 31
0.0
  0
ARC
  5
165
  8
0
 10
281.09275642248491
 20
96.566783754185195
 30
0.0
 40
5.7767090063276196
 50
249.7438419996576
 51
290.25615800034228
  0
LINE
  5
166
  8
0
 10
279.09275642248491
 20
90.790074747857574
 30
0.0
 11
279.1927564224863
 21
90.732339720937858
 31
0.0
  0
LINE
  5
167
  8
0
 10
286.99275642248341
 20
90.732339720937858
 30
0.0
 11
279.19275642248618
 21
90.732339720937858
 31
0.0
  0
LINE
  5
168
  8
0
 10
283.09275642248099
 20
94.232339720937944
 30
0.0
 11
283.09275642249207
 21
91.147340337764405
 31
0.0
  0
LINE
  5
169
  8
0
 10
104.23893163553529
 20
139.23233972093789
 30
0.0
 11
188.23893163553529
 21
139.23233972093789
 31
0.0
  0
LINE
  5
16A
  8
0
 10
104.23893163553529
 20
131.23233972093789
 30
0.0
 11
188.23893163553529
 21
131.23233972093789
 31
0.0
  0
ARC
  5
16B
  8
0
 10
104.23893163553539
 20
117.2323397209379
 30
0.0
 40
22.0
 50
90.000000000000057
 51
179.99999999999989
  0
ARC
  5
16C
  8
0
 10
104.23893163553539
 20
117.2323397209379
 30
0.0
 40
14.0
 50
90.000000000000057
 51
179.99999999999989
  0
LINE
  5
16D
  8
0
 10
90.238931635535366
 20
117.2323397209379
 30
0.0
 11
90.238931635535366
 21
99.232339720937901
 31
0.0
  0
LINE
  5
16E
  8
0
 10
82.238931635535394
 20
117.2323397209379
 30
0.0
 11
82.238931635535394
 21
99.232339720937944
 31
0.0
  0
ARC
  5
16F
  8
0
 10
188.23893163553529
 20
117.2323397209379
 30
0.0
 40
14.0
 50
0.0000000000000254
 51
90.0
  0
ARC
  5
170
  8
0
 10
188.23893163553529
 20
117.2323397209379
 30
0.0
 40
22.0
 50
0.0000000000000254
 51
90.0
  0
LINE
  5
171
  8
0
 10
202.23893163553529
 20
117.0656730542712
 30
0.0
 11
202.23893163553541
 21
99.232339720937901
 31
0.0
  0
LINE
  5
172
  8
0
 10
210.23893163553529
 20
117.0656730542712
 30
0.0
 11
210.23893163553541
 21
99.232339720937901
 31
0.0
  0
ARC
  5
173
  8
0
 10
281.5927564224848
 20
135.23233972093789
 30
0.0
 40
4.5
 50
117.26604445073281
 51
180.0
  0
LINE
  5
174
  8
0
 10
279.53120360967591
 20
139.232339720938
 30
0.0
 11
286.65430923529033
 21
139.232339720938
 31
0.0
  0
ARC
  5
175
  8
0
 10
284.59275642248491
 20
135.23233972093789
 30
0.0
 40
4.5
 50
0.0
 51
62.733955549267243
  0
LINE
  5
176
  8
0
 10
82.238931123694925
 20
192.85762270811631
 30
0.0
 11
82.238932805751105
 21
199.98072755733619
 31
0.0
  0
ARC
  5
177
  8
0
 10
86.238932164795983
 20
197.9191735008915
 30
0.0
 40
4.5
 50
89.999984507578205
 51
152.73393773549711
  0
ARC
  5
178
  8
0
 10
86.238932164795983
 20
194.91917350089159
 30
0.0
 40
4.5
 50
207.26606226450281
 51
270.00001549242182
  0
ARC
  5
179
  8
2
 10
86.238933802067663
 20
194.91917350089159
 30
0.0
 40
4.5
 50
269.99998450757818
 51
332.73393773549719
  0
ARC
  5
17A
  8
2
 10
86.238933802067663
 20
197.9191735008915
 30
0.0
 40
4.5
 50
27.266062264502882
 51
90.000015492421824
  0
LINE
  5
17B
  8
2
 10
90.238934843168721
 20
192.85762270811631
 30
0.0
 11
90.238933161112556
 21
199.98072755733619
 31
0.0
  0
LINE
  5
17C
  8
2
 10
202.2389284279021
 20
192.85762270811631
 30
0.0
 11
202.23893010995829
 21
199.98072755733619
 31
0.0
  0
ARC
  5
17D
  8
2
 10
206.2389294690031
 20
197.9191735008915
 30
0.0
 40
4.5
 50
89.999984507578205
 51
152.73393773549711
  0
ARC
  5
17E
  8
2
 10
206.2389294690031
 20
194.91917350089159
 30
0.0
 40
4.5
 50
207.26606226450281
 51
270.00001549242182
  0
ARC
  5
17F
  8
0
 10
206.2389311062748
 20
194.91917350089159
 30
0.0
 40
4.5
 50
269.99998450757818
 51
332.73393773549719
  0
ARC
  5
180
  8
0
 10
206.2389311062748
 20
197.9191735008915
 30
0.0
 40
4.5
 50
27.266062264502882
 51
90.000015492421824
  0
LINE
  5
181
  8
0
 10
210.23893214737589
 20
192.85762270811631
 30
0.0
 11
210.2389304653197
 21
199.98072755733619
 31
0.0
  0
ARC
  5
18B
  8
2
 10
284.59275642248491
 20
135.23233972093789
 30
0.0
 40
4.5
 50
297.26604445073281
 51
360.0
  0
LINE
  5
18C
  8
2
 10
279.53120360967591
 20
131.23233972093789
 30
0.0
 11
286.65430923529033
 21
131.23233972093789
 31
0.0
  0
ARC
  5
18D
  8
2
 10
281.5927564224848
 20
135.23233972093789
 30
0.0
 40
4.5
 50
180.0
 51
242.73395554926731
  0
LINE
  5
18E
  8
0
 10
88.738931635535337
 20
99.232339720937858
 30
0.0
 11
88.738931635535337
 21
95.232339720937958
 31
0.0
  0
LINE
  5
18F
  8
3
 10
88.287681635535435
 20
99.232339720937887
 30
0.0
 11
88.287681635535435
 21
95.232339720937958
 31
0.0
  0
LINE
  5
190
  8
3
 10
84.190181635535325
 20
99.232339720937887
 30
0.0
 11
84.190181635535325
 21
95.232339720937958
 31
0.0
  0
LINE
  5
191
  8
0
 10
83.738931635535423
 20
99.232339720937858
 30
0.0
 11
83.738931635535423
 21
95.232339720937958
 31
0.0
  0
LINE
  5
192
  8
2
 10
203.73893163553541
 20
103.3990063876048
 30
0.0
 11
203.73893163553541
 21
109.2323397209381
 31
0.0
  0
LINE
  5
193
  8
2
 10
204.1901816355354
 20
103.8502563876047
 30
0.0
 11
204.19018163553531
 21
113.3990063876047
 31
0.0
  0
LINE
  5
194
  8
2
 10
208.28768163553551
 20
103.8502563876046
 30
0.0
 11
208.28768163553551
 21
113.3990063876047
 31
0.0
  0
LINE
  5
195
  8
2
 10
208.73893163553541
 20
103.3990063876047
 30
0.0
 11
208.73893163553541
 21
109.2323397209381
 31
0.0
  0
LINE
  5
196
  8
2
 10
203.73893163553541
 20
109.2323397209381
 30
0.0
 11
208.73893163553541
 21
109.2323397209381
 31
0.0
  0
LINE
  5
197
  8
2
 10
204.19018163553531
 20
113.3990063876047
 30
0.0
 11
208.28768163553551
 21
113.3990063876047
 31
0.0
  0
LINE
  5
198
  8
2
 10
204.1901816355354
 20
113.3990063876047
 30
0.0
 11
206.23893163553541
 21
114.6300195808375
 31
0.0
  0
LINE
  5
199
  8
2
 10
208.28768163553551
 20
113.3990063876047
 30
0.0
 11
206.23893163553541
 21
114.6300195808375
 31
0.0
  0
LINE
  5
19A
  8
2
 10
208.73893163553541
 20
109.2323397209381
 30
0.0
 11
208.28768163553551
 21
110.01392764785339
 31
0.0
  0
LINE
  5
19B
  8
2
 10
203.73893163553549
 20
109.2323397209381
 30
0.0
 11
204.19018163553551
 21
110.01392764785339
 31
0.0
  0
LINE
  5
19C
  8
2
 10
207.90559830220201
 20
104.2323397209381
 30
0.0
 11
204.57226496886869
 21
104.2323397209381
 31
0.0
  0
LINE
  5
19D
  8
2
 10
204.19018163553531
 20
99.232339720938072
 30
0.0
 11
204.19018163553531
 21
103.8502563876047
 31
0.0
  0
LINE
  5
19E
  8
2
 10
208.28768163553551
 20
99.232339720938043
 30
0.0
 11
208.28768163553551
 21
103.8502563876047
 31
0.0
  0
LINE
  5
19F
  8
2
 10
208.73893163553541
 20
103.3990063876048
 30
0.0
 11
207.90559830220201
 21
104.2323397209381
 31
0.0
  0
LINE
  5
1A0
  8
2
 10
204.57226496886869
 20
104.2323397209381
 30
0.0
 11
203.73893163553541
 21
103.3990063876048
 31
0.0
  0
LINE
  5
1A1
  8
2
 10
203.73893163553541
 20
103.3990063876048
 30
0.0
 11
208.73893163553541
 21
103.3990063876048
 31
0.0
  0
LINE
  5
1A2
  8
2
 10
203.73893163553541
 20
99.232339720938086
 30
0.0
 11
203.73893163553541
 21
103.3990063876048
 31
0.0
  0
LINE
  5
1A3
  8
2
 10
208.73893163553541
 20
99.232339720938043
 30
0.0
 11
208.73893163553541
 21
103.3990063876048
 31
0.0
  0
TEXT
  5
329
  8
0
 62
     3
 10
0.0
 20
0.0
 30
0.0
 40
10.0
  1
SRH2-120AN
  7
STANDARD1
  0
ENDSEC
  0
EOF
