  0
SECTION
  2
HEADER
  9
$ACADVER
  1
AC1009
  9
$INSBASE
 10
0.0
 20
0.0
 30
0.0
  9
$EXTMIN
 10
0.0
 20
-2.960436562073669
 30
0.0
  9
$EXTMAX
 10
290.77618927080073
 20
217.38843536569701
 30
0.0
  9
$LIMMIN
 10
0.0
 20
0.0
  9
$LIMMAX
 10
375.0
 20
270.0
  9
$ORTHOMODE
 70
     1
  9
$REGENMODE
 70
     1
  9
$FILLMODE
 70
     1
  9
$QTEXTMODE
 70
     0
  9
$MIRRTEXT
 70
     0
  9
$DRAGMODE
 70
     2
  9
$LTSCALE
 40
10.0
  9
$OSMODE
 70
    55
  9
$ATTMODE
 70
     1
  9
$TEXTSIZE
 40
5.0
  9
$TRACEWID
 40
0.05
  9
$TEXTSTYLE
  7
STANDARD
  9
$CLAYER
  8
0
  9
$CELTYPE
  6
BYLAYER
  9
$CECOLOR
 62
   256
  9
$DIMSCALE
 40
1.0
  9
$DIMASZ
 40
3.0
  9
$DIMEXO
 40
2.0
  9
$DIMDLI
 40
0.38
  9
$DIMRND
 40
0.0
  9
$DIMDLE
 40
0.0
  9
$DIMEXE
 40
2.0
  9
$DIMTP
 40
0.0
  9
$DIMTM
 40
0.0
  9
$DIMTXT
 40
3.2000000000000002
  9
$DIMCEN
 40
0.0
  9
$DIMTSZ
 40
0.0
  9
$DIMTOL
 70
     0
  9
$DIMLIM
 70
     0
  9
$DIMTIH
 70
     0
  9
$DIMTOH
 70
     0
  9
$DIMSE1
 70
     0
  9
$DIMSE2
 70
     0
  9
$DIMTAD
 70
     1
  9
$DIMZIN
 70
     0
  9
$DIMBLK
  1

  9
$DIMASO
 70
     1
  9
$DIMSHO
 70
     0
  9
$DIMPOST
  1

  9
$DIMAPOST
  1

  9
$DIMALT
 70
     0
  9
$DIMALTD
 70
     2
  9
$DIMALTF
 40
25.399999999999999
  9
$DIMLFAC
 40
1.0
  9
$DIMTOFL
 70
     1
  9
$DIMTVP
 40
1.6000000000000001
  9
$DIMTIX
 70
     1
  9
$DIMSOXD
 70
     0
  9
$DIMSAH
 70
     0
  9
$DIMBLK1
  1

  9
$DIMBLK2
  1

  9
$DIMSTYLE
  2
STANDARD
  9
$DIMCLRD
 70
     0
  9
$DIMCLRE
 70
     0
  9
$DIMCLRT
 70
     0
  9
$DIMTFAC
 40
1.0
  9
$DIMGAP
 40
0.09
  9
$LUNITS
 70
     2
  9
$LUPREC
 70
     4
  9
$SKETCHINC
 40
0.1
  9
$FILLETRAD
 40
20.0
  9
$AUNITS
 70
     0
  9
$AUPREC
 70
     4
  9
$MENU
  1
E:\r13\win\SUPPORT\ACAD
  9
$ELEVATION
 40
0.0
  9
$PELEVATION
 40
0.0
  9
$THICKNESS
 40
0.0
  9
$LIMCHECK
 70
     0
  9
$BLIPMODE
 70
     0
  9
$CHAMFERA
 40
0.0
  9
$CHAMFERB
 40
0.0
  9
$SKPOLY
 70
     0
  9
$TDCREATE
 40
2449840.6444675932
  9
$TDUPDATE
 40
2456598.556463785
  9
$TDINDWG
 40
0.0009404977
  9
$TDUSRTIMER
 40
0.0009404977
  9
$USRTIMER
 70
     1
  9
$ANGBASE
 50
0.0
  9
$ANGDIR
 70
     0
  9
$PDMODE
 70
    35
  9
$PDSIZE
 40
0.0
  9
$PLINEWID
 40
0.0
  9
$COORDS
 70
     1
  9
$SPLFRAME
 70
     0
  9
$SPLINETYPE
 70
     6
  9
$SPLINESEGS
 70
     8
  9
$ATTDIA
 70
     0
  9
$ATTREQ
 70
     1
  9
$HANDLING
 70
     1
  9
$HANDSEED
  5
32C
  9
$SURFTAB1
 70
     6
  9
$SURFTAB2
 70
     6
  9
$SURFTYPE
 70
     6
  9
$SURFU
 70
     6
  9
$SURFV
 70
     6
  9
$UCSNAME
  2

  9
$UCSORG
 10
0.0
 20
0.0
 30
0.0
  9
$UCSXDIR
 10
1.0
 20
0.0
 30
0.0
  9
$UCSYDIR
 10
0.0
 20
1.0
 30
0.0
  9
$PUCSNAME
  2

  9
$PUCSORG
 10
0.0
 20
0.0
 30
0.0
  9
$PUCSXDIR
 10
1.0
 20
0.0
 30
0.0
  9
$PUCSYDIR
 10
0.0
 20
1.0
 30
0.0
  9
$USERI1
 70
     0
  9
$USERI2
 70
     1
  9
$USERI3
 70
     1
  9
$USERI4
 70
     0
  9
$USERI5
 70
     0
  9
$USERR1
 40
0.0
  9
$USERR2
 40
0.0
  9
$USERR3
 40
0.0
  9
$USERR4
 40
0.0
  9
$USERR5
 40
0.0
  9
$WORLDVIEW
 70
     1
  9
$SHADEDGE
 70
     3
  9
$SHADEDIF
 70
    70
  9
$TILEMODE
 70
     1
  9
$MAXACTVP
 70
    16
  9
$PLIMCHECK
 70
     0
  9
$PEXTMIN
 10
1.0000000000000000E+020
 20
1.0000000000000000E+020
 30
1.0000000000000000E+020
  9
$PEXTMAX
 10
-1.0000000000000000E+020
 20
-1.0000000000000000E+020
 30
-1.0000000000000000E+020
  9
$PLIMMIN
 10
0.0
 20
0.0
  9
$PLIMMAX
 10
12.0
 20
9.0
  9
$UNITMODE
 70
     0
  9
$VISRETAIN
 70
     0
  9
$PLINEGEN
 70
     0
  9
$PSLTSCALE
 70
     0
  0
ENDSEC
  0
SECTION
  2
TABLES
  0
TABLE
  2
VPORT
 70
     1
  0
VPORT
  2
*ACTIVE
 70
     0
 10
0.0
 20
0.0
 11
1.0
 21
1.0
 12
187.4942783906524
 22
197.0509055860143
 13
0.0
 23
0.0
 14
10.0
 24
10.0
 15
10.0
 25
10.0
 16
0.0
 26
0.0
 36
1.0
 17
0.0
 27
0.0
 37
0.0
 40
403.57315882993248
 41
1.7807262569832401
 42
50.0
 43
0.0
 44
0.0
 50
0.0
 51
0.0
 71
     0
 72
   500
 73
     1
 74
     0
 75
     0
 76
     0
 77
     0
 78
     0
  0
ENDTAB
  0
TABLE
  2
LTYPE
 70
     4
  0
LTYPE
  2
CONTINUOUS
 70
     0
  3
Solid Line
 72
    65
 73
     0
 40
0.0
  0
LTYPE
  2
CENTER
 70
     0
  3
____ _ ____ _ ____ _ ____ _ ____ _ ____ _ ____
 72
    65
 73
     4
 40
2.0
 49
1.25
 49
-0.25
 49
0.25
 49
-0.25
  0
LTYPE
  2
HIDDEN
 70
     0
  3
_ _ _ _ _ _ _ _ _ _ _ _ _ _ _ _ _ _ _ _ _ _ _
 72
    65
 73
     2
 40
0.375
 49
0.25
 49
-0.125
  0
LTYPE
  2
PHANTOM2
 70
     0
  3
___ _ _ ___ _ _ ___ _ _ ___ _ _
 72
    65
 73
     6
 40
1.25
 49
0.625
 49
-0.125
 49
0.125
 49
-0.125
 49
0.125
 49
-0.125
  0
ENDTAB
  0
TABLE
  2
LAYER
 70
     4
  0
LAYER
  2
0
 70
     0
 62
     7
  6
CONTINUOUS
  0
LAYER
  2
1
 70
     0
 62
     1
  6
CENTER
  0
LAYER
  2
3
 70
     0
 62
     3
  6
CONTINUOUS
  0
LAYER
  2
2
 70
     0
 62
     2
  6
HIDDEN
  0
ENDTAB
  0
TABLE
  2
STYLE
 70
     2
  0
STYLE
  2
STANDARD
 70
     0
 40
0.0
 41
1.0
 50
0.0
 71
     0
 42
5.0
  3
TXT
  4
BIGFONT
  0
STYLE
  2
STANDARD1
 70
     0
 40
0.0
 41
1.0
 50
0.0
 71
     0
 42
3.0
  3
txt
  4

  0
ENDTAB
  0
TABLE
  2
VIEW
 70
     1
  0
VIEW
  2
ALL
 70
     0
 40
279.79274611398961
 10
220.99159663865549
 20
139.8963730569948
 41
0.0
 11
0.0
 21
0.0
 31
1.0
 12
0.0
 22
0.0
 32
0.0
 42
0.0
 43
0.0
 44
0.0
 50
0.0
 71
     0
  0
ENDTAB
  0
TABLE
  2
UCS
 70
     0
  0
ENDTAB
  0
TABLE
  2
APPID
 70
     3
  0
APPID
  2
ACAD
 70
     0
  0
APPID
  2
ACAD_MLEADERVER
 70
     0
  0
APPID
  2
ACAD_NAV_VCDISPLAY
 70
     0
  0
ENDTAB
  0
TABLE
  2
DIMSTYLE
 70
     1
  0
DIMSTYLE
  2
STANDARD
 70
     0
  3

  4

  5

  6

  7

 40
1.0
 41
0.18
 42
0.0625
 43
0.38
 44
0.18
 45
0.0
 46
0.0
 47
0.0
 48
0.0
140
0.18
141
0.09
142
0.0
143
25.399999999999999
144
1.0
145
0.0
146
1.0
147
0.09
 71
     0
 72
     0
 73
     1
 74
     1
 75
     0
 76
     0
 77
     0
 78
     0
170
     0
171
     2
172
     0
173
     0
174
     0
175
     0
176
     0
177
     0
178
     0
  0
ENDTAB
  0
ENDSEC
  0
SECTION
  2
BLOCKS
  0
BLOCK
  8
0
  2
$MODEL_SPACE
 70
     0
 10
0.0
 20
0.0
 30
0.0
  3
$MODEL_SPACE
  1

  0
ENDBLK
  5
1AB
  8
0
  0
BLOCK
 67
     1
  8
0
  2
$PAPER_SPACE
 70
     0
 10
0.0
 20
0.0
 30
0.0
  3
$PAPER_SPACE
  1

  0
ENDBLK
  5
1A9
 67
     1
  8
0
  0
ENDSEC
  0
SECTION
  2
ENTITIES
  0
LINE
  5
99
  8
0
 10
94.219617896600155
 20
207.38843536569709
 30
0.0
 11
94.219617896600113
 21
197.88843536569709
 31
0.0
  0
LINE
  5
9A
  8
2
 10
104.2196178966001
 20
207.38843536569709
 30
0.0
 11
104.2196178966001
 21
197.88843536569709
 31
0.0
  0
ARC
  5
9B
  8
0
 10
99.219617896600155
 20
207.38843536569709
 30
0.0
 40
5.0
 50
90.000000000000327
 51
180.0
  0
ARC
  5
9C
  8
2
 10
99.219617896600113
 20
197.88843536569709
 30
0.0
 40
5.0
 50
270.00000000000011
 51
0.0
  0
ARC
  5
9D
  8
2
 10
99.219617896600113
 20
207.38843536569709
 30
0.0
 40
5.0
 50
0.0000000000000509
 51
90.000000000000028
  0
ARC
  5
9E
  8
0
 10
99.219617896600155
 20
197.88843536569721
 30
0.0
 40
5.0
 50
180.0
 51
269.99999999999977
  0
ARC
  5
9F
  8
0
 10
199.21961789660011
 20
197.88843536569721
 30
0.0
 40
5.0
 50
270.00000000000028
 51
360.0
  0
ARC
  5
A0
  8
2
 10
199.21961789660011
 20
207.38843536569709
 30
0.0
 40
5.0
 50
90.0
 51
180.0
  0
LINE
  5
A1
  8
1
 10
89.219617896600127
 20
202.63843536569709
 30
0.0
 11
209.21961789660011
 21
202.63843536569709
 31
0.0
  0
LINE
  5
A2
  8
1
 10
99.219614808547135
 20
187.88843536569709
 30
0.0
 11
99.219621774702773
 21
217.38843536569701
 31
0.0
  0
LINE
  5
A3
  8
1
 10
199.21962098465309
 20
187.88843536569709
 30
0.0
 11
199.21961401849751
 21
217.38843536569701
 31
0.0
  0
ARC
  5
A4
  8
2
 10
199.21961789660011
 20
197.88843536569709
 30
0.0
 40
5.0
 50
180.0
 51
270.0
  0
ARC
  5
A5
  8
0
 10
199.21961789660011
 20
207.38843536569709
 30
0.0
 40
5.0
 50
0.0
 51
89.999999999999687
  0
LINE
  5
A6
  8
2
 10
194.21961789660011
 20
207.38843536569709
 30
0.0
 11
194.21961789660011
 21
197.88843536569709
 31
0.0
  0
LINE
  5
A7
  8
0
 10
204.21961789660011
 20
207.38843536569709
 30
0.0
 11
204.21961789660011
 21
197.88843536569709
 31
0.0
  0
LINE
  5
A8
  8
0
 10
99.219618291624954
 20
212.38843536569709
 30
0.0
 11
199.2196175015753
 21
212.38843536569709
 31
0.0
  0
LINE
  5
A9
  8
0
 10
99.219618291624954
 20
192.88843536569701
 30
0.0
 11
199.2196175015753
 21
192.88843536569701
 31
0.0
  0
LINE
  5
AA
  8
0
 10
269.77618927079959
 20
93.455715427657907
 30
0.0
 11
282.27618927080198
 21
93.455715427658006
 31
0.0
  0
LINE
  5
AB
  8
0
 10
269.77618927079959
 20
91.855715427657984
 30
0.0
 11
282.27618927080198
 21
91.855715427657984
 31
0.0
  0
LINE
  5
AC
  8
0
 10
282.27618927080198
 20
93.455715427657907
 30
0.0
 11
282.27618927080198
 21
91.855715427657884
 31
0.0
  0
LINE
  5
AD
  8
0
 10
269.77618927079959
 20
93.455715427657907
 30
0.0
 11
269.77618927079959
 21
91.855715427657984
 31
0.0
  0
LINE
  5
AE
  8
0
 10
271.5261892708009
 20
91.455715427657964
 30
0.0
 11
271.5261892708009
 21
91.855715427657941
 31
0.0
  0
LINE
  5
AF
  8
0
 10
280.5261892708009
 20
91.455715427657964
 30
0.0
 11
280.5261892708009
 21
91.855715427657941
 31
0.0
  0
LINE
  5
B0
  8
0
 10
280.926189270799
 20
87.855715427657941
 30
0.0
 11
271.1261892708028
 21
87.855715427657941
 31
0.0
  0
ARC
  5
B1
  8
0
 10
273.5261892708009
 20
95.134336712476824
 30
0.0
 40
7.2208862578987887
 50
249.7438419996262
 51
290.25615800037377
  0
LINE
  5
B2
  8
0
 10
271.0261892708009
 20
87.913450454577998
 30
0.0
 11
271.1261892708028
 21
87.855715427657941
 31
0.0
  0
LINE
  5
B3
  8
0
 10
271.0261892708009
 20
87.913450454577998
 30
0.0
 11
271.0261892708009
 21
91.455715427657907
 31
0.0
  0
LINE
  5
B4
  8
0
 10
281.0261892708009
 20
87.913450454577998
 30
0.0
 11
281.0261892708009
 21
91.455715427657907
 31
0.0
  0
LINE
  5
B5
  8
0
 10
281.0261892708009
 20
87.913450454577998
 30
0.0
 11
280.926189270799
 21
87.855715427657941
 31
0.0
  0
ARC
  5
B6
  8
0
 10
278.5261892708009
 20
95.134336712476824
 30
0.0
 40
7.2208862578987887
 50
249.7438419996262
 51
290.25615800037377
  0
LINE
  5
B7
  8
0
 10
276.0261892708009
 20
88.360032441963227
 30
0.0
 11
276.0261892708009
 21
91.455715427657907
 31
0.0
  0
LINE
  5
B8
  8
0
 10
281.0261892708009
 20
91.455715427657907
 30
0.0
 11
271.0261892708009
 21
91.455715427657907
 31
0.0
  0
LINE
  5
B9
  8
1
 10
261.27618927079999
 20
137.85571542765791
 30
0.0
 11
290.77618927080073
 21
137.85571542765791
 31
0.0
  0
ARC
  5
BA
  8
0
 10
280.77618927080073
 20
137.85571542765791
 30
0.0
 40
5.0
 50
0.0
 51
90.0
  0
ARC
  5
BB
  8
0
 10
271.27618927080078
 20
137.85571542765791
 30
0.0
 40
5.0
 50
90.0
 51
180.0
  0
LINE
  5
BC
  8
0
 10
271.27618927080078
 20
142.85571542765791
 30
0.0
 11
280.77618927080073
 21
142.85571542765791
 31
0.0
  0
LINE
  5
BD
  8
0
 10
266.27618927080078
 20
97.855715427657714
 30
0.0
 11
285.77618927080078
 21
97.855715427657657
 31
0.0
  0
LINE
  5
BE
  8
0
 10
273.0261892708009
 20
93.455715427657907
 30
0.0
 11
273.0261892708009
 21
97.855715427657785
 31
0.0
  0
LINE
  5
BF
  8
0
 10
279.0261892708009
 20
93.455715427657907
 30
0.0
 11
279.0261892708009
 21
97.855715427657785
 31
0.0
  0
LINE
  5
C0
  8
3
 10
273.56768927080083
 20
93.45571542765785
 30
0.0
 11
273.56768927080083
 21
97.855715427657785
 31
0.0
  0
LINE
  5
C1
  8
3
 10
278.48468927080103
 20
93.45571542765785
 30
0.0
 11
278.48468927080103
 21
97.855715427657785
 31
0.0
  0
LINE
  5
C2
  8
0
 10
266.27618927080078
 20
137.85571542765791
 30
0.0
 11
266.27618927080078
 21
97.855715427657714
 31
0.0
  0
LINE
  5
C3
  8
0
 10
285.77618927080078
 20
137.85571542765791
 30
0.0
 11
285.77618927080078
 21
97.855715427657714
 31
0.0
  0
LINE
  5
C4
  8
1
 10
276.02618927080078
 20
147.85571542765771
 30
0.0
 11
276.0261892708009
 21
82.855715427657884
 31
0.0
  0
LINE
  5
C5
  8
1
 10
199.21961789660011
 20
118.8557154276578
 30
0.0
 11
199.2196178966002
 21
82.855715427657941
 31
0.0
  0
LINE
  5
C6
  8
0
 10
204.9931205884964
 20
88.360032441962375
 30
0.0
 11
204.11961789659961
 21
87.855715427657941
 31
0.0
  0
ARC
  5
C7
  8
0
 10
203.54974491552241
 20
90.469273203005585
 30
0.0
 40
2.5558227484274911
 50
235.61575253202599
 51
295.61575253066002
  0
ARC
  5
C8
  8
0
 10
199.21961789658849
 20
97.466868467136322
 30
0.0
 40
9.5534180125581827
 50
252.4120462259726
 51
287.5879537741755
  0
LINE
  5
C9
  8
0
 10
204.9931205884964
 20
88.360032441962375
 30
0.0
 11
204.99312058849651
 21
91.455715427657907
 31
0.0
  0
LINE
  5
CA
  8
0
 10
202.1063692425484
 20
88.360032441970773
 30
0.0
 11
202.1063692425484
 21
91.455715427657907
 31
0.0
  0
LINE
  5
CB
  8
0
 10
196.332866550652
 20
88.360032441970773
 30
0.0
 11
196.332866550652
 21
91.455715427657907
 31
0.0
  0
LINE
  5
CC
  8
0
 10
193.446115204704
 20
88.360032441962375
 30
0.0
 11
193.446115204704
 21
91.455715427657907
 31
0.0
  0
ARC
  5
CD
  8
0
 10
194.88949087767801
 20
90.469273203005585
 30
0.0
 40
2.5558227484274911
 50
244.38424746934001
 51
304.38424746797392
  0
LINE
  5
CE
  8
0
 10
193.446115204704
 20
88.360032441962375
 30
0.0
 11
194.3196178966007
 21
87.855715427657941
 31
0.0
  0
LINE
  5
CF
  8
0
 10
194.3196178966007
 20
87.855715427657941
 30
0.0
 11
204.11961789659961
 21
87.855715427657941
 31
0.0
  0
LINE
  5
D0
  8
0
 10
193.446115204704
 20
91.455715427657907
 30
0.0
 11
204.99312058849651
 21
91.455715427657907
 31
0.0
  0
LINE
  5
D1
  8
0
 10
203.71961789660011
 20
91.455715427657907
 30
0.0
 11
203.71961789660011
 21
91.855715427657884
 31
0.0
  0
LINE
  5
D2
  8
3
 10
201.6781178966003
 20
93.45571542765785
 30
0.0
 11
201.6781178966003
 21
97.855715427657785
 31
0.0
  0
LINE
  5
D3
  8
3
 10
196.7611178966001
 20
93.45571542765785
 30
0.0
 11
196.76111789660001
 21
97.855715427657785
 31
0.0
  0
LINE
  5
D4
  8
0
 10
194.71961789660011
 20
91.455715427657907
 30
0.0
 11
194.7196178966002
 21
91.855715427657884
 31
0.0
  0
LINE
  5
D5
  8
0
 10
192.96961789659889
 20
93.455715427657907
 30
0.0
 11
192.96961789659889
 21
91.855715427657884
 31
0.0
  0
LINE
  5
D6
  8
0
 10
205.46961789660131
 20
93.455715427657907
 30
0.0
 11
205.46961789660131
 21
91.855715427657884
 31
0.0
  0
LINE
  5
D7
  8
0
 10
192.96961789659889
 20
91.855715427657884
 30
0.0
 11
205.46961789660131
 21
91.855715427657884
 31
0.0
  0
LINE
  5
D8
  8
0
 10
192.96961789659889
 20
93.455715427657907
 30
0.0
 11
205.46961789660131
 21
93.455715427657907
 31
0.0
  0
LINE
  5
D9
  8
0
 10
202.21961789660031
 20
93.455715427657907
 30
0.0
 11
202.2196178966002
 21
97.855715427657785
 31
0.0
  0
LINE
  5
DA
  8
0
 10
196.2196178966002
 20
93.455715427657907
 30
0.0
 11
196.2196178966002
 21
97.855715427657785
 31
0.0
  0
LINE
  5
DB
  8
2
 10
102.2196178966001
 20
97.855715427657856
 30
0.0
 11
102.2196178966001
 21
102.8557154276579
 31
0.0
  0
LINE
  5
DC
  8
2
 10
96.219617896600099
 20
97.855715427657856
 30
0.0
 11
96.219617896600099
 21
102.8557154276579
 31
0.0
  0
LINE
  5
DD
  8
0
 10
105.46961789660141
 20
93.455715427657907
 30
0.0
 11
92.969617896599033
 21
93.455715427657907
 31
0.0
  0
LINE
  5
DE
  8
0
 10
105.46961789660141
 20
91.855715427657884
 30
0.0
 11
92.969617896599033
 21
91.855715427657884
 31
0.0
  0
LINE
  5
DF
  8
0
 10
92.969617896599033
 20
93.455715427657907
 30
0.0
 11
92.969617896599033
 21
91.855715427657884
 31
0.0
  0
LINE
  5
E0
  8
0
 10
105.46961789660141
 20
93.455715427657907
 30
0.0
 11
105.46961789660141
 21
91.855715427657884
 31
0.0
  0
LINE
  5
E1
  8
2
 10
96.219617896600099
 20
102.8557154276579
 30
0.0
 11
102.2196178966001
 21
102.8557154276579
 31
0.0
  0
LINE
  5
E2
  8
2
 10
97.219617896600099
 20
103.8557154276579
 30
0.0
 11
96.219617896600099
 21
102.8557154276579
 31
0.0
  0
LINE
  5
E3
  8
2
 10
102.2196178966001
 20
102.8557154276579
 30
0.0
 11
101.2196178966001
 21
103.8557154276579
 31
0.0
  0
LINE
  5
E4
  8
0
 10
103.7196178966001
 20
91.455715427657907
 30
0.0
 11
103.7196178966001
 21
91.855715427657884
 31
0.0
  0
LINE
  5
E5
  8
2
 10
101.6781178966002
 20
97.855715427657827
 30
0.0
 11
101.6781178966002
 21
103.3972154276578
 31
0.0
  0
LINE
  5
E6
  8
2
 10
96.761117896600027
 20
97.855715427657856
 30
0.0
 11
96.761117896600027
 21
103.3972154276577
 31
0.0
  0
LINE
  5
E7
  8
0
 10
94.719617896600155
 20
91.455715427657907
 30
0.0
 11
94.719617896600155
 21
91.855715427657884
 31
0.0
  0
LINE
  5
E8
  8
2
 10
101.2196178966001
 20
103.8557154276579
 30
0.0
 11
97.219617896600099
 21
103.8557154276579
 31
0.0
  0
LINE
  5
E9
  8
0
 10
104.9931205884963
 20
91.455715427657907
 30
0.0
 11
93.44611520470383
 21
91.455715427657907
 31
0.0
  0
LINE
  5
EA
  8
0
 10
104.11961789659961
 20
87.855715427657941
 30
0.0
 11
94.319617896600647
 21
87.855715427657941
 31
0.0
  0
LINE
  5
EB
  8
0
 10
104.9931205884963
 20
88.360032441962375
 30
0.0
 11
104.11961789659961
 21
87.855715427657941
 31
0.0
  0
ARC
  5
EC
  8
0
 10
103.5497449155223
 20
90.469273203005585
 30
0.0
 40
2.5558227484274911
 50
235.61575253202619
 51
295.61575253066007
  0
LINE
  5
ED
  8
0
 10
104.9931205884963
 20
88.360032441962375
 30
0.0
 11
104.9931205884963
 21
91.455715427657907
 31
0.0
  0
LINE
  5
EE
  8
0
 10
102.1063692425483
 20
88.360032441970773
 30
0.0
 11
102.1063692425483
 21
91.455715427657907
 31
0.0
  0
LINE
  5
EF
  8
0
 10
96.332866550651914
 20
88.360032441970773
 30
0.0
 11
96.332866550651914
 21
91.455715427657907
 31
0.0
  0
LINE
  5
F0
  8
0
 10
93.446115204703943
 20
88.360032441962375
 30
0.0
 11
93.44611520470383
 21
91.455715427657907
 31
0.0
  0
ARC
  5
F1
  8
0
 10
99.219617896611823
 20
97.466868467136322
 30
0.0
 40
9.5534180125581827
 50
252.4120462258245
 51
287.58795377402748
  0
ARC
  5
F2
  8
0
 10
94.889490877677915
 20
90.469273203005585
 30
0.0
 40
2.5558227484274911
 50
244.3842474693401
 51
304.38424746797409
  0
LINE
  5
F3
  8
0
 10
93.446115204703887
 20
88.360032441962375
 30
0.0
 11
94.319617896600647
 21
87.855715427657941
 31
0.0
  0
LINE
  5
F4
  8
2
 10
96.219617896600255
 20
109.8557154276578
 30
0.0
 11
96.761117896600183
 21
110.7936209399562
 31
0.0
  0
LINE
  5
F5
  8
2
 10
102.2196178966001
 20
109.8557154276578
 30
0.0
 11
101.6781178966002
 21
110.7936209399562
 31
0.0
  0
LINE
  5
F6
  8
2
 10
101.6781178966002
 20
114.8557154276578
 30
0.0
 11
99.219617896600184
 21
116.33293125953711
 31
0.0
  0
LINE
  5
F7
  8
2
 10
96.761117896600126
 20
114.8557154276578
 30
0.0
 11
99.219617896600184
 21
116.33293125953711
 31
0.0
  0
LINE
  5
F8
  8
2
 10
96.761117896600084
 20
114.8557154276578
 30
0.0
 11
101.6781178966002
 21
114.8557154276578
 31
0.0
  0
LINE
  5
F9
  8
2
 10
96.219617896600155
 20
109.8557154276578
 30
0.0
 11
102.2196178966001
 21
109.8557154276578
 31
0.0
  0
LINE
  5
FA
  8
2
 10
102.2196178966001
 20
102.8557154276577
 30
0.0
 11
102.2196178966001
 21
109.8557154276578
 31
0.0
  0
LINE
  5
FB
  8
2
 10
101.6781178966002
 20
103.3972154276577
 30
0.0
 11
101.6781178966002
 21
114.8557154276578
 31
0.0
  0
LINE
  5
FC
  8
2
 10
96.761117896600098
 20
103.3972154276578
 30
0.0
 11
96.761117896600084
 21
114.8557154276578
 31
0.0
  0
LINE
  5
FD
  8
2
 10
96.219617896600184
 20
102.8557154276579
 30
0.0
 11
96.219617896600155
 21
109.8557154276578
 31
0.0
  0
LINE
  5
FE
  8
0
 10
194.21961789660011
 20
97.855715427657785
 30
0.0
 11
204.21961789660011
 21
97.855715427657785
 31
0.0
  0
LINE
  5
FF
  8
0
 10
94.219617896600155
 20
97.855715427657827
 30
0.0
 11
104.2196178966001
 21
97.855715427657827
 31
0.0
  0
ARC
  5
100
  8
0
 10
180.21961789660011
 20
118.8557154276578
 30
0.0
 40
14.0
 50
0.0
 51
90.0
  0
ARC
  5
101
  8
0
 10
118.2196178966001
 20
118.8557154276578
 30
0.0
 40
14.0
 50
90.0
 51
179.99999999999989
  0
ARC
  5
102
  8
1
 10
180.21961789660011
 20
118.8557154276579
 30
0.0
 40
19.0
 50
0.0
 51
90.0
  0
ARC
  5
103
  8
1
 10
118.2196178966001
 20
118.8557154276578
 30
0.0
 40
19.0
 50
90.0
 51
179.99999999999989
  0
ARC
  5
104
  8
0
 10
180.21961789660011
 20
118.8557154276578
 30
0.0
 40
24.0
 50
0.0
 51
90.0
  0
ARC
  5
105
  8
0
 10
118.2196178966001
 20
118.8557154276578
 30
0.0
 40
24.0
 50
90.0
 51
179.99999999999989
  0
LINE
  5
106
  8
0
 10
104.2196178966001
 20
118.8557154276578
 30
0.0
 11
104.2196178966001
 21
97.855715427657827
 31
0.0
  0
LINE
  5
107
  8
0
 10
94.219617896600155
 20
118.8557154276578
 30
0.0
 11
94.219617896600155
 21
97.855715427657827
 31
0.0
  0
LINE
  5
108
  8
0
 10
204.21961789660011
 20
118.8557154276578
 30
0.0
 11
204.21961789660011
 21
97.855715427657785
 31
0.0
  0
LINE
  5
109
  8
0
 10
194.21961789660011
 20
118.8557154276578
 30
0.0
 11
194.21961789660011
 21
97.855715427657785
 31
0.0
  0
LINE
  5
10A
  8
0
 10
118.2196178966001
 20
142.8557154276578
 30
0.0
 11
180.21961789660011
 21
142.8557154276578
 31
0.0
  0
LINE
  5
10B
  8
0
 10
118.2196178966001
 20
132.8557154276578
 30
0.0
 11
180.21961789660011
 21
132.8557154276578
 31
0.0
  0
LINE
  5
10C
  8
1
 10
99.219617896600155
 20
118.8557154276578
 30
0.0
 11
99.219617896600155
 21
82.855715427657941
 31
0.0
  0
LINE
  5
10D
  8
1
 10
118.2196178966001
 20
137.8557154276578
 30
0.0
 11
180.21961789660011
 21
137.85571542765791
 31
0.0
  0
LINE
  5
117
  8
2
 10
271.27618927080078
 20
132.85571542765791
 30
0.0
 11
280.77618927080073
 21
132.85571542765791
 31
0.0
  0
ARC
  5
118
  8
2
 10
271.27618927080078
 20
137.85571542765791
 30
0.0
 40
5.0
 50
180.0
 51
270.0
  0
ARC
  5
119
  8
2
 10
280.77618927080073
 20
137.85571542765791
 30
0.0
 40
5.0
 50
270.0
 51
0.0
  0
LINE
  5
11A
  8
0
 10
102.2196178966001
 20
97.855715427657827
 30
0.0
 11
102.2196178966001
 21
93.455715427657907
 31
0.0
  0
LINE
  5
11B
  8
3
 10
101.6781178966002
 20
97.855715427657827
 30
0.0
 11
101.6781178966002
 21
93.455715427657907
 31
0.0
  0
LINE
  5
11C
  8
3
 10
96.761117896600098
 20
97.855715427657827
 30
0.0
 11
96.761117896600098
 21
93.455715427657907
 31
0.0
  0
LINE
  5
11D
  8
0
 10
96.219617896600212
 20
97.855715427657827
 30
0.0
 11
96.219617896600212
 21
93.455715427657907
 31
0.0
  0
LINE
  5
11E
  8
2
 10
196.2196178966002
 20
102.855715427658
 30
0.0
 11
196.21961789660011
 21
109.855715427658
 31
0.0
  0
LINE
  5
11F
  8
2
 10
196.7611178966001
 20
103.3972154276579
 30
0.0
 11
196.7611178966001
 21
114.855715427658
 31
0.0
  0
LINE
  5
120
  8
2
 10
201.6781178966003
 20
103.3972154276578
 30
0.0
 11
201.6781178966003
 21
114.855715427658
 31
0.0
  0
LINE
  5
121
  8
2
 10
202.2196178966002
 20
102.8557154276579
 30
0.0
 11
202.2196178966002
 21
109.855715427658
 31
0.0
  0
LINE
  5
122
  8
2
 10
196.21961789660011
 20
109.855715427658
 30
0.0
 11
202.2196178966002
 21
109.855715427658
 31
0.0
  0
LINE
  5
123
  8
2
 10
196.7611178966001
 20
114.855715427658
 30
0.0
 11
201.6781178966003
 21
114.855715427658
 31
0.0
  0
LINE
  5
124
  8
2
 10
196.7611178966001
 20
114.8557154276579
 30
0.0
 11
199.2196178966002
 21
116.3329312595372
 31
0.0
  0
LINE
  5
125
  8
2
 10
201.6781178966003
 20
114.855715427658
 30
0.0
 11
199.2196178966002
 21
116.3329312595372
 31
0.0
  0
LINE
  5
126
  8
2
 10
202.2196178966002
 20
109.855715427658
 30
0.0
 11
201.67811789660021
 21
110.7936209399563
 31
0.0
  0
LINE
  5
127
  8
2
 10
196.21961789660031
 20
109.855715427658
 30
0.0
 11
196.76111789660021
 21
110.7936209399563
 31
0.0
  0
LINE
  5
128
  8
2
 10
201.21961789660011
 20
103.855715427658
 30
0.0
 11
197.21961789660011
 21
103.855715427658
 31
0.0
  0
LINE
  5
129
  8
2
 10
196.76111789660001
 20
97.855715427658012
 30
0.0
 11
196.76111789660001
 21
103.3972154276579
 31
0.0
  0
LINE
  5
12A
  8
2
 10
201.67811789660021
 20
97.855715427657984
 30
0.0
 11
201.67811789660021
 21
103.3972154276579
 31
0.0
  0
LINE
  5
12B
  8
2
 10
202.21961789660011
 20
102.855715427658
 30
0.0
 11
201.21961789660011
 21
103.855715427658
 31
0.0
  0
LINE
  5
12C
  8
2
 10
197.21961789660011
 20
103.855715427658
 30
0.0
 11
196.21961789660011
 21
102.855715427658
 31
0.0
  0
LINE
  5
12D
  8
2
 10
196.21961789660011
 20
102.855715427658
 30
0.0
 11
202.21961789660011
 21
102.855715427658
 31
0.0
  0
LINE
  5
12E
  8
2
 10
196.21961789660011
 20
97.855715427658012
 30
0.0
 11
196.21961789660011
 21
102.855715427658
 31
0.0
  0
LINE
  5
12F
  8
2
 10
202.21961789660011
 20
97.855715427658012
 30
0.0
 11
202.21961789660011
 21
102.855715427658
 31
0.0
  0
TEXT
  5
295
  8
0
 62
     3
 10
0.0
 20
0.0
 30
0.0
 40
10.0
  1
SRH2-100BN
  7
STANDARD1
  0
ENDSEC
  0
EOF
