  0
SECTION
  2
HEADER
  9
$ACADVER
  1
AC1009
  9
$INSBASE
 10
0.0
 20
0.0
 30
0.0
  9
$EXTMIN
 10
0.0
 20
-2.960436562073669
 30
0.0
  9
$EXTMAX
 10
223.60556176922299
 20
124.5849665172514
 30
0.0
  9
$LIMMIN
 10
0.0
 20
0.0
  9
$LIMMAX
 10
375.0
 20
270.0
  9
$ORTHOMODE
 70
     0
  9
$REGENMODE
 70
     1
  9
$FILLMODE
 70
     1
  9
$QTEXTMODE
 70
     0
  9
$MIRRTEXT
 70
     0
  9
$DRAGMODE
 70
     2
  9
$LTSCALE
 40
5.0
  9
$OSMODE
 70
    55
  9
$ATTMODE
 70
     1
  9
$TEXTSIZE
 40
5.0
  9
$TRACEWID
 40
0.05
  9
$TEXTSTYLE
  7
STANDARD
  9
$CLAYER
  8
0
  9
$CELTYPE
  6
BYLAYER
  9
$CECOLOR
 62
   256
  9
$DIMSCALE
 40
1.0
  9
$DIMASZ
 40
3.0
  9
$DIMEXO
 40
2.0
  9
$DIMDLI
 40
0.38
  9
$DIMRND
 40
0.0
  9
$DIMDLE
 40
0.0
  9
$DIMEXE
 40
2.0
  9
$DIMTP
 40
0.0
  9
$DIMTM
 40
0.0
  9
$DIMTXT
 40
3.0
  9
$DIMCEN
 40
0.0
  9
$DIMTSZ
 40
0.0
  9
$DIMTOL
 70
     0
  9
$DIMLIM
 70
     0
  9
$DIMTIH
 70
     0
  9
$DIMTOH
 70
     0
  9
$DIMSE1
 70
     0
  9
$DIMSE2
 70
     0
  9
$DIMTAD
 70
     1
  9
$DIMZIN
 70
     0
  9
$DIMBLK
  1

  9
$DIMASO
 70
     0
  9
$DIMSHO
 70
     0
  9
$DIMPOST
  1

  9
$DIMAPOST
  1

  9
$DIMALT
 70
     0
  9
$DIMALTD
 70
     2
  9
$DIMALTF
 40
25.399999999999999
  9
$DIMLFAC
 40
1.0
  9
$DIMTOFL
 70
     1
  9
$DIMTVP
 40
1.6000000000000001
  9
$DIMTIX
 70
     1
  9
$DIMSOXD
 70
     0
  9
$DIMSAH
 70
     0
  9
$DIMBLK1
  1

  9
$DIMBLK2
  1

  9
$DIMSTYLE
  2
STANDARD
  9
$DIMCLRD
 70
     0
  9
$DIMCLRE
 70
     0
  9
$DIMCLRT
 70
     0
  9
$DIMTFAC
 40
1.0
  9
$DIMGAP
 40
0.09
  9
$LUNITS
 70
     2
  9
$LUPREC
 70
     4
  9
$SKETCHINC
 40
0.1
  9
$FILLETRAD
 40
0.0
  9
$AUNITS
 70
     0
  9
$AUPREC
 70
     4
  9
$MENU
  1
E:\r13\win\SUPPORT\ACAD
  9
$ELEVATION
 40
0.0
  9
$PELEVATION
 40
0.0
  9
$THICKNESS
 40
0.0
  9
$LIMCHECK
 70
     0
  9
$BLIPMODE
 70
     0
  9
$CHAMFERA
 40
0.0
  9
$CHAMFERB
 40
0.0
  9
$SKPOLY
 70
     0
  9
$TDCREATE
 40
2449839.7852777778
  9
$TDUPDATE
 40
2456598.502108484
  9
$TDINDWG
 40
0.0373753125
  9
$TDUSRTIMER
 40
0.0373753125
  9
$USRTIMER
 70
     1
  9
$ANGBASE
 50
0.0
  9
$ANGDIR
 70
     0
  9
$PDMODE
 70
     0
  9
$PDSIZE
 40
0.0
  9
$PLINEWID
 40
0.0
  9
$COORDS
 70
     1
  9
$SPLFRAME
 70
     0
  9
$SPLINETYPE
 70
     6
  9
$SPLINESEGS
 70
     8
  9
$ATTDIA
 70
     0
  9
$ATTREQ
 70
     1
  9
$HANDLING
 70
     1
  9
$HANDSEED
  5
6A8
  9
$SURFTAB1
 70
     6
  9
$SURFTAB2
 70
     6
  9
$SURFTYPE
 70
     6
  9
$SURFU
 70
     6
  9
$SURFV
 70
     6
  9
$UCSNAME
  2

  9
$UCSORG
 10
0.0
 20
0.0
 30
0.0
  9
$UCSXDIR
 10
1.0
 20
0.0
 30
0.0
  9
$UCSYDIR
 10
0.0
 20
1.0
 30
0.0
  9
$PUCSNAME
  2

  9
$PUCSORG
 10
0.0
 20
0.0
 30
0.0
  9
$PUCSXDIR
 10
1.0
 20
0.0
 30
0.0
  9
$PUCSYDIR
 10
0.0
 20
1.0
 30
0.0
  9
$USERI1
 70
     0
  9
$USERI2
 70
     1
  9
$USERI3
 70
     1
  9
$USERI4
 70
     0
  9
$USERI5
 70
     0
  9
$USERR1
 40
0.0
  9
$USERR2
 40
0.0
  9
$USERR3
 40
0.0
  9
$USERR4
 40
0.0
  9
$USERR5
 40
0.0
  9
$WORLDVIEW
 70
     1
  9
$SHADEDGE
 70
     3
  9
$SHADEDIF
 70
    70
  9
$TILEMODE
 70
     1
  9
$MAXACTVP
 70
    16
  9
$PLIMCHECK
 70
     0
  9
$PEXTMIN
 10
1.0000000000000000E+020
 20
1.0000000000000000E+020
 30
1.0000000000000000E+020
  9
$PEXTMAX
 10
-1.0000000000000000E+020
 20
-1.0000000000000000E+020
 30
-1.0000000000000000E+020
  9
$PLIMMIN
 10
0.0
 20
0.0
  9
$PLIMMAX
 10
12.0
 20
9.0
  9
$UNITMODE
 70
     0
  9
$VISRETAIN
 70
     0
  9
$PLINEGEN
 70
     0
  9
$PSLTSCALE
 70
     0
  0
ENDSEC
  0
SECTION
  2
TABLES
  0
TABLE
  2
VPORT
 70
     1
  0
VPORT
  2
*ACTIVE
 70
     0
 10
0.0
 20
0.0
 11
1.0
 21
1.0
 12
187.49427839065231
 22
174.91677254346851
 13
0.0
 23
0.0
 14
10.0
 24
10.0
 15
10.0
 25
10.0
 16
0.0
 26
0.0
 36
1.0
 17
0.0
 27
0.0
 37
0.0
 40
358.92027899574339
 41
1.7807262569832401
 42
50.0
 43
0.0
 44
0.0
 50
0.0
 51
0.0
 71
     0
 72
   500
 73
     1
 74
     0
 75
     0
 76
     0
 77
     0
 78
     2
  0
ENDTAB
  0
TABLE
  2
LTYPE
 70
     4
  0
LTYPE
  2
CONTINUOUS
 70
     0
  3
Solid Line
 72
    65
 73
     0
 40
0.0
  0
LTYPE
  2
CENTER
 70
     0
  3
____ _ ____ _ ____ _ ____ _ ____ _ ____ _ ____
 72
    65
 73
     4
 40
2.0
 49
1.25
 49
-0.25
 49
0.25
 49
-0.25
  0
LTYPE
  2
HIDDEN
 70
     0
  3
_ _ _ _ _ _ _ _ _ _ _ _ _ _ _ _ _ _ _ _ _ _ _
 72
    65
 73
     2
 40
0.375
 49
0.25
 49
-0.125
  0
LTYPE
  2
PHANTOM2
 70
     0
  3
___ _ _ ___ _ _ ___ _ _ ___ _ _
 72
    65
 73
     6
 40
1.25
 49
0.625
 49
-0.125
 49
0.125
 49
-0.125
 49
0.125
 49
-0.125
  0
ENDTAB
  0
TABLE
  2
LAYER
 70
     4
  0
LAYER
  2
0
 70
     0
 62
     7
  6
CONTINUOUS
  0
LAYER
  2
1
 70
     0
 62
     1
  6
CENTER
  0
LAYER
  2
2
 70
     0
 62
     2
  6
HIDDEN
  0
LAYER
  2
ITTEN
 70
     0
 62
     1
  6
CENTER
  0
ENDTAB
  0
TABLE
  2
STYLE
 70
     2
  0
STYLE
  2
STANDARD
 70
     0
 40
0.0
 41
1.0
 50
0.0
 71
     0
 42
5.0
  3
TXT
  4
BIGFONT
  0
STYLE
  2
STANDARD1
 70
     0
 40
0.0
 41
1.0
 50
0.0
 71
     0
 42
3.0
  3
txt
  4

  0
ENDTAB
  0
TABLE
  2
VIEW
 70
     1
  0
VIEW
  2
ALL
 70
     0
 40
270.0
 10
220.99159663865549
 20
135.0
 41
0.0
 11
0.0
 21
0.0
 31
1.0
 12
0.0
 22
0.0
 32
0.0
 42
0.0
 43
0.0
 44
0.0
 50
0.0
 71
     0
  0
ENDTAB
  0
TABLE
  2
UCS
 70
     0
  0
ENDTAB
  0
TABLE
  2
APPID
 70
     3
  0
APPID
  2
ACAD
 70
     0
  0
APPID
  2
ACAD_MLEADERVER
 70
     0
  0
APPID
  2
ACAD_NAV_VCDISPLAY
 70
     0
  0
ENDTAB
  0
TABLE
  2
DIMSTYLE
 70
     1
  0
DIMSTYLE
  2
STANDARD
 70
     0
  3

  4

  5

  6

  7

 40
1.0
 41
0.18
 42
0.0625
 43
0.38
 44
0.18
 45
0.0
 46
0.0
 47
0.0
 48
0.0
140
0.18
141
0.09
142
0.0
143
25.399999999999999
144
1.0
145
0.0
146
1.0
147
0.09
 71
     0
 72
     0
 73
     1
 74
     1
 75
     0
 76
     0
 77
     0
 78
     0
170
     0
171
     2
172
     0
173
     0
174
     0
175
     0
176
     0
177
     0
178
     0
  0
ENDTAB
  0
ENDSEC
  0
SECTION
  2
BLOCKS
  0
BLOCK
  8
0
  2
$MODEL_SPACE
 70
     0
 10
0.0
 20
0.0
 30
0.0
  3
$MODEL_SPACE
  1

  0
ENDBLK
  5
17E
  8
0
  0
BLOCK
 67
     1
  8
0
  2
$PAPER_SPACE
 70
     0
 10
0.0
 20
0.0
 30
0.0
  3
$PAPER_SPACE
  1

  0
ENDBLK
  5
17C
 67
     1
  8
0
  0
BLOCK
  8
0
  2
BATU
 70
     0
 10
0.0
 20
0.0
 30
0.0
  3
BATU
  1

  0
LINE
  5
189
  8
ITTEN
 10
0.5
 20
0.0
 30
0.0
 11
-0.5
 21
0.0
 31
0.0
  0
LINE
  5
18A
  8
ITTEN
 10
0.0
 20
0.5
 30
0.0
 11
0.0
 21
-0.5
 31
0.0
  0
ENDBLK
  5
18C
  8
0
  0
ENDSEC
  0
SECTION
  2
ENTITIES
  0
LINE
  5
48B
  8
1
 10
64.387679980906213
 20
94.084966517251587
 30
0.0
 11
125.3876799809062
 21
94.08496651725153
 31
0.0
  0
LINE
  5
48C
  8
1
 10
94.887679980906213
 20
63.58496651725175
 30
0.0
 11
94.887679980906213
 21
124.5849665172514
 31
0.0
  0
ARC
  5
48D
  8
0
 10
94.887679980906213
 20
94.084966517251559
 30
0.0
 40
25.0
 50
193.85723323045499
 51
226.142766769546
  0
ARC
  5
48E
  8
0
 10
94.887679980906213
 20
94.084966517251559
 30
0.0
 40
25.0
 50
313.85723323045403
 51
346.14276676954501
  0
CIRCLE
  5
48F
  8
0
 10
94.887679980906213
 20
94.084966517251587
 30
0.0
 40
19.373684538918749
  0
ARC
  5
490
  8
0
 10
111.6376799809061
 20
65.073115490472787
 30
0.0
 40
11.0
 50
87.021387409000212
 51
152.97861259099949
  0
ARC
  5
491
  8
0
 10
78.137679980906114
 20
65.073115490472844
 30
0.0
 40
11.0
 50
27.02138740900045
 51
92.978612590998182
  0
ARC
  5
492
  8
0
 10
94.887679980906213
 20
94.084966517251559
 30
0.0
 40
25.0
 50
253.85723323045369
 51
286.14276676954631
  0
ARC
  5
493
  8
0
 10
94.887679980906213
 20
94.084966517251559
 30
0.0
 40
25.0
 50
13.857233230453421
 51
46.142766769544863
  0
ARC
  5
494
  8
0
 10
128.3876799809062
 20
94.084966517251473
 30
0.0
 40
11.0
 50
147.0213874090002
 51
212.9786125909998
  0
ARC
  5
495
  8
0
 10
94.887679980906213
 20
94.084966517251559
 30
0.0
 40
25.0
 50
133.857233230454
 51
166.14276676954501
  0
ARC
  5
496
  8
0
 10
78.137679980906285
 20
123.0968175440303
 30
0.0
 40
11.0
 50
267.02138740900023
 51
332.9786125909996
  0
ARC
  5
497
  8
0
 10
111.6376799809063
 20
123.0968175440301
 30
0.0
 40
11.0
 50
207.02138740900051
 51
272.97861259099977
  0
CIRCLE
  5
498
  8
0
 10
94.887679980906114
 20
94.084966517251644
 30
0.0
 40
9.0
  0
INSERT
  5
499
  8
0
  2
BATU
 10
94.887679980906213
 20
94.084966517251587
 30
0.0
 41
0.0010000000000048
 42
0.0010000000000048
 43
0.0010000000000048
 50
90.0
  0
ARC
  5
49A
  8
0
 10
61.387679980906228
 20
94.084966517251587
 30
0.0
 40
11.0
 50
327.02138740900023
 51
32.978612590999802
  0
ARC
  5
49B
  8
0
 10
94.887679980906213
 20
94.084966517251559
 30
0.0
 40
25.0
 50
73.857233230453673
 51
106.1427667695463
  0
LINE
  5
49C
  8
2
 10
195.60556176922299
 20
85.084966517251559
 30
0.0
 11
189.622682726221
 21
75.113501445581505
 31
0.0
  0
ARC
  5
49D
  8
0
 10
196.10556176922299
 20
75.584966517251502
 30
0.0
 40
6.5
 50
180.0
 51
0.0
  0
LINE
  5
49E
  8
0
 10
202.60556176922299
 20
112.5849665172516
 30
0.0
 11
202.60556176922299
 21
75.584966517251502
 31
0.0
  0
LINE
  5
49F
  8
0
 10
189.60556176922299
 20
75.58496651725153
 30
0.0
 11
189.60556176922299
 21
112.5849665172516
 31
0.0
  0
ARC
  5
4A0
  8
0
 10
196.10556176922299
 20
88.820607022724431
 30
0.0
 40
14.49582470856614
 50
251.0887820115058
 51
288.91121798849417
  0
ARC
  5
4A1
  8
0
 10
196.10556176922299
 20
75.761364373838461
 30
0.0
 40
5.4891731505529524
 50
193.056774052121
 51
346.94322594787911
  0
ARC
  5
4A2
  8
0
 10
200.9657482486756
 20
74.634228130456336
 30
0.0
 40
0.5
 50
346.94322594787911
 51
108.9112179884942
  0
ARC
  5
4A3
  8
0
 10
191.24537528977061
 20
74.634228130456307
 30
0.0
 40
0.5
 50
71.088782011505771
 51
193.056774052121
  0
LINE
  5
4A4
  8
2
 10
195.60556176922299
 20
103.0849665172515
 30
0.0
 11
189.622682726221
 21
113.0564315889216
 31
0.0
  0
LINE
  5
4A5
  8
1
 10
184.60556176922299
 20
94.08496651725153
 30
0.0
 11
223.60556176922299
 21
94.084966517251587
 31
0.0
  0
LINE
  5
4A6
  8
0
 10
217.805561769223
 20
104.0849665172516
 30
0.0
 11
208.60556176922299
 21
104.0849665172516
 31
0.0
  0
LINE
  5
4A7
  8
0
 10
217.805561769223
 20
84.084966517251587
 30
0.0
 11
208.60556176922299
 21
84.084966517251587
 31
0.0
  0
LINE
  5
4A8
  8
0
 10
218.60556176922299
 20
103.2849665172516
 30
0.0
 11
218.60556176922299
 21
84.884966517251598
 31
0.0
  0
LINE
  5
4A9
  8
0
 10
217.805561769223
 20
84.084966517251587
 30
0.0
 11
217.805561769223
 21
104.0849665172516
 31
0.0
  0
LINE
  5
4AA
  8
2
 10
218.60556176922299
 20
97.084966517251544
 30
0.0
 11
215.60556176922299
 21
94.08496651725153
 31
0.0
  0
LINE
  5
4AB
  8
0
 10
218.60556176922299
 20
84.884966517251598
 30
0.0
 11
217.805561769223
 21
84.084966517251587
 31
0.0
  0
LINE
  5
4AC
  8
2
 10
218.60556176922299
 20
91.084966517251516
 30
0.0
 11
215.60556176922299
 21
94.08496651725153
 31
0.0
  0
LINE
  5
4AD
  8
0
 10
218.60556176922299
 20
103.2849665172516
 30
0.0
 11
217.805561769223
 21
104.0849665172516
 31
0.0
  0
LINE
  5
4AE
  8
2
 10
197.60556176922299
 20
104.0849665172515
 30
0.0
 11
197.60556176922299
 21
84.084966517251559
 31
0.0
  0
LINE
  5
4AF
  8
2
 10
195.60556176922299
 20
85.084966517251559
 30
0.0
 11
195.60556176922299
 21
103.0849665172515
 31
0.0
  0
LINE
  5
4B3
  8
2
 10
195.60556176922299
 20
85.084966517251559
 30
0.0
 11
197.60556176922299
 21
85.084966517251559
 31
0.0
  0
LINE
  5
4B5
  8
2
 10
198.60556176922299
 20
83.084966517251544
 30
0.0
 11
208.60556176922299
 21
83.084966517251544
 31
0.0
  0
LINE
  5
4B6
  8
0
 10
202.60556176922299
 20
79.454341105657562
 30
0.0
 11
208.1578260008568
 21
80.037907591716447
 31
0.0
  0
LINE
  5
4B7
  8
0
 10
208.60556176922299
 20
80.535168539400587
 30
0.0
 11
208.60556176922299
 21
107.6347644951025
 31
0.0
  0
ARC
  5
4B8
  8
0
 10
208.1055617692229
 20
80.535168539400587
 30
0.0
 40
0.5
 50
276.00000000000011
 51
0.0
  0
LINE
  5
4B9
  8
2
 10
197.60556176922299
 20
84.084966517251559
 30
0.0
 11
198.60556176922299
 21
84.084966517251559
 31
0.0
  0
LINE
  5
4BA
  8
2
 10
198.60556176922299
 20
84.084966517251559
 30
0.0
 11
198.60556176922299
 21
83.084966517251544
 31
0.0
  0
LINE
  5
4C2
  8
2
 10
195.60556176922299
 20
103.0849665172515
 30
0.0
 11
197.60556176922299
 21
103.0849665172515
 31
0.0
  0
LINE
  5
4C6
  8
2
 10
198.60556176922299
 20
105.0849665172515
 30
0.0
 11
208.60556176922299
 21
105.0849665172515
 31
0.0
  0
LINE
  5
4C7
  8
0
 10
202.60556176922299
 20
108.7155919288455
 30
0.0
 11
208.15782600085689
 21
108.1320254427867
 31
0.0
  0
ARC
  5
4C8
  8
0
 10
208.10556176922299
 20
107.6347644951025
 30
0.0
 40
0.5
 50
0.0
 51
83.999999999999929
  0
LINE
  5
4C9
  8
2
 10
198.60556176922299
 20
104.0849665172515
 30
0.0
 11
198.60556176922299
 21
105.0849665172515
 31
0.0
  0
LINE
  5
4CA
  8
2
 10
197.60556176922299
 20
104.0849665172515
 30
0.0
 11
198.60556176922299
 21
104.0849665172515
 31
0.0
  0
ARC
  5
4CE
  8
0
 10
196.10556176922299
 20
99.349326011778658
 30
0.0
 40
14.49582470856614
 50
71.088782011505771
 51
108.9112179884942
  0
ARC
  5
4CF
  8
0
 10
196.10556176922299
 20
112.4085686606646
 30
0.0
 40
5.4891731505529524
 50
13.05677405212098
 51
166.943225947879
  0
ARC
  5
4D0
  8
0
 10
196.10556176922299
 20
112.5849665172516
 30
0.0
 40
6.5
 50
0.0
 51
180.0
  0
ARC
  5
4D1
  8
0
 10
200.96574824867551
 20
113.5357049040468
 30
0.0
 40
0.5
 50
251.0887820115058
 51
13.05677405212257
  0
ARC
  5
4D2
  8
0
 10
191.24537528977049
 20
113.5357049040468
 30
0.0
 40
0.5
 50
166.943225947879
 51
288.91121798849417
  0
POLYLINE
  5
4DD
  8
0
 10
196.10556176923825
 20
101.11675727384034
 30
0.0
 66
     1
 70
     8
  0
VERTEX
  8
0
  5
626
 10
196.106
 20
101.117
 30
0.000000
  70
    32
  0
VERTEX
  8
0
  5
627
 10
195.837
 20
101.108
 30
0.000000
  70
    32
  0
VERTEX
  8
0
  5
628
 10
195.569
 20
101.083
 30
0.000000
  70
    32
  0
VERTEX
  8
0
  5
629
 10
195.302
 20
101.041
 30
0.000000
  70
    32
  0
VERTEX
  8
0
  5
62A
 10
195.037
 20
100.982
 30
0.000000
  70
    32
  0
VERTEX
  8
0
  5
62B
 10
194.775
 20
100.906
 30
0.000000
  70
    32
  0
VERTEX
  8
0
  5
62C
 10
194.516
 20
100.814
 30
0.000000
  70
    32
  0
VERTEX
  8
0
  5
62D
 10
194.260
 20
100.706
 30
0.000000
  70
    32
  0
VERTEX
  8
0
  5
62E
 10
194.010
 20
100.581
 30
0.000000
  70
    32
  0
VERTEX
  8
0
  5
62F
 10
193.764
 20
100.442
 30
0.000000
  70
    32
  0
VERTEX
  8
0
  5
630
 10
193.524
 20
100.286
 30
0.000000
  70
    32
  0
VERTEX
  8
0
  5
631
 10
193.290
 20
100.116
 30
0.000000
  70
    32
  0
VERTEX
  8
0
  5
632
 10
193.063
 20
99.9317
 30
0.000000
  70
    32
  0
VERTEX
  8
0
  5
633
 10
192.843
 20
99.7330
 30
0.000000
  70
    32
  0
VERTEX
  8
0
  5
634
 10
192.631
 20
99.5206
 30
0.000000
  70
    32
  0
VERTEX
  8
0
  5
635
 10
192.427
 20
99.2952
 30
0.000000
  70
    32
  0
VERTEX
  8
0
  5
636
 10
192.233
 20
99.0572
 30
0.000000
  70
    32
  0
VERTEX
  8
0
  5
637
 10
192.047
 20
98.8072
 30
0.000000
  70
    32
  0
VERTEX
  8
0
  5
638
 10
191.872
 20
98.5459
 30
0.000000
  70
    32
  0
VERTEX
  8
0
  5
639
 10
191.706
 20
98.2738
 30
0.000000
  70
    32
  0
VERTEX
  8
0
  5
63A
 10
191.551
 20
97.9916
 30
0.000000
  70
    32
  0
VERTEX
  8
0
  5
63B
 10
191.408
 20
97.7000
 30
0.000000
  70
    32
  0
VERTEX
  8
0
  5
63C
 10
191.275
 20
97.3997
 30
0.000000
  70
    32
  0
VERTEX
  8
0
  5
63D
 10
191.154
 20
97.0914
 30
0.000000
  70
    32
  0
VERTEX
  8
0
  5
63E
 10
191.045
 20
96.7759
 30
0.000000
  70
    32
  0
VERTEX
  8
0
  5
63F
 10
190.949
 20
96.4539
 30
0.000000
  70
    32
  0
VERTEX
  8
0
  5
640
 10
190.864
 20
96.1262
 30
0.000000
  70
    32
  0
VERTEX
  8
0
  5
641
 10
190.792
 20
95.7936
 30
0.000000
  70
    32
  0
VERTEX
  8
0
  5
642
 10
190.734
 20
95.4568
 30
0.000000
  70
    32
  0
VERTEX
  8
0
  5
643
 10
190.688
 20
95.1167
 30
0.000000
  70
    32
  0
VERTEX
  8
0
  5
644
 10
190.655
 20
94.7742
 30
0.000000
  70
    32
  0
VERTEX
  8
0
  5
645
 10
190.635
 20
94.4300
 30
0.000000
  70
    32
  0
VERTEX
  8
0
  5
646
 10
190.628
 20
94.0850
 30
0.000000
  70
    32
  0
VERTEX
  8
0
  5
647
 10
190.635
 20
93.7399
 30
0.000000
  70
    32
  0
VERTEX
  8
0
  5
648
 10
190.655
 20
93.3957
 30
0.000000
  70
    32
  0
VERTEX
  8
0
  5
649
 10
190.688
 20
93.0532
 30
0.000000
  70
    32
  0
VERTEX
  8
0
  5
64A
 10
190.734
 20
92.7131
 30
0.000000
  70
    32
  0
VERTEX
  8
0
  5
64B
 10
190.792
 20
92.3764
 30
0.000000
  70
    32
  0
VERTEX
  8
0
  5
64C
 10
190.864
 20
92.0437
 30
0.000000
  70
    32
  0
VERTEX
  8
0
  5
64D
 10
190.949
 20
91.7160
 30
0.000000
  70
    32
  0
VERTEX
  8
0
  5
64E
 10
191.045
 20
91.3940
 30
0.000000
  70
    32
  0
VERTEX
  8
0
  5
64F
 10
191.154
 20
91.0785
 30
0.000000
  70
    32
  0
VERTEX
  8
0
  5
650
 10
191.275
 20
90.7702
 30
0.000000
  70
    32
  0
VERTEX
  8
0
  5
651
 10
191.408
 20
90.4699
 30
0.000000
  70
    32
  0
VERTEX
  8
0
  5
652
 10
191.551
 20
90.1783
 30
0.000000
  70
    32
  0
VERTEX
  8
0
  5
653
 10
191.706
 20
89.8961
 30
0.000000
  70
    32
  0
VERTEX
  8
0
  5
654
 10
191.872
 20
89.6240
 30
0.000000
  70
    32
  0
VERTEX
  8
0
  5
655
 10
192.047
 20
89.3627
 30
0.000000
  70
    32
  0
VERTEX
  8
0
  5
656
 10
192.233
 20
89.1127
 30
0.000000
  70
    32
  0
VERTEX
  8
0
  5
657
 10
192.427
 20
88.8748
 30
0.000000
  70
    32
  0
VERTEX
  8
0
  5
658
 10
192.631
 20
88.6493
 30
0.000000
  70
    32
  0
VERTEX
  8
0
  5
659
 10
192.843
 20
88.4370
 30
0.000000
  70
    32
  0
VERTEX
  8
0
  5
65A
 10
193.063
 20
88.2382
 30
0.000000
  70
    32
  0
VERTEX
  8
0
  5
65B
 10
193.290
 20
88.0536
 30
0.000000
  70
    32
  0
VERTEX
  8
0
  5
65C
 10
193.524
 20
87.8835
 30
0.000000
  70
    32
  0
VERTEX
  8
0
  5
65D
 10
193.764
 20
87.7283
 30
0.000000
  70
    32
  0
VERTEX
  8
0
  5
65E
 10
194.010
 20
87.5884
 30
0.000000
  70
    32
  0
VERTEX
  8
0
  5
65F
 10
194.260
 20
87.4642
 30
0.000000
  70
    32
  0
VERTEX
  8
0
  5
660
 10
194.516
 20
87.3560
 30
0.000000
  70
    32
  0
VERTEX
  8
0
  5
661
 10
194.775
 20
87.2639
 30
0.000000
  70
    32
  0
VERTEX
  8
0
  5
662
 10
195.037
 20
87.1883
 30
0.000000
  70
    32
  0
VERTEX
  8
0
  5
663
 10
195.302
 20
87.1293
 30
0.000000
  70
    32
  0
VERTEX
  8
0
  5
664
 10
195.569
 20
87.0870
 30
0.000000
  70
    32
  0
VERTEX
  8
0
  5
665
 10
195.837
 20
87.0616
 30
0.000000
  70
    32
  0
VERTEX
  8
0
  5
666
 10
196.106
 20
87.0532
 30
0.000000
  70
    32
  0
VERTEX
  8
0
  5
667
 10
196.374
 20
87.0616
 30
0.000000
  70
    32
  0
VERTEX
  8
0
  5
668
 10
196.642
 20
87.0870
 30
0.000000
  70
    32
  0
VERTEX
  8
0
  5
669
 10
196.909
 20
87.1293
 30
0.000000
  70
    32
  0
VERTEX
  8
0
  5
66A
 10
197.174
 20
87.1883
 30
0.000000
  70
    32
  0
VERTEX
  8
0
  5
66B
 10
197.436
 20
87.2639
 30
0.000000
  70
    32
  0
VERTEX
  8
0
  5
66C
 10
197.696
 20
87.3560
 30
0.000000
  70
    32
  0
VERTEX
  8
0
  5
66D
 10
197.951
 20
87.4642
 30
0.000000
  70
    32
  0
VERTEX
  8
0
  5
66E
 10
198.202
 20
87.5884
 30
0.000000
  70
    32
  0
VERTEX
  8
0
  5
66F
 10
198.447
 20
87.7283
 30
0.000000
  70
    32
  0
VERTEX
  8
0
  5
670
 10
198.688
 20
87.8835
 30
0.000000
  70
    32
  0
VERTEX
  8
0
  5
671
 10
198.921
 20
88.0536
 30
0.000000
  70
    32
  0
VERTEX
  8
0
  5
672
 10
199.149
 20
88.2382
 30
0.000000
  70
    32
  0
VERTEX
  8
0
  5
673
 10
199.368
 20
88.4370
 30
0.000000
  70
    32
  0
VERTEX
  8
0
  5
674
 10
199.580
 20
88.6493
 30
0.000000
  70
    32
  0
VERTEX
  8
0
  5
675
 10
199.784
 20
88.8748
 30
0.000000
  70
    32
  0
VERTEX
  8
0
  5
676
 10
199.979
 20
89.1127
 30
0.000000
  70
    32
  0
VERTEX
  8
0
  5
677
 10
200.164
 20
89.3627
 30
0.000000
  70
    32
  0
VERTEX
  8
0
  5
678
 10
200.340
 20
89.6240
 30
0.000000
  70
    32
  0
VERTEX
  8
0
  5
679
 10
200.505
 20
89.8961
 30
0.000000
  70
    32
  0
VERTEX
  8
0
  5
67A
 10
200.660
 20
90.1783
 30
0.000000
  70
    32
  0
VERTEX
  8
0
  5
67B
 10
200.804
 20
90.4699
 30
0.000000
  70
    32
  0
VERTEX
  8
0
  5
67C
 10
200.936
 20
90.7702
 30
0.000000
  70
    32
  0
VERTEX
  8
0
  5
67D
 10
201.057
 20
91.0785
 30
0.000000
  70
    32
  0
VERTEX
  8
0
  5
67E
 10
201.166
 20
91.3940
 30
0.000000
  70
    32
  0
VERTEX
  8
0
  5
67F
 10
201.263
 20
91.7160
 30
0.000000
  70
    32
  0
VERTEX
  8
0
  5
680
 10
201.347
 20
92.0437
 30
0.000000
  70
    32
  0
VERTEX
  8
0
  5
681
 10
201.419
 20
92.3764
 30
0.000000
  70
    32
  0
VERTEX
  8
0
  5
682
 10
201.478
 20
92.7131
 30
0.000000
  70
    32
  0
VERTEX
  8
0
  5
683
 10
201.524
 20
93.0532
 30
0.000000
  70
    32
  0
VERTEX
  8
0
  5
684
 10
201.556
 20
93.3957
 30
0.000000
  70
    32
  0
VERTEX
  8
0
  5
685
 10
201.576
 20
93.7399
 30
0.000000
  70
    32
  0
VERTEX
  8
0
  5
686
 10
201.583
 20
94.0850
 30
0.000000
  70
    32
  0
VERTEX
  8
0
  5
687
 10
201.576
 20
94.4300
 30
0.000000
  70
    32
  0
VERTEX
  8
0
  5
688
 10
201.556
 20
94.7742
 30
0.000000
  70
    32
  0
VERTEX
  8
0
  5
689
 10
201.524
 20
95.1167
 30
0.000000
  70
    32
  0
VERTEX
  8
0
  5
68A
 10
201.478
 20
95.4568
 30
0.000000
  70
    32
  0
VERTEX
  8
0
  5
68B
 10
201.419
 20
95.7936
 30
0.000000
  70
    32
  0
VERTEX
  8
0
  5
68C
 10
201.347
 20
96.1262
 30
0.000000
  70
    32
  0
VERTEX
  8
0
  5
68D
 10
201.263
 20
96.4539
 30
0.000000
  70
    32
  0
VERTEX
  8
0
  5
68E
 10
201.166
 20
96.7759
 30
0.000000
  70
    32
  0
VERTEX
  8
0
  5
68F
 10
201.057
 20
97.0914
 30
0.000000
  70
    32
  0
VERTEX
  8
0
  5
690
 10
200.936
 20
97.3997
 30
0.000000
  70
    32
  0
VERTEX
  8
0
  5
691
 10
200.804
 20
97.7000
 30
0.000000
  70
    32
  0
VERTEX
  8
0
  5
692
 10
200.660
 20
97.9916
 30
0.000000
  70
    32
  0
VERTEX
  8
0
  5
693
 10
200.505
 20
98.2738
 30
0.000000
  70
    32
  0
VERTEX
  8
0
  5
694
 10
200.340
 20
98.5459
 30
0.000000
  70
    32
  0
VERTEX
  8
0
  5
695
 10
200.164
 20
98.8072
 30
0.000000
  70
    32
  0
VERTEX
  8
0
  5
696
 10
199.979
 20
99.0572
 30
0.000000
  70
    32
  0
VERTEX
  8
0
  5
697
 10
199.784
 20
99.2952
 30
0.000000
  70
    32
  0
VERTEX
  8
0
  5
698
 10
199.580
 20
99.5206
 30
0.000000
  70
    32
  0
VERTEX
  8
0
  5
699
 10
199.368
 20
99.7330
 30
0.000000
  70
    32
  0
VERTEX
  8
0
  5
69A
 10
199.149
 20
99.9317
 30
0.000000
  70
    32
  0
VERTEX
  8
0
  5
69B
 10
198.921
 20
100.116
 30
0.000000
  70
    32
  0
VERTEX
  8
0
  5
69C
 10
198.688
 20
100.286
 30
0.000000
  70
    32
  0
VERTEX
  8
0
  5
69D
 10
198.447
 20
100.442
 30
0.000000
  70
    32
  0
VERTEX
  8
0
  5
69E
 10
198.202
 20
100.581
 30
0.000000
  70
    32
  0
VERTEX
  8
0
  5
69F
 10
197.951
 20
100.706
 30
0.000000
  70
    32
  0
VERTEX
  8
0
  5
6A0
 10
197.696
 20
100.814
 30
0.000000
  70
    32
  0
VERTEX
  8
0
  5
6A1
 10
197.436
 20
100.906
 30
0.000000
  70
    32
  0
VERTEX
  8
0
  5
6A2
 10
197.174
 20
100.982
 30
0.000000
  70
    32
  0
VERTEX
  8
0
  5
6A3
 10
196.909
 20
101.041
 30
0.000000
  70
    32
  0
VERTEX
  8
0
  5
6A4
 10
196.642
 20
101.083
 30
0.000000
  70
    32
  0
VERTEX
  8
0
  5
6A5
 10
196.374
 20
101.108
 30
0.000000
  70
    32
  0
VERTEX
  8
0
  5
6A6
 10
196.106
 20
101.117
 30
0.000000
  70
    32
  0
SEQEND
  8
0
  5
6A7
  0
TEXT
  5
58D
  8
0
 62
     3
 10
0.0
 20
0.0
 30
0.0
 40
10.0
  1
SK50PA
  7
STANDARD1
  0
ENDSEC
  0
EOF
