  0
SECTION
  2
HEADER
  9
$ACADVER
  1
AC1009
  9
$INSBASE
 10
0.0
 20
0.0
 30
0.0
  9
$EXTMIN
 10
0.0
 20
-2.960436562073669
 30
0.0
  9
$EXTMAX
 10
258.41441191219337
 20
190.860185447221
 30
0.0
  9
$LIMMIN
 10
0.0
 20
0.0
  9
$LIMMAX
 10
385.0
 20
270.0
  9
$ORTHOMODE
 70
     1
  9
$REGENMODE
 70
     1
  9
$FILLMODE
 70
     1
  9
$QTEXTMODE
 70
     0
  9
$MIRRTEXT
 70
     0
  9
$DRAGMODE
 70
     2
  9
$LTSCALE
 40
10.0
  9
$OSMODE
 70
    55
  9
$ATTMODE
 70
     1
  9
$TEXTSIZE
 40
4.0
  9
$TRACEWID
 40
0.05
  9
$TEXTSTYLE
  7
STANDARD
  9
$CLAYER
  8
0
  9
$CELTYPE
  6
BYLAYER
  9
$CECOLOR
 62
   256
  9
$DIMSCALE
 40
1.0
  9
$DIMASZ
 40
3.0
  9
$DIMEXO
 40
1.0
  9
$DIMDLI
 40
6.0
  9
$DIMRND
 40
0.0
  9
$DIMDLE
 40
0.0
  9
$DIMEXE
 40
1.0
  9
$DIMTP
 40
495.0
  9
$DIMTM
 40
0.0
  9
$DIMTXT
 40
3.0
  9
$DIMCEN
 40
0.0
  9
$DIMTSZ
 40
0.0
  9
$DIMTOL
 70
     0
  9
$DIMLIM
 70
     0
  9
$DIMTIH
 70
     0
  9
$DIMTOH
 70
     0
  9
$DIMSE1
 70
     0
  9
$DIMSE2
 70
     0
  9
$DIMTAD
 70
     1
  9
$DIMZIN
 70
     0
  9
$DIMBLK
  1

  9
$DIMASO
 70
     0
  9
$DIMSHO
 70
     0
  9
$DIMPOST
  1

  9
$DIMAPOST
  1

  9
$DIMALT
 70
     0
  9
$DIMALTD
 70
     2
  9
$DIMALTF
 40
25.399999999999999
  9
$DIMLFAC
 40
1.0
  9
$DIMTOFL
 70
     1
  9
$DIMTVP
 40
0.0
  9
$DIMTIX
 70
     1
  9
$DIMSOXD
 70
     0
  9
$DIMSAH
 70
     0
  9
$DIMBLK1
  1

  9
$DIMBLK2
  1

  9
$DIMSTYLE
  2
STANDARD
  9
$DIMCLRD
 70
     0
  9
$DIMCLRE
 70
     0
  9
$DIMCLRT
 70
     0
  9
$DIMTFAC
 40
1.0
  9
$DIMGAP
 40
0.09
  9
$LUNITS
 70
     2
  9
$LUPREC
 70
     4
  9
$SKETCHINC
 40
0.1
  9
$FILLETRAD
 40
0.8
  9
$AUNITS
 70
     0
  9
$AUPREC
 70
     0
  9
$MENU
  1
E:\r13\win\SUPPORT\ACAD
  9
$ELEVATION
 40
0.0
  9
$PELEVATION
 40
0.0
  9
$THICKNESS
 40
0.0
  9
$LIMCHECK
 70
     0
  9
$BLIPMODE
 70
     0
  9
$CHAMFERA
 40
0.5
  9
$CHAMFERB
 40
0.5
  9
$SKPOLY
 70
     0
  9
$TDCREATE
 40
2449920.4263670142
  9
$TDUPDATE
 40
2456598.5012387498
  9
$TDINDWG
 40
0.0102553009
  9
$TDUSRTIMER
 40
0.0102553009
  9
$USRTIMER
 70
     1
  9
$ANGBASE
 50
0.0
  9
$ANGDIR
 70
     0
  9
$PDMODE
 70
     0
  9
$PDSIZE
 40
0.0
  9
$PLINEWID
 40
0.0
  9
$COORDS
 70
     1
  9
$SPLFRAME
 70
     0
  9
$SPLINETYPE
 70
     6
  9
$SPLINESEGS
 70
     8
  9
$ATTDIA
 70
     0
  9
$ATTREQ
 70
     1
  9
$HANDLING
 70
     1
  9
$HANDSEED
  5
27D
  9
$SURFTAB1
 70
     6
  9
$SURFTAB2
 70
     6
  9
$SURFTYPE
 70
     6
  9
$SURFU
 70
     6
  9
$SURFV
 70
     6
  9
$UCSNAME
  2

  9
$UCSORG
 10
0.0
 20
0.0
 30
0.0
  9
$UCSXDIR
 10
1.0
 20
0.0
 30
0.0
  9
$UCSYDIR
 10
0.0
 20
1.0
 30
0.0
  9
$PUCSNAME
  2

  9
$PUCSORG
 10
0.0
 20
0.0
 30
0.0
  9
$PUCSXDIR
 10
1.0
 20
0.0
 30
0.0
  9
$PUCSYDIR
 10
0.0
 20
1.0
 30
0.0
  9
$USERI1
 70
     3
  9
$USERI2
 70
     1
  9
$USERI3
 70
     0
  9
$USERI4
 70
     0
  9
$USERI5
 70
     0
  9
$USERR1
 40
1.0
  9
$USERR2
 40
3.0
  9
$USERR3
 40
3.0
  9
$USERR4
 40
3.0
  9
$USERR5
 40
10.0
  9
$WORLDVIEW
 70
     1
  9
$SHADEDGE
 70
     3
  9
$SHADEDIF
 70
    70
  9
$TILEMODE
 70
     1
  9
$MAXACTVP
 70
    16
  9
$PLIMCHECK
 70
     0
  9
$PEXTMIN
 10
1.0000000000000000E+020
 20
1.0000000000000000E+020
 30
1.0000000000000000E+020
  9
$PEXTMAX
 10
-1.0000000000000000E+020
 20
-1.0000000000000000E+020
 30
-1.0000000000000000E+020
  9
$PLIMMIN
 10
0.0
 20
0.0
  9
$PLIMMAX
 10
12.0
 20
9.0
  9
$UNITMODE
 70
     0
  9
$VISRETAIN
 70
     0
  9
$PLINEGEN
 70
     0
  9
$PSLTSCALE
 70
     0
  0
ENDSEC
  0
SECTION
  2
TABLES
  0
TABLE
  2
VPORT
 70
     1
  0
VPORT
  2
*ACTIVE
 70
     0
 10
0.0
 20
0.0
 11
1.0
 21
1.0
 12
192.49412581440311
 22
174.91677254346851
 13
0.0
 23
0.0
 14
10.0
 24
10.0
 15
10.0
 25
10.0
 16
0.0
 26
0.0
 36
1.0
 17
0.0
 27
0.0
 37
0.0
 40
358.92027899574339
 41
1.7807262569832401
 42
50.0
 43
0.0
 44
0.0
 50
0.0
 51
0.0
 71
     0
 72
   100
 73
     1
 74
     0
 75
     0
 76
     0
 77
     0
 78
     0
  0
ENDTAB
  0
TABLE
  2
LTYPE
 70
     5
  0
LTYPE
  2
CONTINUOUS
 70
     0
  3
Solid Line
 72
    65
 73
     0
 40
0.0
  0
LTYPE
  2
CENTER
 70
     0
  3
____ _ ____ _ ____ _ ____ _ ____ _ ____ _ ____
 72
    65
 73
     4
 40
2.0
 49
1.25
 49
-0.25
 49
0.25
 49
-0.25
  0
LTYPE
  2
HIDDEN
 70
     0
  3
_ _ _ _ _ _ _ _ _ _ _ _ _ _ _ _ _ _ _ _ _ _ _
 72
    65
 73
     2
 40
0.375
 49
0.25
 49
-0.125
  0
LTYPE
  2
PHANTOM
 70
     0
  3
_____ _ _ _____ _ _ _____ _ _ _____ _ _ ____
 72
    65
 73
     6
 40
2.5
 49
1.25
 49
-0.25
 49
0.25
 49
-0.25
 49
0.25
 49
-0.25
  0
LTYPE
  2
PHANTOM2
 70
     0
  3
___ _ _ ___ _ _ ___ _ _ ___ _ _
 72
    65
 73
     6
 40
1.25
 49
0.625
 49
-0.125
 49
0.125
 49
-0.125
 49
0.125
 49
-0.125
  0
ENDTAB
  0
TABLE
  2
LAYER
 70
     1
  0
LAYER
  2
0
 70
     0
 62
     7
  6
CONTINUOUS
  0
ENDTAB
  0
TABLE
  2
STYLE
 70
     2
  0
STYLE
  2
STANDARD
 70
     0
 40
0.0
 41
1.0
 50
0.0
 71
     0
 42
4.0
  3
simplex
  4
bigfont
  0
STYLE
  2
STANDARD1
 70
     0
 40
0.0
 41
1.0
 50
0.0
 71
     0
 42
3.0
  3
txt
  4

  0
ENDTAB
  0
TABLE
  2
VIEW
 70
     0
  0
ENDTAB
  0
TABLE
  2
UCS
 70
     0
  0
ENDTAB
  0
TABLE
  2
APPID
 70
     3
  0
APPID
  2
ACAD
 70
     0
  0
APPID
  2
ACAD_MLEADERVER
 70
     0
  0
APPID
  2
ACAD_NAV_VCDISPLAY
 70
     0
  0
ENDTAB
  0
TABLE
  2
DIMSTYLE
 70
     1
  0
DIMSTYLE
  2
STANDARD
 70
     0
  3

  4

  5

  6

  7

 40
1.0
 41
0.18
 42
0.0625
 43
0.38
 44
0.18
 45
0.0
 46
0.0
 47
0.0
 48
0.0
140
0.18
141
0.09
142
0.0
143
25.399999999999999
144
1.0
145
0.0
146
1.0
147
0.09
 71
     0
 72
     0
 73
     1
 74
     1
 75
     0
 76
     0
 77
     0
 78
     0
170
     0
171
     2
172
     0
173
     0
174
     0
175
     0
176
     0
177
     0
178
     0
  0
ENDTAB
  0
ENDSEC
  0
SECTION
  2
BLOCKS
  0
BLOCK
  8
0
  2
$MODEL_SPACE
 70
     0
 10
0.0
 20
0.0
 30
0.0
  3
$MODEL_SPACE
  1

  0
ENDBLK
  5
142
  8
0
  0
BLOCK
 67
     1
  8
0
  2
$PAPER_SPACE
 70
     0
 10
0.0
 20
0.0
 30
0.0
  3
$PAPER_SPACE
  1

  0
ENDBLK
  5
140
 67
     1
  8
0
  0
ENDSEC
  0
SECTION
  2
ENTITIES
  0
ARC
  5
1D
  8
0
  6
CONTINUOUS
 62
     7
 10
148.89258862783501
 20
134.36018544935891
 30
0.0
 40
6.0228000000000002
 50
129.28547667131551
 51
230.71453262373529
  0
ARC
  5
1E
  8
0
  6
CONTINUOUS
 62
     7
 10
63.147088627834371
 20
134.36018544508309
 30
0.0
 40
6.0228000000000002
 50
309.28547667131562
 51
50.714532623735373
  0
CIRCLE
  5
1F
  8
0
  6
CONTINUOUS
 62
     7
 10
106.0198386278347
 20
134.360185447221
 30
0.0
 40
17.500000000000011
  0
CIRCLE
  5
20
  8
0
  6
CONTINUOUS
 62
     7
 10
106.0198386278347
 20
134.360185447221
 30
0.0
 40
7.5000000000000284
  0
CIRCLE
  5
21
  8
0
  6
PHANTOM
 62
     3
 10
106.0198386278347
 20
134.360185447221
 30
0.0
 40
42.804999999999993
  0
LINE
  5
24
  8
0
  6
CENTER
 62
     1
 10
106.0198386278347
 20
190.860185447221
 30
0.0
 11
106.0198386278347
 21
77.860185447221028
 31
0.0
  0
ARC
  5
27
  8
0
  6
CONTINUOUS
 62
     7
 10
68.893076042195659
 20
113.8771369748173
 30
0.0
 40
10.00963419551986
 50
280.75850699752749
 51
299.0213810439933
  0
ARC
  5
28
  8
0
  6
CONTINUOUS
 62
     7
 10
58.757518006263894
 20
119.78515088063151
 30
0.0
 40
15.55082650553156
 50
318.12147610457743
 51
334.99975774093321
  0
ARC
  5
29
  8
0
  6
CONTINUOUS
 62
     7
 10
67.39282559739857
 20
115.7583963690424
 30
0.0
 40
6.0228000000000002
 50
334.99976238560129
 51
76.428818338021088
  0
LINE
  5
2A
  8
0
  6
CENTER
 62
     1
 10
49.519838627834702
 20
134.360185447221
 30
0.0
 11
162.5198386278347
 21
134.360185447221
 31
0.0
  0
ARC
  5
2B
  8
0
  6
CONTINUOUS
 62
     7
 10
77.788861063339667
 20
102.7221753870699
 30
0.0
 40
10.00963419551986
 50
138.12147610457731
 51
156.3843501510438
  0
ARC
  5
2C
  8
0
  6
CONTINUOUS
 62
     7
 10
106.0198386278347
 20
134.360185447221
 30
0.0
 40
46.5
 50
216.45234073540641
 51
220.69051640886809
  0
ARC
  5
2D
  8
0
  6
CONTINUOUS
 62
     7
 10
106.0198386278347
 20
134.360185447221
 30
0.0
 40
46.5
 50
190.73805502112069
 51
194.9762306945824
  0
ARC
  5
2E
  8
0
  6
CONTINUOUS
 62
     7
 10
65.157042828667088
 20
106.49640066071061
 30
0.0
 40
15.55082650553155
 50
76.42881549222227
 51
93.307095329708986
  0
ARC
  5
2F
  8
0
  6
CONTINUOUS
 62
     7
 10
63.682519712436907
 20
132.01429502583599
 30
0.0
 40
10.00963419551986
 50
255.0442212832418
 51
273.30709532970752
  0
ARC
  5
30
  8
0
  6
CONTINUOUS
 62
     7
 10
57.114088627457392
 20
141.73488544478229
 30
0.0
 40
15.55082650553156
 50
292.4071903902917
 51
309.28547202664743
  0
ARC
  5
31
  8
0
  6
CONTINUOUS
 62
     7
 10
66.857388628635704
 20
118.1042854452683
 30
0.0
 40
10.00963419551986
 50
112.4071903902916
 51
130.67006443675811
  0
ARC
  5
32
  8
0
  6
CONTINUOUS
 62
     7
 10
132.75056103214541
 20
100.8409197585725
 30
0.0
 40
6.0228000000000002
 50
77.856905242744133
 51
179.28596119516391
  0
ARC
  5
33
  8
0
  6
CONTINUOUS
 62
     7
 10
130.5826342272141
 20
99.796897884311875
 30
0.0
 40
10.00963419551986
 50
215.26433324743451
 51
233.527207293901
  0
ARC
  5
34
  8
0
  6
CONTINUOUS
 62
     7
 10
106.0198386278347
 20
134.360185447221
 30
0.0
 40
46.5
 50
293.5951978782636
 51
297.83337355172529
  0
ARC
  5
35
  8
0
  6
CONTINUOUS
 62
     7
 10
124.09219266993389
 20
88.321629838574324
 30
0.0
 40
15.55082650553155
 50
153.57167263507941
 51
170.44995247256611
  0
ARC
  5
36
  8
0
  6
CONTINUOUS
 62
     7
 10
87.94748459032698
 20
88.321629836771905
 30
0.0
 40
15.55082650553156
 50
9.5500475331488097
 51
26.42832916950454
  0
ARC
  5
37
  8
0
  6
CONTINUOUS
 62
     7
 10
81.457043031902273
 20
99.796897881862151
 30
0.0
 40
10.00963419551986
 50
306.47279271181321
 51
324.73566675827902
  0
ARC
  5
38
  8
0
  6
CONTINUOUS
 62
     7
 10
106.0198386278347
 20
134.360185447221
 30
0.0
 40
46.5
 50
242.16662644969219
 51
246.4048021231539
  0
ARC
  5
39
  8
0
  6
CONTINUOUS
 62
     7
 10
106.0198386278347
 20
134.360185447221
 30
0.0
 40
46.5
 50
267.88091216397788
 51
272.11908783743962
  0
ARC
  5
3A
  8
0
  6
CONTINUOUS
 62
     7
 10
113.15370432753571
 20
92.562341782841926
 30
0.0
 40
10.00963419551986
 50
189.55004753314881
 51
207.81292157961531
  0
ARC
  5
3B
  8
0
  6
CONTINUOUS
 62
     7
 10
98.885972932302266
 20
92.562341782130474
 30
0.0
 40
10.00963419551986
 50
332.18707842609899
 51
350.44995247256469
  0
ARC
  5
3C
  8
0
  6
CONTINUOUS
 62
     7
 10
96.479754258643339
 20
92.562344799751685
 30
0.0
 40
6.0228000000000002
 50
26.42833381417271
 51
127.85738976659241
  0
ARC
  5
3D
  8
0
  6
CONTINUOUS
 62
     7
 10
79.289116226866966
 20
100.8409197559065
 30
0.0
 40
6.0228000000000002
 50
0.7140480998869931
 51
102.1431040523067
  0
ARC
  5
3E
  8
0
  6
CONTINUOUS
 62
     7
 10
69.761829618496392
 20
100.7221806634623
 30
0.0
 40
15.55082650553156
 50
343.83576181886309
 51
0.7140434552188223
  0
ARC
  5
3F
  8
0
  6
CONTINUOUS
 62
     7
 10
94.311824834910297
 20
93.606361236014294
 30
0.0
 40
10.00963419551986
 50
163.83576181886309
 51
182.09863586532961
  0
ARC
  5
40
  8
0
  6
CONTINUOUS
 62
     7
 10
81.293374886468953
 20
91.526080180502049
 30
0.0
 40
15.55082650553155
 50
102.14310120650801
 51
119.02138104399469
  0
ARC
  5
41
  8
0
  6
CONTINUOUS
 62
     7
 10
102.3270863384253
 20
85.039579574193681
 30
0.0
 40
15.55082650553155
 50
127.8573869207937
 51
144.73566675828039
  0
ARC
  5
42
  8
0
  6
CONTINUOUS
 62
     7
 10
115.5599230011946
 20
92.562344800703158
 30
0.0
 40
6.0228000000000002
 50
52.142619528458418
 51
153.5716754808781
  0
ARC
  5
43
  8
0
  6
CONTINUOUS
 62
     7
 10
109.7125909221629
 20
85.039579574561984
 30
0.0
 40
15.55082650553156
 50
35.264333247434521
 51
52.142614883790252
  0
ARC
  5
44
  8
0
  6
CONTINUOUS
 62
     7
 10
142.2778476405278
 20
100.7221806670784
 30
0.0
 40
15.55082650553155
 50
179.2859583493651
 51
196.1642381868518
  0
ARC
  5
45
  8
0
  6
CONTINUOUS
 62
     7
 10
117.7278524248235
 20
93.606361237181986
 30
0.0
 40
10.00963419551986
 50
357.9013641403846
 51
16.164238186850369
  0
ARC
  5
46
  8
0
  6
CONTINUOUS
 62
     7
 10
144.646851660126
 20
115.75839637289479
 30
0.0
 40
6.0228000000000002
 50
103.5711909570298
 51
205.0002469094496
  0
ARC
  5
47
  8
0
  6
CONTINUOUS
 62
     7
 10
153.28215925085911
 20
119.7851508853451
 30
0.0
 40
15.55082650553155
 50
205.00024406365091
 51
221.87852390113761
  0
ARC
  5
48
  8
0
  6
CONTINUOUS
 62
     7
 10
143.14660121551651
 20
113.87713697852
 30
0.0
 40
10.00963419551986
 50
240.97861896172029
 51
259.24149300818681
  0
ARC
  5
49
  8
0
  6
CONTINUOUS
 62
     7
 10
130.7463023734723
 20
91.526080182968116
 30
0.0
 40
15.55082650553156
 50
60.97861896172023
 51
77.856900598075967
  0
ARC
  5
4A
  8
0
  6
CONTINUOUS
 62
     7
 10
134.25081619548499
 20
102.72217538988539
 30
0.0
 40
10.00963419551986
 50
23.61564985467033
 51
41.878523901136091
  0
ARC
  5
4B
  8
0
  6
CONTINUOUS
 62
     7
 10
106.0198386278347
 20
134.360185447221
 30
0.0
 40
46.5
 50
319.30948359254933
 51
323.54765926601101
  0
ARC
  5
4C
  8
0
  6
CONTINUOUS
 62
     7
 10
154.92558862747649
 20
141.7348854496598
 30
0.0
 40
15.55082650553155
 50
230.7145297779366
 51
247.59280961542331
  0
ARC
  5
4D
  8
0
  6
CONTINUOUS
 62
     7
 10
146.88263442978121
 20
106.49640066478599
 30
0.0
 40
15.55082650553156
 50
86.692904676005938
 51
103.5711863123617
  0
ARC
  5
4E
  8
0
  6
CONTINUOUS
 62
     7
 10
106.0198386278347
 20
134.360185447221
 30
0.0
 40
46.5
 50
345.02376930683499
 51
349.26194498029668
  0
ARC
  5
4F
  8
0
  6
CONTINUOUS
 62
     7
 10
148.3571575434664
 20
132.01429503005841
 30
0.0
 40
10.00963419551986
 50
266.69290467600598
 51
284.95577872247242
  0
ARC
  5
50
  8
0
  6
CONTINUOUS
 62
     7
 10
145.1822886286549
 20
118.1042854491741
 30
0.0
 40
10.00963419551986
 50
49.329935568956039
 51
67.5928096154218
  0
ARC
  5
51
  8
0
  6
CONTINUOUS
 62
     7
 10
58.757518004810258
 20
148.93522000909681
 30
0.0
 40
15.55082650553155
 50
25.00024406365085
 51
41.878523901137562
  0
ARC
  5
52
  8
0
  6
CONTINUOUS
 62
     7
 10
67.392825595543357
 20
152.96197452154721
 30
0.0
 40
6.0228000000000002
 50
283.57119095702978
 51
25.00024690944965
  0
ARC
  5
53
  8
0
  6
CONTINUOUS
 62
     7
 10
68.893076040152835
 20
154.8432339159219
 30
0.0
 40
10.00963419551986
 50
60.978618961720223
 51
79.241493008186737
  0
ARC
  5
54
  8
0
  6
CONTINUOUS
 62
     7
 10
106.0198386278347
 20
134.360185447221
 30
0.0
 40
46.5
 50
165.02376930683499
 51
169.2619449802967
  0
ARC
  5
55
  8
0
  6
CONTINUOUS
 62
     7
 10
57.114088628192867
 20
126.9854854447822
 30
0.0
 40
15.55082650553155
 50
50.714529777936569
 51
67.592809615423263
  0
ARC
  5
56
  8
0
  6
CONTINUOUS
 62
     7
 10
66.857388627014473
 20
150.61608544526791
 30
0.0
 40
10.00963419551986
 50
229.3299355689561
 51
247.5928096154218
  0
ARC
  5
57
  8
0
  6
CONTINUOUS
 62
     7
 10
65.157042825888169
 20
162.223970229656
 30
0.0
 40
15.55082650553156
 50
266.69290467600598
 51
283.5711863123617
  0
ARC
  5
58
  8
0
  6
CONTINUOUS
 62
     7
 10
63.682519712202939
 20
136.70607586438359
 30
0.0
 40
10.00963419551986
 50
86.692904676005938
 51
104.9557787224724
  0
ARC
  5
59
  8
0
  6
CONTINUOUS
 62
     7
 10
77.788861060184331
 20
165.99819550455661
 30
0.0
 40
10.00963419551986
 50
203.61564985467029
 51
221.87852390113611
  0
ARC
  5
5A
  8
0
  6
CONTINUOUS
 62
     7
 10
106.0198386278347
 20
134.360185447221
 30
0.0
 40
46.5
 50
139.3094835925493
 51
143.54765926601101
  0
ARC
  5
5B
  8
0
  6
CONTINUOUS
 62
     7
 10
132.75056102880239
 20
167.87945113853539
 30
0.0
 40
6.0228000000000002
 50
180.7140480998869
 51
282.1431040523068
  0
ARC
  5
5C
  8
0
  6
CONTINUOUS
 62
     7
 10
124.0921926653424
 20
180.39874105767009
 30
0.0
 40
15.55082650553156
 50
189.55004753314881
 51
206.42832916950451
  0
ARC
  5
5D
  8
0
  6
CONTINUOUS
 62
     7
 10
87.947484585735424
 20
180.3987410558677
 30
0.0
 40
15.55082650553155
 50
333.57167263507938
 51
350.44995247256622
  0
ARC
  5
5E
  8
0
  6
CONTINUOUS
 62
     7
 10
96.479754254474727
 20
176.15802609373881
 30
0.0
 40
6.0228000000000002
 50
232.1426195284584
 51
333.57167548087818
  0
ARC
  5
5F
  8
0
  6
CONTINUOUS
 62
     7
 10
106.0198386278347
 20
134.360185447221
 30
0.0
 40
46.5
 50
113.5951978782636
 51
117.8333735517252
  0
ARC
  5
60
  8
0
  6
CONTINUOUS
 62
     7
 10
79.28911622352399
 20
167.87945113586949
 30
0.0
 40
6.0228000000000002
 50
257.85690524274418
 51
359.28596119516402
  0
ARC
  5
61
  8
0
  6
CONTINUOUS
 62
     7
 10
81.293374882197014
 20
177.19429071147391
 30
0.0
 40
15.55082650553156
 50
240.97861896172029
 51
257.85690059807598
  0
ARC
  5
62
  8
0
  6
CONTINUOUS
 62
     7
 10
69.761829615141551
 20
167.99819022736361
 30
0.0
 40
15.55082650553155
 50
359.28595834936522
 51
16.164238186851851
  0
ARC
  5
63
  8
0
  6
CONTINUOUS
 62
     7
 10
94.311824830845808
 20
175.11400965726
 30
0.0
 40
10.00963419551986
 50
177.9013641403846
 51
196.16423818685041
  0
ARC
  5
64
  8
0
  6
CONTINUOUS
 62
     7
 10
102.3270863335064
 20
183.68079131988
 30
0.0
 40
15.55082650553156
 50
215.26433324743451
 51
232.14261488379029
  0
ARC
  5
65
  8
0
  6
CONTINUOUS
 62
     7
 10
81.457043028455203
 20
168.9234730101301
 30
0.0
 40
10.00963419551986
 50
35.264333247434521
 51
53.527207293901
  0
ARC
  5
66
  8
0
  6
CONTINUOUS
 62
     7
 10
115.55992299702601
 20
176.15802609469031
 30
0.0
 40
6.0228000000000002
 50
206.4283338141727
 51
307.85738976659252
  0
ARC
  5
67
  8
0
  6
CONTINUOUS
 62
     7
 10
106.0198386278347
 20
134.360185447221
 30
0.0
 40
46.5
 50
62.166626449692153
 51
66.404802123153857
  0
ARC
  5
68
  8
0
  6
CONTINUOUS
 62
     7
 10
109.7125909172441
 20
183.68079132024829
 30
0.0
 40
15.55082650553155
 50
307.85738692079377
 51
324.73566675828039
  0
ARC
  5
69
  8
0
  6
CONTINUOUS
 62
     7
 10
130.58263422376709
 20
168.92347301257979
 30
0.0
 40
10.00963419551986
 50
126.4727927118131
 51
144.735666758279
  0
ARC
  5
6A
  8
0
  6
CONTINUOUS
 62
     7
 10
142.27784763717301
 20
167.9981902309797
 30
0.0
 40
15.55082650553156
 50
163.83576181886309
 51
180.71404345521881
  0
ARC
  5
6B
  8
0
  6
CONTINUOUS
 62
     7
 10
117.72785242075911
 20
175.1140096584277
 30
0.0
 40
10.00963419551986
 50
343.83576181886309
 51
2.0986358653295731
  0
ARC
  5
6C
  8
0
  6
CONTINUOUS
 62
     7
 10
106.0198386278347
 20
134.360185447221
 30
0.0
 40
46.5
 50
87.880912163977854
 51
92.119087837439565
  0
ARC
  5
6D
  8
0
  6
CONTINUOUS
 62
     7
 10
113.15370432336709
 20
176.1580291123116
 30
0.0
 40
10.00963419551986
 50
152.18707842609891
 51
170.4499524725646
  0
ARC
  5
6E
  8
0
  6
CONTINUOUS
 62
     7
 10
98.885972928133668
 20
176.15802911160009
 30
0.0
 40
10.00963419551986
 50
9.5500475331488097
 51
27.812921579615288
  0
ARC
  5
6F
  8
0
  6
CONTINUOUS
 62
     7
 10
153.28215924940551
 20
148.93522001381041
 30
0.0
 40
15.55082650553156
 50
138.1214761045774
 51
154.99975774093309
  0
ARC
  5
70
  8
0
  6
CONTINUOUS
 62
     7
 10
146.8826344270023
 20
162.22397023373131
 30
0.0
 40
15.55082650553155
 50
256.42881549222233
 51
273.307095329709
  0
ARC
  5
71
  8
0
  6
CONTINUOUS
 62
     7
 10
154.92558862821201
 20
126.98548544965971
 30
0.0
 40
15.55082650553156
 50
112.4071903902917
 51
129.28547202664731
  0
ARC
  5
72
  8
0
  6
CONTINUOUS
 62
     7
 10
144.6468516582708
 20
152.9619745253996
 30
0.0
 40
6.0228000000000002
 50
154.9997623856012
 51
256.42881833802102
  0
ARC
  5
73
  8
0
  6
CONTINUOUS
 62
     7
 10
106.0198386278347
 20
134.360185447221
 30
0.0
 40
46.5
 50
10.73805502112071
 51
14.97623069458243
  0
ARC
  5
74
  8
0
  6
CONTINUOUS
 62
     7
 10
145.1822886270337
 20
150.61608544917371
 30
0.0
 40
10.00963419551986
 50
292.4071903902917
 51
310.67006443675808
  0
ARC
  5
75
  8
0
  6
CONTINUOUS
 62
     7
 10
148.3571575432324
 20
136.70607586860601
 30
0.0
 40
10.00963419551986
 50
75.044221283241754
 51
93.307095329707494
  0
ARC
  5
76
  8
0
  6
CONTINUOUS
 62
     7
 10
143.1466012134737
 20
154.84323391962471
 30
0.0
 40
10.00963419551986
 50
100.7585069975275
 51
119.0213810439932
  0
ARC
  5
77
  8
0
  6
CONTINUOUS
 62
     7
 10
130.74630236920041
 20
177.19429071393989
 30
0.0
 40
15.55082650553155
 50
282.14310120650799
 51
299.02138104399472
  0
ARC
  5
78
  8
0
  6
CONTINUOUS
 62
     7
 10
134.25081619232969
 20
165.99819550737209
 30
0.0
 40
10.00963419551986
 50
318.12147610457743
 51
336.38435015104392
  0
ARC
  5
79
  8
0
  6
CONTINUOUS
 62
     7
 10
106.0198386278347
 20
134.360185447221
 30
0.0
 40
46.5
 50
36.45234073540643
 51
40.690516408868142
  0
LINE
  5
7A
  8
0
  6
HIDDEN
 62
     2
 10
248.1043115774641
 20
150.86018544722131
 30
0.0
 11
248.1043115774641
 21
117.8601854472206
 31
0.0
  0
LINE
  5
7D
  8
0
  6
HIDDEN
 62
     2
 10
237.10431157746419
 20
117.8601854472206
 30
0.0
 11
237.10431157746419
 21
150.86018544722131
 31
0.0
  0
LINE
  5
7E
  8
0
  6
CONTINUOUS
 62
     7
 10
248.45431157746361
 20
97.360178247137824
 30
0.0
 11
248.45431157746361
 21
171.36019232426429
 31
0.0
  0
LINE
  5
7F
  8
0
  6
CONTINUOUS
 62
     7
 10
236.7543115774636
 20
171.36018814461929
 30
0.0
 11
236.7543115774636
 21
97.360187579701645
 31
0.0
  0
LINE
  5
80
  8
0
  6
CENTER
 62
     1
 10
242.60431157746419
 20
77.860185447221014
 30
0.0
 11
242.60431157746419
 21
190.860185447221
 31
0.0
  0
LINE
  5
8E
  8
0
  6
CENTER
 62
     1
 10
254.5405546701966
 20
91.555185447221035
 30
0.0
 11
230.66806848473169
 21
91.555185447221035
 31
0.0
  0
LINE
  5
8F
  8
0
  6
CENTER
 62
     1
 10
258.41441191219337
 20
134.360185447221
 30
0.0
 11
226.79421124273509
 21
134.360185447221
 31
0.0
  0
ARC
  5
90
  8
0
  6
CONTINUOUS
 62
     7
 10
257.05431157746352
 20
97.360185447221028
 30
0.0
 40
20.300000000000001
 50
180.0000076132778
 51
207.9032728241705
  0
ARC
  5
91
  8
0
  6
CONTINUOUS
 62
     7
 10
228.15431157746491
 20
97.360185447221028
 30
0.0
 40
20.300000000000001
 50
332.09672717582953
 51
359.9999805898741
  0
LINE
  5
92
  8
0
  6
CONTINUOUS
 62
     7
 10
246.09421124273601
 20
87.860185447221014
 30
0.0
 11
239.11441191219239
 21
87.860185447221014
 31
0.0
  0
LINE
  5
93
  8
0
  6
HIDDEN
 62
     2
 10
236.7543115774636
 20
116.860185447221
 30
0.0
 11
248.45431157746361
 21
116.860185447221
 31
0.0
  0
ARC
  5
94
  8
0
  6
HIDDEN
 62
     2
 10
238.10431157746419
 20
117.8601854472206
 30
0.0
 40
1.0
 50
180.00000000000011
 51
270.0
  0
ARC
  5
95
  8
0
  6
HIDDEN
 62
     2
 10
238.10431157746419
 20
125.8601854472202
 30
0.0
 40
1.0
 50
90.000000000000028
 51
179.99999999999989
  0
LINE
  5
96
  8
0
  6
CENTER
 62
     1
 10
247.1345097589159
 20
121.8601854472204
 30
0.0
 11
238.07411339601251
 21
121.8601854472204
 31
0.0
  0
ARC
  5
97
  8
0
  6
HIDDEN
 62
     2
 10
247.10431157746419
 20
117.8601854472206
 30
0.0
 40
1.0
 50
270.0
 51
0.0
  0
LINE
  5
98
  8
0
  6
HIDDEN
 62
     2
 10
238.10431157746419
 20
126.8601854472202
 30
0.0
 11
247.10431157746419
 21
126.8601854472202
 31
0.0
  0
ARC
  5
99
  8
0
  6
HIDDEN
 62
     2
 10
247.10431157746419
 20
125.8601854472202
 30
0.0
 40
1.0
 50
0.0
 51
90.000000000000028
  0
LINE
  5
9A
  8
0
  6
CENTER
 62
     1
 10
254.5405546701966
 20
177.16518544722101
 30
0.0
 11
230.66806848473169
 21
177.16518544722101
 31
0.0
  0
ARC
  5
9B
  8
0
  6
CONTINUOUS
 62
     7
 10
228.15431157746491
 20
171.360185447221
 30
0.0
 40
20.300000000000001
 50
0.0000194101259147
 51
27.903272824170489
  0
ARC
  5
9C
  8
0
  6
CONTINUOUS
 62
     7
 10
257.05431157746352
 20
171.360185447221
 30
0.0
 40
20.300000000000001
 50
152.0967271758295
 51
179.9999923867222
  0
LINE
  5
9D
  8
0
  6
HIDDEN
 62
     2
 10
236.7543115774636
 20
151.86018544722091
 30
0.0
 11
248.45431157746361
 21
151.860185447221
 31
0.0
  0
ARC
  5
9E
  8
0
  6
HIDDEN
 62
     2
 10
238.10431157746419
 20
142.8601854472218
 30
0.0
 40
1.0
 50
180.00000000000011
 51
270.0
  0
ARC
  5
9F
  8
0
  6
HIDDEN
 62
     2
 10
238.10431157746419
 20
150.86018544722131
 30
0.0
 40
1.0
 50
90.0
 51
179.99999999999989
  0
LINE
  5
A0
  8
0
  6
HIDDEN
 62
     2
 10
238.10431157746419
 20
141.8601854472218
 30
0.0
 11
247.10431157746419
 21
141.8601854472218
 31
0.0
  0
ARC
  5
A1
  8
0
  6
HIDDEN
 62
     2
 10
247.10431157746419
 20
142.8601854472218
 30
0.0
 40
1.0
 50
270.0
 51
0.0
  0
LINE
  5
A2
  8
0
  6
CENTER
 62
     1
 10
247.1345097589159
 20
146.8601854472216
 30
0.0
 11
238.07411339601251
 21
146.8601854472216
 31
0.0
  0
ARC
  5
A3
  8
0
  6
HIDDEN
 62
     2
 10
247.10431157746419
 20
150.86018544722131
 30
0.0
 40
1.0
 50
0.0
 51
90.0
  0
LINE
  5
A4
  8
0
  6
CONTINUOUS
 62
     7
 10
246.09421124273601
 20
180.860185447221
 30
0.0
 11
239.11441191219239
 21
180.860185447221
 31
0.0
  0
TEXT
  5
1ED
  8
0
 62
     3
 10
0.0
 20
0.0
 30
0.0
 40
10.0
  1
SIS614-SUS
  7
STANDARD1
  0
ENDSEC
  0
EOF
