  0
SECTION
  2
HEADER
  9
$ACADVER
  1
AC1009
  9
$INSBASE
 10
0.0
 20
0.0
 30
0.0
  9
$EXTMIN
 10
-0.5
 20
-2.960436562073669
 30
0.0
  9
$EXTMAX
 10
322.5
 20
113.0
 30
0.0
  9
$LIMMIN
 10
0.0
 20
0.0
  9
$LIMMAX
 10
275.0
 20
175.0
  9
$ORTHOMODE
 70
     1
  9
$REGENMODE
 70
     1
  9
$FILLMODE
 70
     1
  9
$QTEXTMODE
 70
     0
  9
$MIRRTEXT
 70
     0
  9
$DRAGMODE
 70
     2
  9
$LTSCALE
 40
10.0
  9
$OSMODE
 70
    37
  9
$ATTMODE
 70
     1
  9
$TEXTSIZE
 40
0.2
  9
$TRACEWID
 40
0.05
  9
$TEXTSTYLE
  7
STANDARD
  9
$CLAYER
  8
0
  9
$CELTYPE
  6
BYLAYER
  9
$CECOLOR
 62
   256
  9
$DIMSCALE
 40
1.0
  9
$DIMASZ
 40
3.0
  9
$DIMEXO
 40
1.0
  9
$DIMDLI
 40
6.0
  9
$DIMRND
 40
0.0
  9
$DIMDLE
 40
0.0
  9
$DIMEXE
 40
1.0
  9
$DIMTP
 40
495.0
  9
$DIMTM
 40
0.0
  9
$DIMTXT
 40
3.0
  9
$DIMCEN
 40
0.0
  9
$DIMTSZ
 40
0.0
  9
$DIMTOL
 70
     0
  9
$DIMLIM
 70
     0
  9
$DIMTIH
 70
     0
  9
$DIMTOH
 70
     0
  9
$DIMSE1
 70
     0
  9
$DIMSE2
 70
     0
  9
$DIMTAD
 70
     1
  9
$DIMZIN
 70
     0
  9
$DIMBLK
  1

  9
$DIMASO
 70
     0
  9
$DIMSHO
 70
     0
  9
$DIMPOST
  1

  9
$DIMAPOST
  1

  9
$DIMALT
 70
     0
  9
$DIMALTD
 70
     2
  9
$DIMALTF
 40
25.399999999999999
  9
$DIMLFAC
 40
1.0
  9
$DIMTOFL
 70
     1
  9
$DIMTVP
 40
0.0
  9
$DIMTIX
 70
     1
  9
$DIMSOXD
 70
     0
  9
$DIMSAH
 70
     0
  9
$DIMBLK1
  1

  9
$DIMBLK2
  1

  9
$DIMSTYLE
  2
STANDARD
  9
$DIMCLRD
 70
     0
  9
$DIMCLRE
 70
     0
  9
$DIMCLRT
 70
     4
  9
$DIMTFAC
 40
1.0
  9
$DIMGAP
 40
1.0
  9
$LUNITS
 70
     2
  9
$LUPREC
 70
     4
  9
$SKETCHINC
 40
0.1
  9
$FILLETRAD
 40
0.0
  9
$AUNITS
 70
     0
  9
$AUPREC
 70
     0
  9
$MENU
  1
E:\r13\win\SUPPORT\ACAD
  9
$ELEVATION
 40
0.0
  9
$PELEVATION
 40
0.0
  9
$THICKNESS
 40
0.0
  9
$LIMCHECK
 70
     0
  9
$BLIPMODE
 70
     0
  9
$CHAMFERA
 40
0.0
  9
$CHAMFERB
 40
0.0
  9
$SKPOLY
 70
     0
  9
$TDCREATE
 40
2450653.5278402781
  9
$TDUPDATE
 40
2458416.5825049542
  9
$TDINDWG
 40
0.0869512384
  9
$TDUSRTIMER
 40
0.0869512384
  9
$USRTIMER
 70
     1
  9
$ANGBASE
 50
0.0
  9
$ANGDIR
 70
     0
  9
$PDMODE
 70
     0
  9
$PDSIZE
 40
0.0
  9
$PLINEWID
 40
0.0
  9
$COORDS
 70
     1
  9
$SPLFRAME
 70
     0
  9
$SPLINETYPE
 70
     6
  9
$SPLINESEGS
 70
     8
  9
$ATTDIA
 70
     0
  9
$ATTREQ
 70
     1
  9
$HANDLING
 70
     1
  9
$HANDSEED
  5
139B
  9
$SURFTAB1
 70
     6
  9
$SURFTAB2
 70
     6
  9
$SURFTYPE
 70
     6
  9
$SURFU
 70
     6
  9
$SURFV
 70
     6
  9
$UCSNAME
  2

  9
$UCSORG
 10
0.0
 20
0.0
 30
0.0
  9
$UCSXDIR
 10
1.0
 20
0.0
 30
0.0
  9
$UCSYDIR
 10
0.0
 20
1.0
 30
0.0
  9
$PUCSNAME
  2

  9
$PUCSORG
 10
0.0
 20
0.0
 30
0.0
  9
$PUCSXDIR
 10
1.0
 20
0.0
 30
0.0
  9
$PUCSYDIR
 10
0.0
 20
1.0
 30
0.0
  9
$USERI1
 70
     4
  9
$USERI2
 70
     1
  9
$USERI3
 70
     1
  9
$USERI4
 70
     0
  9
$USERI5
 70
     0
  9
$USERR1
 40
1.0
  9
$USERR2
 40
3.0
  9
$USERR3
 40
3.0
  9
$USERR4
 40
3.0
  9
$USERR5
 40
10.0
  9
$WORLDVIEW
 70
     1
  9
$SHADEDGE
 70
     3
  9
$SHADEDIF
 70
    70
  9
$TILEMODE
 70
     1
  9
$MAXACTVP
 70
    16
  9
$PLIMCHECK
 70
     0
  9
$PEXTMIN
 10
1.0000000000000000E+020
 20
1.0000000000000000E+020
 30
1.0000000000000000E+020
  9
$PEXTMAX
 10
-1.0000000000000000E+020
 20
-1.0000000000000000E+020
 30
-1.0000000000000000E+020
  9
$PLIMMIN
 10
0.0
 20
0.0
  9
$PLIMMAX
 10
12.0
 20
9.0
  9
$UNITMODE
 70
     0
  9
$VISRETAIN
 70
     0
  9
$PLINEGEN
 70
     0
  9
$PSLTSCALE
 70
     0
  0
ENDSEC
  0
SECTION
  2
TABLES
  0
TABLE
  2
VPORT
 70
     1
  0
VPORT
  2
*ACTIVE
 70
     0
 10
0.0
 20
0.0
 11
1.0
 21
1.0
 12
195.8728573534614
 22
55.020444550073471
 13
0.0
 23
0.0
 14
5.0
 24
5.0
 15
10.0
 25
10.0
 16
0.0
 26
0.0
 36
1.0
 17
0.0
 27
0.0
 37
0.0
 40
188.11119643600929
 41
2.0984455958549222
 42
50.0
 43
0.0
 44
0.0
 50
0.0
 51
0.0
 71
     0
 72
   100
 73
     1
 74
     0
 75
     0
 76
     0
 77
     0
 78
     0
  0
ENDTAB
  0
TABLE
  2
LTYPE
 70
     5
  0
LTYPE
  2
CONTINUOUS
 70
     0
  3
Solid Line
 72
    65
 73
     0
 40
0.0
  0
LTYPE
  2
CENTER
 70
     0
  3
____ _ ____ _ ____ _ ____ _ ____ _ ____ _ ____ 
 72
    65
 73
     4
 40
2.0
 49
1.25
 49
-0.25
 49
0.25
 49
-0.25
  0
LTYPE
  2
HIDDEN
 70
     0
  3
_ _ _ _ _ _ _ _ _ _ _ _ _ _ _ _ _ _ _ _ _ _ _
 72
    65
 73
     2
 40
0.375
 49
0.25
 49
-0.125
  0
LTYPE
  2
PHANTOM
 70
     0
  3
_____ _ _ _____ _ _ _____ _ _ _____ _ _ ____
 72
    65
 73
     6
 40
2.5
 49
1.25
 49
-0.25
 49
0.25
 49
-0.25
 49
0.25
 49
-0.25
  0
LTYPE
  2
PHANTOM2
 70
     0
  3
___ _ _ ___ _ _ ___ _ _ ___ _ _
 72
    65
 73
     6
 40
1.25
 49
0.625
 49
-0.125
 49
0.125
 49
-0.125
 49
0.125
 49
-0.125
  0
ENDTAB
  0
TABLE
  2
LAYER
 70
     4
  0
LAYER
  2
0
 70
     0
 62
     7
  6
CONTINUOUS
  0
LAYER
  2
1
 70
     0
 62
     1
  6
CENTER
  0
LAYER
  2
2
 70
     0
 62
     2
  6
HIDDEN
  0
LAYER
  2
5
 70
     0
 62
     3
  6
PHANTOM
  0
ENDTAB
  0
TABLE
  2
STYLE
 70
     2
  0
STYLE
  2
STANDARD
 70
     0
 40
0.0
 41
1.0
 50
0.0
 71
     0
 42
0.2
  3
simplex
  4
bigfont
  0
STYLE
  2
STANDARD1
 70
     0
 40
0.0
 41
1.0
 50
0.0
 71
     0
 42
3.0
  3
txt
  4

  0
ENDTAB
  0
TABLE
  2
VIEW
 70
     0
  0
ENDTAB
  0
TABLE
  2
UCS
 70
     0
  0
ENDTAB
  0
TABLE
  2
APPID
 70
     5
  0
APPID
  2
ACAD
 70
     0
  0
APPID
  2
_CALL_MAC$
 70
     0
  0
APPID
  2
ACAD_MLEADERVER
 70
     0
  0
APPID
  2
ACAD_EXEMPT_FROM_CAD_STANDARDS
 70
     0
  0
APPID
  2
ACAD_NAV_VCDISPLAY
 70
     0
  0
ENDTAB
  0
TABLE
  2
DIMSTYLE
 70
     1
  0
DIMSTYLE
  2
STANDARD
 70
     0
  3

  4

  5

  6

  7

 40
1.0
 41
0.18
 42
0.0625
 43
0.38
 44
0.18
 45
0.0
 46
0.0
 47
0.0
 48
0.0
140
0.18
141
0.09
142
0.0
143
25.399999999999999
144
1.0
145
0.0
146
1.0
147
0.09
 71
     0
 72
     0
 73
     1
 74
     1
 75
     0
 76
     0
 77
     0
 78
     0
170
     0
171
     2
172
     0
173
     0
174
     0
175
     0
176
     0
177
     0
178
     0
  0
ENDTAB
  0
ENDSEC
  0
SECTION
  2
BLOCKS
  0
BLOCK
  8
0
  2
$MODEL_SPACE
 70
     0
 10
0.0
 20
0.0
 30
0.0
  3
$MODEL_SPACE
  1

  0
ENDBLK
  5
7
  8
0
  0
BLOCK
 67
     1
  8
0
  2
$PAPER_SPACE
 70
     0
 10
0.0
 20
0.0
 30
0.0
  3
$PAPER_SPACE
  1

  0
ENDBLK
  5
A
 67
     1
  8
0
  0
ENDSEC
  0
SECTION
  2
ENTITIES
  0
LINE
  5
CB5
  8
2
 10
150.0
 20
84.000000000000327
 30
0.0
 11
171.99999999999989
 21
84.000000000000384
 31
0.0
  0
LINE
  5
CB6
  8
2
 10
150.0
 20
48.999999999999702
 30
0.0
 11
171.99999999999989
 21
48.999999999999702
 31
0.0
  0
LINE
  5
CB7
  8
2
 10
160.03019818145171
 20
53.999999999999467
 30
0.0
 11
150.96980181854829
 21
53.999999999999467
 31
0.0
  0
LINE
  5
CB8
  8
2
 10
153.2087121525237
 20
55.000000000003112
 30
0.0
 11
150.0
 21
55.000000000003112
 31
0.0
  0
LINE
  5
CB9
  8
2
 10
153.2087121525237
 20
52.999999999999417
 30
0.0
 11
150.0
 21
52.999999999999417
 31
0.0
  0
LINE
  5
CBA
  8
2
 10
151.0
 20
58.99999999999924
 30
0.0
 11
160.0
 21
58.99999999999924
 31
0.0
  0
LINE
  5
CBB
  8
2
 10
151.0
 20
74.000000000000782
 30
0.0
 11
160.0
 21
74.000000000000782
 31
0.0
  0
LINE
  5
CBC
  8
2
 10
153.2087121525237
 20
80.000000000000625
 30
0.0
 11
150.0
 21
80.000000000000625
 31
0.0
  0
LINE
  5
CBD
  8
2
 10
153.2087121525237
 20
77.999999999996916
 30
0.0
 11
150.0
 21
77.999999999996916
 31
0.0
  0
LINE
  5
CBE
  8
2
 10
160.03019818145171
 20
79.000000000000554
 30
0.0
 11
150.96980181854829
 21
79.000000000000554
 31
0.0
  0
LINE
  5
CBF
  8
1
 10
181.99999999999989
 20
66.500000000000014
 30
0.0
 11
140.0
 21
66.500000000000028
 31
0.0
  0
LINE
  5
CC2
  8
1
 10
160.99591794226669
 20
103.2999975850605
 30
0.0
 11
140.7040820577345
 21
103.2999975850605
 31
0.0
  0
LINE
  5
CC4
  8
2
 10
148.40000000000001
 20
85.000000000000014
 30
0.0
 11
148.40000000000001
 21
48.000000000000128
 31
0.0
  0
ARC
  5
CC5
  8
0
 10
45.999999999999957
 20
65.625000000000071
 30
0.0
 40
15.875
 50
299.2283546710845
 51
240.7716453289149
  0
CIRCLE
  5
CC6
  8
0
 10
46.000000000000028
 20
66.500000000000014
 30
0.0
 40
18.077350269189449
  0
CIRCLE
  5
CC7
  8
0
 10
46.000000000000028
 20
66.500000000000014
 30
0.0
 40
17.49999999999903
  0
ARC
  5
CC8
  8
2
 10
151.0
 20
57.999999999999247
 30
0.0
 40
1.0
 50
90.0
 51
179.99999999999989
  0
LINE
  5
CC9
  8
2
 10
148.25
 20
85.000000000000014
 30
0.0
 11
148.25
 21
48.000000000000007
 31
0.0
  0
LINE
  5
CCA
  8
2
 10
150.0
 20
85.000000000000014
 30
0.0
 11
150.0
 21
48.000000000000128
 31
0.0
  0
LINE
  5
CCB
  8
2
 10
146.0
 20
49.000000000000242
 30
0.0
 11
146.0
 21
84.000000000000114
 31
0.0
  0
CIRCLE
  5
CCF
  8
5
 10
46.000000000000028
 20
66.500000000000014
 30
0.0
 40
36.799999999999997
  0
LINE
  5
CD0
  8
0
 10
145.0
 20
98.000000282458856
 30
0.0
 11
145.0
 21
34.999999717541122
 31
0.0
  0
LINE
  5
CD1
  8
1
 10
150.8500000000007
 20
19.99999758506053
 30
0.0
 11
150.8500000000007
 21
112.9999975850605
 31
0.0
  0
ARC
  5
CEC
  8
0
 10
50.679098172342627
 20
51.481056569274088
 30
0.0
 40
2.0
 50
54.99993670022014
 51
190.00002690570099
  0
ARC
  5
CED
  8
0
 10
41.320901827657359
 20
51.481056569274088
 30
0.0
 40
2.0
 50
349.99997309429892
 51
125.00006329978
  0
CIRCLE
  5
CEE
  8
0
 10
41.320901827657359
 20
51.481056569274088
 30
0.0
 40
1.25
  0
LINE
  5
CEF
  8
0
 10
40.173748954955236
 20
53.119360657852049
 30
0.0
 11
38.248370959125708
 21
51.771196471269107
 31
0.0
  0
LINE
  5
CF0
  8
0
 10
43.290517170593802
 20
51.133759289022642
 30
0.0
 11
42.961156890828669
 21
49.265864322286312
 31
0.0
  0
LINE
  5
CF1
  8
0
 10
48.709482829406141
 20
51.133759289022642
 30
0.0
 11
49.038843109171317
 21
49.265864322286312
 31
0.0
  0
LINE
  5
CF2
  8
0
 10
51.8262510450447
 20
53.119360657852049
 30
0.0
 11
53.751629040874292
 21
51.771196471269107
 31
0.0
  0
CIRCLE
  5
CF3
  8
0
 10
50.679098172342627
 20
51.481056569274088
 30
0.0
 40
1.25
  0
ARC
  5
CFE
  8
0
 10
165.2999999999999
 20
34.999997585060541
 30
0.0
 40
20.300000000000001
 50
180.00000761327769
 51
209.51232927439551
  0
LINE
  5
CFF
  8
2
 10
148.40000000000001
 20
51.500000000000043
 30
0.0
 11
149.9999999999998
 21
51.500000000000121
 31
0.0
  0
LINE
  5
D00
  8
2
 10
148.25
 20
48.000000000000007
 30
0.0
 11
150.0
 21
48.000000000000128
 31
0.0
  0
LINE
  5
D01
  8
2
 10
145.9999999999998
 20
49.000000000000121
 30
0.0
 11
144.99999999999969
 21
48.42264973081047
 31
0.0
  0
LINE
  5
D02
  8
2
 10
148.25
 20
49.000000000000121
 30
0.0
 11
146.0
 21
49.000000000000242
 31
0.0
  0
LINE
  5
D03
  8
1
 10
92.500000000000028
 20
66.500000000000014
 30
0.0
 11
-0.5
 21
66.500000000000014
 31
0.0
  0
CIRCLE
  5
D1C
  8
0
 10
46.000000000000028
 20
66.500000000000014
 30
0.0
 40
7.5
  0
ARC
  5
D31
  8
0
 10
165.2999999999999
 20
97.999997585060541
 30
0.0
 40
20.300000000000001
 50
150.4876707256044
 51
179.9999923867222
  0
ARC
  5
D32
  8
2
 10
151.0
 20
75.000000000000782
 30
0.0
 40
1.0
 50
180.00000000000011
 51
270.0
  0
LINE
  5
D33
  8
2
 10
148.40000000000001
 20
81.500000000000114
 30
0.0
 11
149.9999999999998
 21
81.500000000000014
 31
0.0
  0
LINE
  5
D34
  8
2
 10
148.25
 20
85.000000000000114
 30
0.0
 11
150.0
 21
85.000000000000014
 31
0.0
  0
LINE
  5
D35
  8
2
 10
146.0
 20
84.000000000000114
 30
0.0
 11
145.0
 21
84.577350269189779
 31
0.0
  0
LINE
  5
D36
  8
2
 10
148.25
 20
84.000000000000114
 30
0.0
 11
146.0
 21
84.000000000000114
 31
0.0
  0
CIRCLE
  5
D37
  8
0
 10
276.0
 20
66.500000000000028
 30
0.0
 40
25.50000241493947
  0
CIRCLE
  5
D38
  8
0
 10
276.0
 20
66.500000000000028
 30
0.0
 40
15.00000241493947
  0
CIRCLE
  5
D39
  8
0
 10
276.0
 20
66.500000000000028
 30
0.0
 40
14.00000241493947
  0
CIRCLE
  5
D3D
  8
5
 10
276.0
 20
66.500000000000028
 30
0.0
 40
36.799999999999997
  0
LINE
  5
D3E
  8
1
 10
160.99999999999989
 20
36.000000000000043
 30
0.0
 11
161.0
 21
97.000000000000014
 31
0.0
  0
ARC
  5
D3F
  8
2
 10
170.99999999999989
 20
57.999999999999247
 30
0.0
 40
1.0
 50
0.0
 51
90.0
  0
ARC
  5
D40
  8
2
 10
162.0
 20
57.999999999999247
 30
0.0
 40
1.0
 50
90.0
 51
179.99999999999989
  0
LINE
  5
D41
  8
2
 10
171.99999999999989
 20
84.000000000000327
 30
0.0
 11
171.99999999999989
 21
48.999999999999673
 31
0.0
  0
LINE
  5
D42
  8
2
 10
161.0
 20
49.999999999999702
 30
0.0
 11
161.0
 21
83.000000000000327
 31
0.0
  0
ARC
  5
D43
  8
2
 10
160.0
 20
57.999999999999247
 30
0.0
 40
1.0
 50
0.0
 51
90.0
  0
LINE
  5
D44
  8
2
 10
161.0
 20
83.000000000000327
 30
0.0
 11
161.0
 21
49.999999999999702
 31
0.0
  0
LINE
  5
D45
  8
2
 10
176.0
 20
52.500000000000007
 30
0.0
 11
176.0
 21
80.500000000000014
 31
0.0
  0
LINE
  5
D46
  8
0
 10
156.69999999999939
 20
34.999997585060321
 30
0.0
 11
156.69999999999999
 21
98.000004462103831
 31
0.0
  0
LINE
  5
D47
  8
0
 10
176.99999999999989
 20
90.500000000000014
 30
0.0
 11
176.99999999999989
 21
42.500000000000007
 31
0.0
  0
ARC
  5
D50
  8
0
 10
136.40000000000131
 20
34.999997585060541
 30
0.0
 40
20.300000000000001
 50
330.4876707256044
 51
359.9999805898741
  0
LINE
  5
D51
  8
2
 10
171.03019818145171
 20
53.999999999999467
 30
0.0
 11
161.96980181854829
 21
53.999999999999467
 31
0.0
  0
CIRCLE
  5
D52
  8
2
 10
166.5
 20
53.999999999999467
 30
0.0
 40
2.5
  0
LINE
  5
D54
  8
2
 10
161.0
 20
55.000000000003112
 30
0.0
 11
157.79128784747641
 21
55.000000000003112
 31
0.0
  0
LINE
  5
D55
  8
2
 10
161.0
 20
52.999999999999467
 30
0.0
 11
157.79128784747641
 21
52.999999999999417
 31
0.0
  0
CIRCLE
  5
D56
  8
2
 10
155.5
 20
53.999999999999467
 30
0.0
 40
2.5
  0
LINE
  5
D57
  8
2
 10
164.2087121525237
 20
52.999999999999417
 30
0.0
 11
161.0
 21
52.999999999999417
 31
0.0
  0
ARC
  5
D58
  8
2
 10
162.0
 20
49.999999999999702
 30
0.0
 40
1.0
 50
180.00000000000011
 51
270.0
  0
ARC
  5
D59
  8
2
 10
160.0
 20
49.999999999999702
 30
0.0
 40
1.0
 50
270.0
 51
0.0
  0
LINE
  5
D5A
  8
2
 10
164.2087121525237
 20
55.000000000003112
 30
0.0
 11
161.0
 21
55.000000000003112
 31
0.0
  0
LINE
  5
D5C
  8
2
 10
171.99999999999989
 20
52.500000000000043
 30
0.0
 11
176.0
 21
52.500000000000007
 31
0.0
  0
LINE
  5
D5D
  8
2
 10
172.0
 20
52.999999999999467
 30
0.0
 11
168.7912878474763
 21
52.999999999999417
 31
0.0
  0
ARC
  5
D5E
  8
2
 10
170.99999999999989
 20
49.999999999999702
 30
0.0
 40
1.0
 50
270.0
 51
0.0
  0
LINE
  5
D5F
  8
2
 10
172.0
 20
55.000000000003112
 30
0.0
 11
168.7912878474763
 21
55.000000000003112
 31
0.0
  0
LINE
  5
D60
  8
2
 10
176.0
 20
52.500000000000128
 30
0.0
 11
177.0
 21
51.500000000000121
 31
0.0
  0
CIRCLE
  5
D85
  8
0
 10
276.0
 20
66.500000000000028
 30
0.0
 40
7.5
  0
ARC
  5
D87
  8
0
 10
136.40000000000131
 20
97.999997585060541
 30
0.0
 40
20.300000000000001
 50
0.0000194101259603
 51
29.51232927439554
  0
CIRCLE
  5
D88
  8
2
 10
166.5
 20
79.000000000000554
 30
0.0
 40
2.5
  0
CIRCLE
  5
D89
  8
2
 10
155.5
 20
79.000000000000554
 30
0.0
 40
2.5
  0
LINE
  5
D8A
  8
2
 10
171.03019818145171
 20
79.000000000000554
 30
0.0
 11
161.96980181854829
 21
79.000000000000554
 31
0.0
  0
LINE
  5
D8B
  8
2
 10
162.0
 20
74.000000000000782
 30
0.0
 11
170.99999999999989
 21
74.000000000000782
 31
0.0
  0
LINE
  5
D8C
  8
2
 10
162.0
 20
58.99999999999924
 30
0.0
 11
170.99999999999989
 21
58.99999999999924
 31
0.0
  0
LINE
  5
D8D
  8
2
 10
161.0
 20
80.000000000000554
 30
0.0
 11
157.79128784747641
 21
80.000000000000625
 31
0.0
  0
LINE
  5
D8E
  8
2
 10
161.0
 20
77.999999999996916
 30
0.0
 11
157.79128784747641
 21
77.999999999996916
 31
0.0
  0
ARC
  5
D8F
  8
2
 10
162.0
 20
75.000000000000782
 30
0.0
 40
1.0
 50
180.00000000000011
 51
270.0
  0
ARC
  5
D90
  8
2
 10
160.0
 20
75.000000000000782
 30
0.0
 40
1.0
 50
270.0
 51
0.0
  0
LINE
  5
D91
  8
2
 10
164.2087121525237
 20
77.999999999996916
 30
0.0
 11
161.0
 21
77.999999999996916
 31
0.0
  0
LINE
  5
D92
  8
2
 10
164.2087121525237
 20
80.000000000000625
 30
0.0
 11
161.0
 21
80.000000000000625
 31
0.0
  0
ARC
  5
D93
  8
2
 10
170.99999999999989
 20
75.000000000000782
 30
0.0
 40
1.0
 50
270.0
 51
0.0
  0
LINE
  5
D94
  8
2
 10
172.0
 20
77.999999999996916
 30
0.0
 11
168.7912878474763
 21
77.999999999996916
 31
0.0
  0
LINE
  5
D95
  8
2
 10
172.0
 20
80.000000000000554
 30
0.0
 11
168.7912878474763
 21
80.000000000000625
 31
0.0
  0
LINE
  5
D96
  8
0
 10
175.49999999999989
 20
92.000000000000014
 30
0.0
 11
157.69999999999999
 21
92.000000000000043
 31
0.0
  0
ARC
  5
D97
  8
2
 10
162.0
 20
83.000000000000327
 30
0.0
 40
1.0
 50
90.0
 51
179.99999999999989
  0
ARC
  5
D98
  8
2
 10
160.0
 20
83.000000000000327
 30
0.0
 40
1.0
 50
0.0
 51
90.0
  0
LINE
  5
D9A
  8
2
 10
171.99999999999989
 20
80.500000000000014
 30
0.0
 11
176.0
 21
80.500000000000014
 31
0.0
  0
ARC
  5
D9B
  8
2
 10
170.99999999999989
 20
83.000000000000327
 30
0.0
 40
1.0
 50
0.0
 51
90.0
  0
LINE
  5
D9C
  8
2
 10
176.0
 20
80.500000000000014
 30
0.0
 11
177.0
 21
81.500000000000014
 31
0.0
  0
TEXT
  5
E85
  8
0
 62
     3
 10
0.0
 20
0.0
 30
0.0
 40
10.0
  1
SIS612SW
  7
STANDARD1
  0
LINE
  5
EE2
  8
1
 10
160.99591794226669
 20
29.70000241493954
 30
0.0
 11
140.7040820577345
 21
29.70000241493954
 31
0.0
  0
LINE
  5
EE3
  8
1
 10
46.000000000000028
 20
20.0
 30
0.0
 11
46.0
 21
113.0
 31
0.0
  0
LINE
  5
1074
  8
0
 10
154.06606917228751
 20
107.9999975850605
 30
0.0
 11
147.63393082771381
 21
107.9999975850605
 31
0.0
  0
LINE
  5
1075
  8
0
 10
154.06606917228751
 20
24.99999758506053
 30
0.0
 11
147.63393082771381
 21
24.999997585060541
 31
0.0
  0
ARC
  5
10B7
  8
0
 10
157.69999999999999
 20
93.000000000000043
 30
0.0
 40
1.0
 50
179.9999999999992
 51
270.0
  0
LINE
  5
10B9
  8
0
 10
175.49999999999989
 20
92.000000000000014
 30
0.0
 11
176.99999999999989
 21
90.500000000000014
 31
0.0
  0
LINE
  5
10BB
  8
0
 10
175.49999999999989
 20
41.000000000000007
 30
0.0
 11
157.69999999999999
 21
40.999999999999979
 31
0.0
  0
ARC
  5
10BC
  8
0
 10
157.69999999999999
 20
39.999999999999993
 30
0.0
 40
1.0
 50
90.000000000000028
 51
180.00000000000159
  0
LINE
  5
10BD
  8
0
 10
175.49999999999989
 20
41.000000000000007
 30
0.0
 11
176.99999999999989
 21
42.500000000000007
 31
0.0
  0
CIRCLE
  5
10BE
  8
0
 10
276.0
 20
66.500000000000028
 30
0.0
 40
24.0
  0
LINE
  5
1102
  8
1
 10
322.5
 20
66.500000000000028
 30
0.0
 11
229.5
 21
66.500000000000028
 31
0.0
  0
LINE
  5
1103
  8
1
 10
276.0
 20
20.000000000000011
 30
0.0
 11
276.0
 21
113.0
 31
0.0
  0
LINE
  5
1150
  8
0
 10
175.49999999999989
 20
92.000000000000014
 30
0.0
 11
175.49999999999989
 21
41.000000000000007
 31
0.0
  0
ARC
  5
127E
  8
0
 10
82.800000000000054
 20
66.499999999999986
 30
0.0
 40
5.9890000000000407
 50
120.86782394208559
 51
239.13217605791439
  0
LINE
  5
127F
  8
0
 10
79.727287848690963
 20
61.359322901095808
 30
0.0
 11
83.640245971056373
 21
59.020449297710222
 31
0.0
  0
ARC
  5
1280
  8
0
 10
78.483999999999952
 20
50.394000000000062
 30
0.0
 40
10.049999999999979
 50
38.745158947491497
 51
59.132176057913618
  0
ARC
  5
1281
  8
0
 10
45.999999999999893
 20
66.499999999999872
 30
0.0
 40
41.500000000000071
 50
343.68202197522447
 51
346.31797802477581
  0
ARC
  5
1282
  8
0
 10
82.184969216533773
 20
64.206205153352144
 30
0.0
 40
10.05000000000001
 50
270.86782394208541
 51
291.2548410525074
  0
LINE
  5
1283
  8
0
 10
82.337184566774539
 20
54.157357931548489
 30
0.0
 11
77.779026627168648
 21
54.0883130359584
 31
0.0
  0
ARC
  5
1284
  8
0
 10
77.869734859267353
 20
48.09999999999998
 30
0.0
 40
5.9889999999999937
 50
90.867823942085536
 51
209.13217605791419
  0
LINE
  5
1285
  8
0
 10
72.638349528264484
 20
45.184399115350672
 30
0.0
 11
74.857633864484825
 21
41.202396097395152
 31
0.0
  0
ARC
  5
1286
  8
0
 10
66.07896921653375
 20
36.30979484664806
 30
0.0
 40
10.049999999999899
 50
8.7451589474907578
 51
29.132176057913121
  0
ARC
  5
1287
  8
0
 10
45.999999999999858
 20
66.500000000000114
 30
0.0
 40
41.500000000000178
 50
313.68202197522442
 51
316.31797802477558
  0
ARC
  5
1288
  8
0
 10
76.190205153352238
 20
46.4210307834663
 30
0.0
 40
10.050000000000029
 50
240.86782394208541
 51
261.25484105250752
  0
LINE
  5
1289
  8
0
 10
71.297603902604848
 20
37.642366135515253
 30
0.0
 11
67.315600884649342
 21
39.861650471735558
 31
0.0
  0
ARC
  5
128A
  8
0
 10
64.400000000000006
 20
34.630265140732682
 30
0.0
 40
5.9890000000000123
 50
60.867823942085657
 51
179.13217605791419
  0
LINE
  5
128B
  8
0
 10
58.411686964041579
 20
34.720973372831423
 30
0.0
 11
58.342642068451511
 21
30.16281543322539
 31
0.0
  0
ARC
  5
128C
  8
0
 10
48.293794846648041
 20
30.31503078346633
 30
0.0
 40
10.049999999999811
 50
338.74515894749157
 51
359.13217605791363
  0
ARC
  5
128D
  8
0
 10
45.999999999999972
 20
66.499999999999631
 30
0.0
 40
41.499999999999631
 50
283.68202197522447
 51
286.31797802477581
  0
ARC
  5
128E
  8
0
 10
62.10600000000003
 20
34.015999999999927
 30
0.0
 40
10.04999999999999
 50
210.86782394208541
 51
231.2548410525074
  0
LINE
  5
128F
  8
0
 10
53.479550702289778
 20
28.859754028943659
 30
0.0
 11
51.14067709890417
 21
32.772712151309101
 31
0.0
  0
ARC
  5
1290
  8
0
 10
46.000000000000028
 20
29.70000000000001
 30
0.0
 40
5.9889999999999981
 50
30.867823942085721
 51
149.13217605791431
  0
LINE
  5
1291
  8
0
 10
40.859322901095886
 20
32.772712151309094
 30
0.0
 11
38.520449297710257
 21
28.859754028943669
 31
0.0
  0
ARC
  5
1292
  8
0
 10
29.894000000000041
 20
34.016000000000069
 30
0.0
 40
10.05000000000002
 50
308.74515894749169
 51
329.13217605791391
  0
ARC
  5
1293
  8
0
 10
45.999999999999979
 20
66.500000000000114
 30
0.0
 40
41.500000000000078
 50
253.68202197522459
 51
256.31797802477558
  0
ARC
  5
1294
  8
0
 10
43.706205153352208
 20
30.315030783466248
 30
0.0
 40
10.04999999999999
 50
180.86782394208521
 51
201.2548410525076
  0
LINE
  5
1295
  8
0
 10
33.65735793154856
 20
30.162815433225511
 30
0.0
 11
33.588313035958471
 21
34.720973372831409
 31
0.0
  0
ARC
  5
1296
  8
0
 10
27.600000000000051
 20
34.630265140732682
 30
0.0
 40
5.9889999999999981
 50
0.8678239420856749
 51
119.13217605791429
  0
LINE
  5
1297
  8
0
 10
24.684399115350711
 20
39.861650471735551
 30
0.0
 11
20.702396097395159
 21
37.642366135515218
 31
0.0
  0
ARC
  5
1298
  8
0
 10
15.809794846647939
 20
46.421030783466271
 30
0.0
 40
10.04999999999994
 50
278.74515894749152
 51
299.1321760579138
  0
ARC
  5
1299
  8
0
 10
45.999999999999879
 20
66.499999999999815
 30
0.0
 40
41.499999999999758
 50
223.6820219752243
 51
226.3179780247755
  0
ARC
  5
129A
  8
0
 10
25.921030783466279
 20
36.309794846647833
 30
0.0
 40
10.049999999999979
 50
150.86782394208529
 51
171.25484105250769
  0
LINE
  5
129B
  8
0
 10
17.14236613551526
 20
41.202396097395187
 30
0.0
 11
19.361650471735562
 21
45.184399115350672
 31
0.0
  0
ARC
  5
129C
  8
0
 10
14.13026514073268
 20
48.09999999999998
 30
0.0
 40
5.9889999999999954
 50
330.86782394208581
 51
89.132176057914393
  0
LINE
  5
129D
  8
0
 10
14.220973372831409
 20
54.0883130359584
 30
0.0
 11
9.6628154332254574
 21
54.157357931548482
 31
0.0
  0
ARC
  5
129E
  8
0
 10
9.8150307834663462
 20
64.206205153352101
 30
0.0
 40
10.049999999999971
 50
248.74515894749189
 51
269.13217605791391
  0
ARC
  5
129F
  8
0
 10
45.999999999999567
 20
66.499999999999943
 30
0.0
 40
41.499999999999552
 50
193.68202197522459
 51
196.3179780247757
  0
ARC
  5
12A0
  8
0
 10
13.516000000000041
 20
50.393999999999963
 30
0.0
 40
10.050000000000001
 50
120.86782394208549
 51
141.254841052508
  0
LINE
  5
12A1
  8
0
 10
8.3597540289437458
 20
59.020449297710222
 30
0.0
 11
12.27271215130909
 21
61.359322901095808
 31
0.0
  0
ARC
  5
12A2
  8
0
 10
9.1999999999999922
 20
66.499999999999972
 30
0.0
 40
5.9890000000000247
 50
300.86782394208558
 51
59.132176057914393
  0
LINE
  5
12A3
  8
0
 10
12.272712151309079
 20
71.640677098904135
 30
0.0
 11
8.3597540289436871
 21
73.979550702289728
 31
0.0
  0
ARC
  5
12A4
  8
0
 10
13.51600000000005
 20
82.606000000000009
 30
0.0
 40
10.050000000000059
 50
218.74515894749209
 51
239.13217605791431
  0
ARC
  5
12A5
  8
0
 10
46.000000000000242
 20
66.5
 30
0.0
 40
41.50000000000022
 50
163.6820219752245
 51
166.3179780247757
  0
ARC
  5
12A6
  8
0
 10
9.8150307834663035
 20
68.793794846647756
 30
0.0
 40
10.05000000000004
 50
90.867823942085465
 51
111.2548410525079
  0
LINE
  5
12A7
  8
0
 10
9.6628154332255178
 20
78.842642068451454
 30
0.0
 11
14.220973372831351
 21
78.91168696404155
 31
0.0
  0
ARC
  5
12A8
  8
0
 10
14.13026514073265
 20
84.900000000000006
 30
0.0
 40
5.9890000000000372
 50
270.86782394208541
 51
29.132176057914091
  0
LINE
  5
12A9
  8
0
 10
19.361650471735562
 20
87.815600884649328
 30
0.0
 11
17.142366135515228
 21
91.797603902604806
 31
0.0
  0
ARC
  5
12AA
  8
0
 10
25.92103078346636
 20
96.690205153351911
 30
0.0
 40
10.049999999999949
 50
188.74515894749021
 51
209.132176057913
  0
ARC
  5
12AB
  8
0
 10
45.999999999999432
 20
66.500000000000313
 30
0.0
 40
41.499999999999382
 50
133.68202197522419
 51
136.31797802477519
  0
ARC
  5
12AC
  8
0
 10
15.809794846647851
 20
86.578969216533665
 30
0.0
 40
10.050000000000001
 50
60.867823942085543
 51
81.254841052508127
  0
LINE
  5
12AD
  8
0
 10
20.702396097395201
 20
95.357633864484725
 30
0.0
 11
24.68439911535074
 21
93.138349528264456
 31
0.0
  0
ARC
  5
12AE
  8
0
 10
27.600000000000069
 20
98.369734859267297
 30
0.0
 40
5.9889999999999848
 50
240.86782394208561
 51
359.13217605791419
  0
LINE
  5
12AF
  8
0
 10
33.588313035958471
 20
98.279026627168548
 30
0.0
 11
33.657357931548553
 21
102.8371845667745
 31
0.0
  0
ARC
  5
12B0
  8
0
 10
43.706205153352151
 20
102.6849692165336
 30
0.0
 40
10.049999999999949
 50
158.74515894749129
 51
179.13217605791391
  0
ARC
  5
12B1
  8
0
 10
46.00000000000005
 20
66.500000000000384
 30
0.0
 40
41.499999999999652
 50
103.6820219752246
 51
106.3179780247757
  0
ARC
  5
12B2
  8
0
 10
29.894000000000041
 20
98.984000000000023
 30
0.0
 40
10.049999999999979
 50
30.867823942085462
 51
51.254841052508112
  0
LINE
  5
12B3
  8
0
 10
38.520449297710272
 20
104.1402459710563
 30
0.0
 11
40.859322901095908
 21
100.22728784869081
 31
0.0
  0
ARC
  5
12B4
  8
0
 10
46.000000000000028
 20
103.2999999999999
 30
0.0
 40
5.9889999999999919
 50
210.86782394208589
 51
329.13217605791471
  0
LINE
  5
12B5
  8
0
 10
51.14067709890417
 20
100.22728784869091
 30
0.0
 11
53.479550702289799
 21
104.1402459710563
 31
0.0
  0
ARC
  5
12B6
  8
0
 10
62.106000000000108
 20
98.983999999999995
 30
0.0
 40
10.05000000000005
 50
128.7451589474922
 51
149.13217605791459
  0
ARC
  5
12B7
  8
0
 10
45.999999999999901
 20
66.500000000000398
 30
0.0
 40
41.499999999999652
 50
73.682021975224146
 51
76.317978024775286
  0
ARC
  5
12B8
  8
0
 10
48.293794846647778
 20
102.6849692165337
 30
0.0
 40
10.05000000000005
 50
0.8678239420854365
 51
21.25484105250791
  0
LINE
  5
12B9
  8
0
 10
58.342642068451497
 20
102.8371845667745
 30
0.0
 11
58.4116869640416
 21
98.279026627168577
 31
0.0
  0
ARC
  5
12BA
  8
0
 10
64.399999999999991
 20
98.369734859267297
 30
0.0
 40
5.9889999999999661
 50
180.86782394208569
 51
299.13217605791482
  0
LINE
  5
12BB
  8
0
 10
67.315600884649342
 20
93.138349528264484
 30
0.0
 11
71.297603902604834
 21
95.357633864484754
 31
0.0
  0
ARC
  5
12BC
  8
0
 10
76.190205153352181
 20
86.578969216533636
 30
0.0
 40
10.050000000000059
 50
98.745158947491959
 51
119.13217605791419
  0
ARC
  5
12BD
  8
0
 10
45.999999999999929
 20
66.499999999999631
 30
0.0
 40
41.50000000000032
 50
43.682021975224757
 51
46.31797802477584
  0
ARC
  5
12BE
  8
0
 10
66.078969216533693
 20
96.69020515335221
 30
0.0
 40
10.05000000000001
 50
330.86782394208541
 51
351.25484105250791
  0
LINE
  5
12BF
  8
0
 10
74.85763386448474
 20
91.797603902604834
 30
0.0
 11
72.638349528264484
 21
87.815600884649314
 31
0.0
  0
ARC
  5
12C0
  8
0
 10
77.869734859267311
 20
84.900000000000006
 30
0.0
 40
5.9889999999999546
 50
150.86782394208549
 51
269.13217605791419
  0
LINE
  5
12C1
  8
0
 10
77.779026627168562
 20
78.911686964041607
 30
0.0
 11
82.337184566774596
 21
78.842642068451497
 31
0.0
  0
ARC
  5
12C2
  8
0
 10
82.184969216533716
 20
68.793794846647884
 30
0.0
 40
10.049999999999949
 50
68.745158947491973
 51
89.132176057913995
  0
ARC
  5
12C3
  8
0
 10
46.000000000000007
 20
66.499999999999943
 30
0.0
 40
41.500000000000007
 50
13.68202197522451
 51
16.317978024775659
  0
ARC
  5
12C4
  8
0
 10
78.484000000000023
 20
82.60599999999998
 30
0.0
 40
10.049999999999971
 50
300.86782394208558
 51
321.25484105250808
  0
LINE
  5
12C5
  8
0
 10
83.640245971056316
 20
73.979550702289757
 30
0.0
 11
79.727287848690963
 21
71.640677098904163
 31
0.0
  0
ARC
  5
12C6
  8
0
 10
312.80000000000001
 20
66.5
 30
0.0
 40
5.9890000000000256
 50
120.86782394208539
 51
239.13217605791459
  0
LINE
  5
12C7
  8
0
 10
309.72728784869088
 20
61.359322901095823
 30
0.0
 11
313.6402459710564
 21
59.020449297710222
 31
0.0
  0
ARC
  5
12C8
  8
0
 10
308.48399999999998
 20
50.394000000000162
 30
0.0
 40
10.049999999999899
 50
38.74515894749122
 51
59.132176057913362
  0
ARC
  5
12C9
  8
0
 10
275.99999999999989
 20
66.500000000000185
 30
0.0
 40
41.500000000000149
 50
343.68202197522407
 51
346.31797802477541
  0
ARC
  5
12CA
  8
0
 10
312.18496921653377
 20
64.206205153352045
 30
0.0
 40
10.04999999999988
 50
270.86782394208558
 51
291.25484105250769
  0
LINE
  5
12CB
  8
0
 10
312.33718456677462
 20
54.157357931548503
 30
0.0
 11
307.77902662716872
 21
54.088313035958407
 31
0.0
  0
ARC
  5
12CC
  8
0
 10
307.8697348592674
 20
48.099999999999987
 30
0.0
 40
5.9890000000000008
 50
90.867823942085664
 51
209.13217605791399
  0
LINE
  5
12CD
  8
0
 10
302.63834952826448
 20
45.184399115350679
 30
0.0
 11
304.8576338644848
 21
41.202396097395159
 31
0.0
  0
ARC
  5
12CE
  8
0
 10
296.07896921653372
 20
36.309794846648067
 30
0.0
 40
10.049999999999899
 50
8.7451589474907578
 51
29.132176057913121
  0
ARC
  5
12CF
  8
0
 10
275.99999999999977
 20
66.500000000000114
 30
0.0
 40
41.500000000000178
 50
313.68202197522442
 51
316.31797802477558
  0
ARC
  5
12D0
  8
0
 10
306.19020515335228
 20
46.421030783466193
 30
0.0
 40
10.049999999999921
 50
240.8678239420849
 51
261.254841052507
  0
LINE
  5
12D1
  8
0
 10
301.29760390260492
 20
37.64236613551526
 30
0.0
 11
297.31560088464943
 21
39.861650471735572
 31
0.0
  0
ARC
  5
12D2
  8
0
 10
294.39999999999998
 20
34.630265140732682
 30
0.0
 40
5.989000000000023
 50
60.867823942085742
 51
179.13217605791411
  0
LINE
  5
12D3
  8
0
 10
288.41168696404162
 20
34.72097337283143
 30
0.0
 11
288.34264206845148
 21
30.162815433225401
 31
0.0
  0
ARC
  5
12D4
  8
0
 10
278.29379484664798
 20
30.315030783466192
 30
0.0
 40
10.04999999999978
 50
338.74515894749248
 51
359.13217605791448
  0
ARC
  5
12D5
  8
0
 10
275.99999999999989
 20
66.50000000000027
 30
0.0
 40
41.500000000000263
 50
283.68202197522442
 51
286.31797802477558
  0
ARC
  5
12D6
  8
0
 10
292.10599999999999
 20
34.015999999999991
 30
0.0
 40
10.04999999999999
 50
210.86782394208561
 51
231.25484105250769
  0
LINE
  5
12D7
  8
0
 10
283.47955070228983
 20
28.85975402894368
 30
0.0
 11
281.14067709890418
 21
32.772712151309122
 31
0.0
  0
ARC
  5
12D8
  8
0
 10
276.0
 20
29.700000000000021
 30
0.0
 40
5.9890000000000381
 50
30.867823942085568
 51
149.13217605791419
  0
LINE
  5
12D9
  8
0
 10
270.85932290109588
 20
32.772712151309108
 30
0.0
 11
268.52044929771017
 21
28.85975402894368
 31
0.0
  0
ARC
  5
12DA
  8
0
 10
259.89400000000012
 20
34.01599999999997
 30
0.0
 40
10.049999999999921
 50
308.74515894749209
 51
329.13217605791431
  0
ARC
  5
12DB
  8
0
 10
276.0
 20
66.500000000000583
 30
0.0
 40
41.500000000000519
 50
253.6820219752247
 51
256.31797802477581
  0
ARC
  5
12DC
  8
0
 10
273.70620515335219
 20
30.315030783466209
 30
0.0
 40
10.049999999999949
 50
180.8678239420849
 51
201.25484105250729
  0
LINE
  5
12DD
  8
0
 10
263.65735793154857
 20
30.162815433225521
 30
0.0
 11
263.58831303595838
 21
34.720973372831423
 31
0.0
  0
ARC
  5
12DE
  8
0
 10
257.60000000000002
 20
34.630265140732703
 30
0.0
 40
5.9889999999999937
 50
0.8678239420856074
 51
119.13217605791419
  0
LINE
  5
12DF
  8
0
 10
254.68439911535069
 20
39.861650471735558
 30
0.0
 11
250.70239609739519
 21
37.642366135515232
 31
0.0
  0
ARC
  5
12E0
  8
0
 10
245.80979484664789
 20
46.421030783466279
 30
0.0
 40
10.04999999999994
 50
278.74515894749152
 51
299.1321760579138
  0
ARC
  5
12E1
  8
0
 10
275.99999999999989
 20
66.500000000000213
 30
0.0
 40
41.500000000000043
 50
223.6820219752247
 51
226.3179780247759
  0
ARC
  5
12E2
  8
0
 10
255.92103078346631
 20
36.309794846647812
 30
0.0
 40
10.050000000000001
 50
150.86782394208521
 51
171.25484105250749
  0
LINE
  5
12E3
  8
0
 10
247.14236613551529
 20
41.202396097395201
 30
0.0
 11
249.3616504717356
 21
45.184399115350679
 31
0.0
  0
ARC
  5
12E4
  8
0
 10
244.13026514073269
 20
48.09999999999998
 30
0.0
 40
5.9889999999999937
 50
330.86782394208592
 51
89.132176057914606
  0
LINE
  5
12E5
  8
0
 10
244.22097337283139
 20
54.088313035958407
 30
0.0
 11
239.66281543322549
 21
54.157357931548489
 31
0.0
  0
ARC
  5
12E6
  8
0
 10
239.81503078346631
 20
64.206205153352144
 30
0.0
 40
10.05000000000001
 50
248.74515894749189
 51
269.13217605791391
  0
ARC
  5
12E7
  8
0
 10
275.99999999999949
 20
66.499999999999687
 30
0.0
 40
41.49999999999946
 50
193.68202197522419
 51
196.31797802477541
  0
ARC
  5
12E8
  8
0
 10
243.5160000000001
 20
50.393999999999991
 30
0.0
 40
10.04999999999999
 50
120.86782394208549
 51
141.25484105250811
  0
LINE
  5
12E9
  8
0
 10
238.3597540289438
 20
59.020449297710222
 30
0.0
 11
242.27271215130909
 21
61.359322901095823
 31
0.0
  0
ARC
  5
12EA
  8
0
 10
239.19999999999999
 20
66.499999999999986
 30
0.0
 40
5.9890000000000292
 50
300.86782394208569
 51
59.1321760579143
  0
LINE
  5
12EB
  8
0
 10
242.27271215130909
 20
71.640677098904149
 30
0.0
 11
238.35975402894371
 21
73.979550702289743
 31
0.0
  0
ARC
  5
12EC
  8
0
 10
243.5160000000001
 20
82.606000000000009
 30
0.0
 40
10.050000000000059
 50
218.74515894749209
 51
239.13217605791431
  0
ARC
  5
12ED
  8
0
 10
276.00000000000023
 20
66.500000000000171
 30
0.0
 40
41.500000000000178
 50
163.6820219752247
 51
166.3179780247759
  0
ARC
  5
12EE
  8
0
 10
239.81503078346631
 20
68.793794846647771
 30
0.0
 40
10.05000000000004
 50
90.867823942085536
 51
111.254841052508
  0
LINE
  5
12EF
  8
0
 10
239.66281543322549
 20
78.842642068451468
 30
0.0
 11
244.22097337283131
 21
78.911686964041564
 31
0.0
  0
ARC
  5
12F0
  8
0
 10
244.13026514073269
 20
84.900000000000006
 30
0.0
 40
5.9890000000000372
 50
270.86782394208512
 51
29.132176057914091
  0
LINE
  5
12F1
  8
0
 10
249.3616504717356
 20
87.815600884649328
 30
0.0
 11
247.14236613551529
 21
91.797603902604834
 31
0.0
  0
ARC
  5
12F2
  8
0
 10
255.92103078346639
 20
96.690205153351911
 30
0.0
 40
10.04999999999994
 50
188.7451589474901
 51
209.13217605791289
  0
ARC
  5
12F3
  8
0
 10
275.99999999999937
 20
66.500000000000625
 30
0.0
 40
41.499999999999162
 50
133.68202197522439
 51
136.3179780247755
  0
ARC
  5
12F4
  8
0
 10
245.8097948466478
 20
86.578969216533736
 30
0.0
 40
10.049999999999979
 50
60.867823942085423
 51
81.254841052508027
  0
LINE
  5
12F5
  8
0
 10
250.70239609739519
 20
95.35763386448474
 30
0.0
 11
254.6843991153508
 21
93.138349528264456
 31
0.0
  0
ARC
  5
12F6
  8
0
 10
257.60000000000008
 20
98.369734859267325
 30
0.0
 40
5.9889999999999981
 50
240.86782394208561
 51
359.13217605791402
  0
LINE
  5
12F7
  8
0
 10
263.58831303595849
 20
98.279026627168577
 30
0.0
 11
263.65735793154852
 21
102.8371845667745
 31
0.0
  0
ARC
  5
12F8
  8
0
 10
273.70620515335207
 20
102.6849692165335
 30
0.0
 40
10.04999999999996
 50
158.74515894749081
 51
179.1321760579134
  0
ARC
  5
12F9
  8
0
 10
276.00000000000011
 20
66.500000000001165
 30
0.0
 40
41.499999999998913
 50
103.6820219752249
 51
106.317978024776
  0
ARC
  5
12FA
  8
0
 10
259.89400000000012
 20
98.983999999999924
 30
0.0
 40
10.05000000000002
 50
30.86782394208597
 51
51.254841052508702
  0
LINE
  5
12FB
  8
0
 10
268.52044929771029
 20
104.1402459710563
 30
0.0
 11
270.85932290109588
 21
100.22728784869081
 31
0.0
  0
ARC
  5
12FC
  8
0
 10
276.0
 20
103.2999999999999
 30
0.0
 40
5.988999999999999
 50
210.86782394208601
 51
329.13217605791482
  0
LINE
  5
12FD
  8
0
 10
281.14067709890418
 20
100.22728784869091
 30
0.0
 11
283.47955070228983
 21
104.1402459710563
 31
0.0
  0
ARC
  5
12FE
  8
0
 10
292.10600000000011
 20
98.983999999999966
 30
0.0
 40
10.0500000000001
 50
128.7451589474922
 51
149.13217605791451
  0
ARC
  5
12FF
  8
0
 10
275.99999999999989
 20
66.49999999999946
 30
0.0
 40
41.500000000000583
 50
73.682021975224444
 51
76.31797802477557
  0
ARC
  5
1300
  8
0
 10
278.29379484664781
 20
102.6849692165338
 30
0.0
 40
10.05000000000001
 50
0.8678239420847919
 51
21.254841052507299
  0
LINE
  5
1301
  8
0
 10
288.34264206845148
 20
102.8371845667745
 30
0.0
 11
288.41168696404162
 21
98.279026627168591
 31
0.0
  0
ARC
  5
1302
  8
0
 10
294.39999999999998
 20
98.369734859267325
 30
0.0
 40
5.9889999999999954
 50
180.86782394208589
 51
299.13217605791448
  0
LINE
  5
1303
  8
0
 10
297.31560088464943
 20
93.138349528264499
 30
0.0
 11
301.29760390260481
 21
95.357633864484768
 31
0.0
  0
ARC
  5
1304
  8
0
 10
306.19020515335222
 20
86.578969216533594
 30
0.0
 40
10.050000000000161
 50
98.745158947492143
 51
119.13217605791441
  0
ARC
  5
1305
  8
0
 10
275.99999999999989
 20
66.499999999999332
 30
0.0
 40
41.50000000000054
 50
43.682021975225062
 51
46.31797802477616
  0
ARC
  5
1306
  8
0
 10
296.07896921653372
 20
96.690205153352267
 30
0.0
 40
10.050000000000001
 50
330.86782394208518
 51
351.2548410525078
  0
LINE
  5
1307
  8
0
 10
304.85763386448468
 20
91.797603902604848
 30
0.0
 11
302.63834952826448
 21
87.815600884649328
 31
0.0
  0
ARC
  5
1308
  8
0
 10
307.86973485926728
 20
84.900000000000006
 30
0.0
 40
5.9889999999999368
 50
150.86782394208529
 51
269.13217605791431
  0
LINE
  5
1309
  8
0
 10
307.77902662716849
 20
78.911686964041621
 30
0.0
 11
312.33718456677462
 21
78.842642068451511
 31
0.0
  0
ARC
  5
130A
  8
0
 10
312.18496921653372
 20
68.793794846647884
 30
0.0
 40
10.049999999999971
 50
68.745158947491845
 51
89.132176057913838
  0
ARC
  5
130B
  8
0
 10
276.0
 20
66.499999999999673
 30
0.0
 40
41.500000000000078
 50
13.682021975224901
 51
16.31797802477605
  0
ARC
  5
130C
  8
0
 10
308.48399999999998
 20
82.606000000000009
 30
0.0
 40
10.05000000000001
 50
300.86782394208552
 51
321.25484105250803
  0
LINE
  5
130D
  8
0
 10
313.64024597105629
 20
73.979550702289771
 30
0.0
 11
309.72728784869088
 21
71.640677098904163
 31
0.0
  0
ENDSEC
  0
EOF
