  0
SECTION
  2
HEADER
  9
$ACADVER
  1
AC1009
  9
$INSBASE
 10
0.0
 20
0.0
 30
0.0
  9
$EXTMIN
 10
0.0
 20
-2.960436562073669
 30
0.0
  9
$EXTMAX
 10
207.3047011864758
 20
117.0627874946678
 30
0.0
  9
$LIMMIN
 10
0.0
 20
0.0
  9
$LIMMAX
 10
187.5
 20
135.0
  9
$ORTHOMODE
 70
     1
  9
$REGENMODE
 70
     1
  9
$FILLMODE
 70
     1
  9
$QTEXTMODE
 70
     0
  9
$MIRRTEXT
 70
     0
  9
$DRAGMODE
 70
     2
  9
$LTSCALE
 40
10.0
  9
$OSMODE
 70
    37
  9
$ATTMODE
 70
     1
  9
$TEXTSIZE
 40
2.5
  9
$TRACEWID
 40
0.05
  9
$TEXTSTYLE
  7
STANDARD
  9
$CLAYER
  8
0
  9
$CELTYPE
  6
BYLAYER
  9
$CECOLOR
 62
   256
  9
$DIMSCALE
 40
0.5
  9
$DIMASZ
 40
3.0
  9
$DIMEXO
 40
2.0
  9
$DIMDLI
 40
10.0
  9
$DIMRND
 40
0.0
  9
$DIMDLE
 40
0.0
  9
$DIMEXE
 40
2.0
  9
$DIMTP
 40
0.0
  9
$DIMTM
 40
0.0
  9
$DIMTXT
 40
3.0
  9
$DIMCEN
 40
0.09
  9
$DIMTSZ
 40
0.0
  9
$DIMTOL
 70
     0
  9
$DIMLIM
 70
     0
  9
$DIMTIH
 70
     0
  9
$DIMTOH
 70
     0
  9
$DIMSE1
 70
     0
  9
$DIMSE2
 70
     0
  9
$DIMTAD
 70
     1
  9
$DIMZIN
 70
     0
  9
$DIMBLK
  1

  9
$DIMASO
 70
     0
  9
$DIMSHO
 70
     0
  9
$DIMPOST
  1

  9
$DIMAPOST
  1

  9
$DIMALT
 70
     0
  9
$DIMALTD
 70
     2
  9
$DIMALTF
 40
25.399999999999999
  9
$DIMLFAC
 40
1.0
  9
$DIMTOFL
 70
     1
  9
$DIMTVP
 40
1.6000000000000001
  9
$DIMTIX
 70
     1
  9
$DIMSOXD
 70
     0
  9
$DIMSAH
 70
     0
  9
$DIMBLK1
  1

  9
$DIMBLK2
  1

  9
$DIMSTYLE
  2
STANDARD
  9
$DIMCLRD
 70
     0
  9
$DIMCLRE
 70
     0
  9
$DIMCLRT
 70
     0
  9
$DIMTFAC
 40
1.0
  9
$DIMGAP
 40
0.09
  9
$LUNITS
 70
     2
  9
$LUPREC
 70
     1
  9
$SKETCHINC
 40
0.1
  9
$FILLETRAD
 40
0.0
  9
$AUNITS
 70
     0
  9
$AUPREC
 70
     0
  9
$MENU
  1
E:\r13\win\SUPPORT\ACAD
  9
$ELEVATION
 40
0.0
  9
$PELEVATION
 40
0.0
  9
$THICKNESS
 40
0.0
  9
$LIMCHECK
 70
     0
  9
$BLIPMODE
 70
     0
  9
$CHAMFERA
 40
3.2000000000000002
  9
$CHAMFERB
 40
3.2000000000000002
  9
$SKPOLY
 70
     0
  9
$TDCREATE
 40
2449840.5944097228
  9
$TDUPDATE
 40
2459690.5086002308
  9
$TDINDWG
 40
0.3316994213
  9
$TDUSRTIMER
 40
0.3316994213
  9
$USRTIMER
 70
     1
  9
$ANGBASE
 50
0.0
  9
$ANGDIR
 70
     0
  9
$PDMODE
 70
     0
  9
$PDSIZE
 40
0.0
  9
$PLINEWID
 40
0.0
  9
$COORDS
 70
     1
  9
$SPLFRAME
 70
     0
  9
$SPLINETYPE
 70
     6
  9
$SPLINESEGS
 70
     8
  9
$ATTDIA
 70
     0
  9
$ATTREQ
 70
     1
  9
$HANDLING
 70
     1
  9
$HANDSEED
  5
4BC6
  9
$SURFTAB1
 70
     6
  9
$SURFTAB2
 70
     6
  9
$SURFTYPE
 70
     6
  9
$SURFU
 70
     6
  9
$SURFV
 70
     6
  9
$UCSNAME
  2

  9
$UCSORG
 10
0.0
 20
0.0
 30
0.0
  9
$UCSXDIR
 10
1.0
 20
0.0
 30
0.0
  9
$UCSYDIR
 10
0.0
 20
1.0
 30
0.0
  9
$PUCSNAME
  2

  9
$PUCSORG
 10
0.0
 20
0.0
 30
0.0
  9
$PUCSXDIR
 10
1.0
 20
0.0
 30
0.0
  9
$PUCSYDIR
 10
0.0
 20
1.0
 30
0.0
  9
$USERI1
 70
     0
  9
$USERI2
 70
     1
  9
$USERI3
 70
     1
  9
$USERI4
 70
     0
  9
$USERI5
 70
     0
  9
$USERR1
 40
0.0
  9
$USERR2
 40
0.0
  9
$USERR3
 40
0.0
  9
$USERR4
 40
0.0
  9
$USERR5
 40
0.0
  9
$WORLDVIEW
 70
     1
  9
$SHADEDGE
 70
     3
  9
$SHADEDIF
 70
    70
  9
$TILEMODE
 70
     1
  9
$MAXACTVP
 70
    16
  9
$PLIMCHECK
 70
     0
  9
$PEXTMIN
 10
1.0000000000000000E+020
 20
1.0000000000000000E+020
 30
1.0000000000000000E+020
  9
$PEXTMAX
 10
-1.0000000000000000E+020
 20
-1.0000000000000000E+020
 30
-1.0000000000000000E+020
  9
$PLIMMIN
 10
0.0
 20
0.0
  9
$PLIMMAX
 10
12.0
 20
9.0
  9
$UNITMODE
 70
     0
  9
$VISRETAIN
 70
     0
  9
$PLINEGEN
 70
     0
  9
$PSLTSCALE
 70
     0
  0
ENDSEC
  0
SECTION
  2
TABLES
  0
TABLE
  2
VPORT
 70
     1
  0
VPORT
  2
*ACTIVE
 70
     0
 10
0.0
 20
0.0
 11
1.0
 21
1.0
 12
241.48802017654481
 22
100.0
 13
0.0
 23
0.0
 14
5.0
 24
5.0
 15
5.0
 25
5.0
 16
0.0
 26
0.0
 36
1.0
 17
0.0
 27
0.0
 37
0.0
 40
200.0
 41
2.4148802017654472
 42
50.0
 43
0.0
 44
0.0
 50
0.0
 51
0.0
 71
     0
 72
   100
 73
     1
 74
     0
 75
     0
 76
     0
 77
     0
 78
     0
  0
ENDTAB
  0
TABLE
  2
LTYPE
 70
     5
  0
LTYPE
  2
CONTINUOUS
 70
     0
  3
Solid Line
 72
    65
 73
     0
 40
0.0
  0
LTYPE
  2
CENTER
 70
     0
  3
____ _ ____ _ ____ _ ____ _ ____ _ ____ _ ____
 72
    65
 73
     4
 40
2.0
 49
1.25
 49
-0.25
 49
0.25
 49
-0.25
  0
LTYPE
  2
HIDDEN
 70
     0
  3
_ _ _ _ _ _ _ _ _ _ _ _ _ _ _ _ _ _ _ _ _ _ _
 72
    65
 73
     2
 40
0.375
 49
0.25
 49
-0.125
  0
LTYPE
  2
PHANTOM
 70
     0
  3
_____ _ _ _____ _ _ _____ _ _ _____ _ _ ____
 72
    65
 73
     6
 40
2.5
 49
1.25
 49
-0.25
 49
0.25
 49
-0.25
 49
0.25
 49
-0.25
  0
LTYPE
  2
PHANTOM2
 70
     0
  3
___ _ _ ___ _ _ ___ _ _ ___ _ _
 72
    65
 73
     6
 40
1.25
 49
0.625
 49
-0.125
 49
0.125
 49
-0.125
 49
0.125
 49
-0.125
  0
ENDTAB
  0
TABLE
  2
LAYER
 70
     5
  0
LAYER
  2
0
 70
     0
 62
     7
  6
CONTINUOUS
  0
LAYER
  2
1
 70
     0
 62
     1
  6
CENTER
  0
LAYER
  2
2
 70
     0
 62
     2
  6
HIDDEN
  0
LAYER
  2
5
 70
     0
 62
     3
  6
PHANTOM
  0
LAYER
  2
DEFPOINTS
 70
     0
 62
     7
  6
CONTINUOUS
  0
ENDTAB
  0
TABLE
  2
STYLE
 70
     2
  0
STYLE
  2
STANDARD
 70
     0
 40
0.0
 41
1.0
 50
0.0
 71
     0
 42
2.5
  3
TXT
  4
BIGFONT
  0
STYLE
  2
STANDARD1
 70
     0
 40
0.0
 41
1.0
 50
0.0
 71
     0
 42
3.0
  3
txt
  4

  0
ENDTAB
  0
TABLE
  2
VIEW
 70
     1
  0
VIEW
  2
ALL
 70
     0
 40
135.0
 10
110.49579799999999
 20
67.5
 41
0.0
 11
0.0
 21
0.0
 31
1.0
 12
0.0
 22
0.0
 32
0.0
 42
0.0
 43
0.0
 44
0.0
 50
0.0
 71
     0
  0
ENDTAB
  0
TABLE
  2
UCS
 70
     0
  0
ENDTAB
  0
TABLE
  2
APPID
 70
    43
  0
APPID
  2
ACAD
 70
     0
  0
APPID
  2
DCO15
 70
     0
  0
APPID
  2
ACAD_EXEMPT_FROM_CAD_STANDARDS
 70
     0
  0
APPID
  2
ACAD_MLEADERVER
 70
     0
  0
APPID
  2
GENIUS_GENOREF_13
 70
     0
  0
APPID
  2
GENIUS_GENOENT_13
 70
     0
  0
APPID
  2
GENIUS_GENBH_13
 70
     0
  0
APPID
  2
GENIUS_GENOBJ_13
 70
     0
  0
APPID
  2
GENIUS_GENODEF_13
 70
     0
  0
APPID
  2
GENIUS_GENOLIS_13
 70
     0
  0
APPID
  2
GENIUS_GENOBJ-NBEHI-BHF_13
 70
     0
  0
APPID
  2
GENIUS_GENOBJ-NBEHI-BHB_13
 70
     0
  0
APPID
  2
GENIUS_GENOBJ-F-PART_13
 70
     0
  0
APPID
  2
GENIUS_GEFSTDP_13
 70
     0
  0
APPID
  2
GENIUS_GENOBJ-N-RSSYM_13
 70
     0
  0
APPID
  2
GENIUS_GENSYMENT_13
 70
     0
  0
APPID
  2
GENIUS_GENOBJ-N-TIT_13
 70
     0
  0
APPID
  2
GENIUS_GENTITLE_13
 70
     0
  0
APPID
  2
GENIUS_GENZVEED_13
 70
     0
  0
APPID
  2
GENIUS_GENOBJ-N-LEADER_13
 70
     0
  0
APPID
  2
GENIUS_GENOBJ-N-FIL_13
 70
     0
  0
APPID
  2
GENIUS_GENOBJ-N-SEC_13
 70
     0
  0
APPID
  2
GENIUS_GENOBJ-N-CRS_13
 70
     0
  0
APPID
  2
GENIUS_GENOBJ-N-ZOO_13
 70
     0
  0
APPID
  2
GENIUS_GENZOO_13
 70
     0
  0
APPID
  2
GENIUS_GENOBJ-F-TOL_13
 70
     0
  0
APPID
  2
GENIUS_GENFIL_13
 70
     0
  0
APPID
  2
GENIUS_GENOBJ-N-CHA_13
 70
     0
  0
APPID
  2
_CALL_MAC$
 70
     0
  0
APPID
  2
ASM_BASE
 70
     0
  0
APPID
  2
ASM_EXPLO_VER_2_00
 70
     0
  0
APPID
  2
ASM_CADM_VER_12_00
 70
     0
  0
APPID
  2
ASM_BASEFORO
 70
     0
  0
APPID
  2
ASM_BASETRAVI
 70
     0
  0
APPID
  2
ASM_BASETRAVI1
 70
     0
  0
APPID
  2
ASM_GRUPPI
 70
     0
  0
APPID
  2
ASM_CADM_ALBERO
 70
     0
  0
APPID
  2
ASM_GOLE
 70
     0
  0
APPID
  2
ACAD_NAV_VCDISPLAY
 70
     0
  0
APPID
  2
GRADIENTCOLOR1ACI
 70
     0
  0
APPID
  2
GRADIENTCOLOR2ACI
 70
     0
  0
APPID
  2
ACAD_DSTYLE_DIMJAG
 70
     0
  0
APPID
  2
ACAD_DSTYLE_DIMTALN
 70
     0
  0
ENDTAB
  0
TABLE
  2
DIMSTYLE
 70
     1
  0
DIMSTYLE
  2
STANDARD
 70
     0
  3

  4

  5

  6

  7

 40
1.0
 41
0.18
 42
0.0625
 43
0.38
 44
0.18
 45
0.0
 46
0.0
 47
0.0
 48
0.0
140
0.18
141
0.09
142
0.0
143
25.399999999999999
144
1.0
145
0.0
146
1.0
147
0.09
 71
     0
 72
     0
 73
     1
 74
     1
 75
     0
 76
     0
 77
     0
 78
     0
170
     0
171
     2
172
     0
173
     0
174
     0
175
     0
176
     0
177
     0
178
     0
  0
ENDTAB
  0
ENDSEC
  0
SECTION
  2
BLOCKS
  0
BLOCK
  8
0
  2
$MODEL_SPACE
 70
     0
 10
0.0
 20
0.0
 30
0.0
  3
$MODEL_SPACE
  1

  0
ENDBLK
  5
15D
  8
0
  0
BLOCK
 67
     1
  8
0
  2
$PAPER_SPACE
 70
     0
 10
0.0
 20
0.0
 30
0.0
  3
$PAPER_SPACE
  1

  0
ENDBLK
  5
15B
 67
     1
  8
0
  0
ENDSEC
  0
SECTION
  2
ENTITIES
  0
LINE
  5
3BB6
  8
0
 10
201.2547011864753
 20
31.96278749466785
 30
0.0
 11
201.25470118647519
 21
104.1627817726219
 31
0.0
  0
LINE
  5
3BB8
  8
1
 10
201.33489936792751
 20
55.562787494667241
 30
0.0
 11
192.27450300502409
 21
55.562787494667241
 31
0.0
  0
LINE
  5
3BBE
  8
2
 10
192.3047011864758
 20
60.562787494667027
 30
0.0
 11
201.3047011864758
 21
60.562787494667027
 31
0.0
  0
ARC
  5
3BBF
  8
2
 10
192.3047011864758
 20
59.562787494667027
 30
0.0
 40
1.0
 50
90.0
 51
180.0
  0
ARC
  5
3BC0
  8
2
 10
201.3047011864758
 20
59.562787494667027
 30
0.0
 40
1.0
 50
0.0
 51
90.0
  0
ARC
  5
3BC1
  8
0
 10
201.3047011864758
 20
51.562787494667461
 30
0.0
 40
1.0
 50
270.0
 51
0.0
  0
ARC
  5
3BC2
  8
0
 10
192.3047011864758
 20
51.562787494667461
 30
0.0
 40
1.0
 50
180.0
 51
270.0
  0
LINE
  5
3BC3
  8
0
 10
192.3047011864758
 20
50.562787494667461
 30
0.0
 11
192.35470118647541
 21
50.562787494667461
 31
0.0
  0
LINE
  5
3BC4
  8
0
 10
191.3047011864758
 20
51.562787494667461
 30
0.0
 11
191.3047011864758
 21
84.562787494668157
 31
0.0
  0
LINE
  5
3BC5
  8
0
 10
192.3047011864758
 20
85.562787494668186
 30
0.0
 11
192.35470118647549
 21
85.562787494668186
 31
0.0
  0
LINE
  5
3BC6
  8
0
 10
202.3047011864758
 20
84.562787494668157
 30
0.0
 11
202.3047011864758
 21
51.562787494667461
 31
0.0
  0
ARC
  5
3BC7
  8
0
 10
192.3047011864758
 20
84.562787494668157
 30
0.0
 40
1.0
 50
90.0
 51
180.0
  0
ARC
  5
3BC8
  8
0
 10
201.3047011864758
 20
84.562787494668157
 30
0.0
 40
1.0
 50
0.0
 51
90.0
  0
ARC
  5
3BC9
  8
2
 10
201.3047011864758
 20
76.562787494668598
 30
0.0
 40
1.0
 50
270.0
 51
0.0
  0
ARC
  5
3BCA
  8
2
 10
192.3047011864758
 20
76.562787494668598
 30
0.0
 40
1.0
 50
180.0
 51
270.0
  0
LINE
  5
3BCB
  8
2
 10
192.3047011864758
 20
75.562787494668584
 30
0.0
 11
201.3047011864758
 21
75.562787494668584
 31
0.0
  0
LINE
  5
3BD3
  8
1
 10
201.33489936792751
 20
80.562787494668385
 30
0.0
 11
192.27450300502409
 21
80.562787494668385
 31
0.0
  0
LINE
  5
3BE6
  8
1
 10
203.6208554646087
 20
27.377787494667729
 30
0.0
 11
189.98854690834301
 21
27.377787494667729
 31
0.0
  0
LINE
  5
3BE7
  8
1
 10
203.6208554646087
 20
108.7477874946679
 30
0.0
 11
189.98854690834301
 21
108.7477874946679
 31
0.0
  0
LINE
  5
3BEF
  8
0
 10
192.35470118647541
 20
104.1627841910431
 30
0.0
 11
192.35470118647541
 21
31.96278749466785
 31
0.0
  0
LINE
  5
3BF0
  8
1
 10
196.80470118647591
 20
117.0627874946678
 30
0.0
 11
196.80470118647591
 21
19.062787494667809
 31
0.0
  0
LINE
  5
3BF1
  8
1
 10
207.3047011864758
 20
68.06278749466783
 30
0.0
 11
186.30470118647591
 21
68.06278749466783
 31
0.0
  0
LINE
  5
3BF8
  8
0
 10
201.25470118647539
 20
85.562787494668186
 30
0.0
 11
201.3047011864758
 21
85.562787494668186
 31
0.0
  0
LINE
  5
3BF9
  8
0
 10
201.2547011864753
 20
50.562787494667482
 30
0.0
 11
201.3047011864758
 21
50.562787494667461
 31
0.0
  0
TEXT
  5
3D0C
  8
0
 62
     3
 10
0.0
 20
0.0
 30
0.0
 40
10.0
  1
SIS516UU
  7
STANDARD1
  0
ARC
  5
4A0E
  8
0
 10
63.414417402110239
 20
108.0294934355155
 30
0.0
 40
5.1433999999999989
 50
229.9999718732077
 51
332.50002812679412
  0
ARC
  5
4A0F
  8
0
 10
56.204795574907791
 20
111.7825805073247
 30
0.0
 40
13.27139541460595
 50
332.50002812691889
 51
350.06796303833852
  0
ARC
  5
4A10
  8
0
 10
77.638434257029246
 20
108.0294608377328
 30
0.0
 40
8.48835583420224
 50
151.75647303206051
 51
170.06796303833849
  0
LINE
  5
4A11
  8
1
 10
71.364289497170887
 20
117.0627874946678
 30
0.0
 11
71.364289497170887
 21
19.062787494667759
 31
0.0
  0
LINE
  5
4A12
  8
1
 10
22.364289497170891
 20
68.062787494667816
 30
0.0
 11
120.3642894971709
 21
68.062787494667816
 31
0.0
  0
ARC
  5
4A18
  8
0
 10
184.3547011864764
 20
104.1627874946678
 30
0.0
 40
16.899999999999999
 50
359.99998060064632
 51
27.869261761964388
  0
ARC
  5
4A19
  8
0
 10
209.25470118647519
 20
104.1627874946678
 30
0.0
 40
16.899999999999999
 50
152.1307382380356
 51
180.00001120022279
  0
ARC
  5
4A1A
  8
0
 10
209.25470118647161
 20
31.962787494666419
 30
0.0
 40
16.89999999999614
 50
179.99999999999511
 51
207.86926176196579
  0
ARC
  5
4A1B
  8
0
 10
184.35470118649499
 20
31.96278749466077
 30
0.0
 40
16.899999999980309
 50
332.1307382380275
 51
0.0000000000240171
  0
CIRCLE
  5
4A5C
  8
5
 10
71.364289497170887
 20
68.062787494667816
 30
0.0
 40
40.685000000000088
  0
CIRCLE
  5
4A5D
  8
0
 10
71.364289497170887
 20
68.062787494667816
 30
0.0
 40
7.4999999999998721
  0
CIRCLE
  5
4A5E
  8
0
 10
71.364289497170887
 20
68.062787494667816
 30
0.0
 40
17.49999999999994
  0
ARC
  5
4A5F
  8
0
 10
111.3309954380186
 20
60.112915399607118
 30
0.0
 40
5.1433999999999989
 50
117.4999718732049
 51
220.0000281267929
  0
ARC
  5
4A60
  8
0
 10
111.3309628402358
 20
74.336932254526118
 30
0.0
 40
8.48835583420224
 50
279.93203696166108
 51
298.24352696793602
  0
ARC
  5
4A61
  8
0
 10
115.0840825098277
 20
52.903293572404657
 30
0.0
 40
13.27139541460595
 50
99.932036961661098
 51
117.49997187299979
  0
ARC
  5
4A62
  8
0
 10
111.3309628402359
 20
61.788642734809457
 30
0.0
 40
8.48835583420224
 50
61.756473032063987
 51
80.067963038338846
  0
ARC
  5
4A63
  8
0
 10
115.08408250982779
 20
83.222281416930855
 30
0.0
 40
13.27139541460595
 50
242.50002812691881
 51
260.0679630383388
  0
ARC
  5
4A64
  8
0
 10
111.3309954380186
 20
76.012659589728443
 30
0.0
 40
5.1433999999999989
 50
139.9999718732071
 51
242.500028126795
  0
ARC
  5
4A65
  8
0
 10
105.88766972953501
 20
89.153925157452235
 30
0.0
 40
8.48835583420224
 50
302.43203696166057
 51
320.7435269679371
  0
ARC
  5
4A66
  8
0
 10
117.5573985942839
 20
70.788081789034436
 30
0.0
 40
13.27139541460595
 50
122.4320369616606
 51
139.9999718729988
  0
ARC
  5
4A67
  8
0
 10
110.68969223325109
 20
77.560817302160217
 30
0.0
 40
8.48835583420224
 50
84.256473032063141
 51
102.56796303833779
  0
ARC
  5
4A68
  8
0
 10
105.9548242601051
 20
98.799174105050724
 30
0.0
 40
13.27139541460595
 50
265.00002812691781
 51
282.56796303833778
  0
ARC
  5
4A69
  8
0
 10
105.24642675761601
 20
90.702107819146804
 30
0.0
 40
5.1433999999999989
 50
162.4999718732079
 51
265.0000281267935
  0
ARC
  5
4A6A
  8
0
 10
95.188504933677834
 20
100.75998354285851
 30
0.0
 40
8.48835583420224
 50
324.93203696166091
 51
343.24352696793841
  0
ARC
  5
4A6B
  8
0
 10
112.99823256028129
 20
88.25796865420125
 30
0.0
 40
13.27139541460595
 50
144.93203696166091
 51
162.49997187300289
  0
ARC
  5
4A6C
  8
0
 10
104.06148554536161
 20
91.887002931174834
 30
0.0
 40
8.48835583420224
 50
106.75647303206151
 51
125.0679630383391
  0
ARC
  5
4A6D
  8
0
 10
91.559470656704264
 20
109.6967305577782
 30
0.0
 40
13.27139541460595
 50
287.50002812691832
 51
305.06796303833909
  0
ARC
  5
4A6E
  8
0
 10
94.003609821649832
 20
101.94492475511299
 30
0.0
 40
5.1433999999999989
 50
184.99997187320639
 51
287.50002812679531
  0
ARC
  5
4A6F
  8
0
 10
80.862319304663245
 20
107.38819023074799
 30
0.0
 40
8.48835583420224
 50
347.43203696166182
 51
5.7435269679367886
  0
ARC
  5
4A70
  8
0
 10
102.1006761075538
 20
102.6533222576021
 30
0.0
 40
13.27139541460595
 50
167.43203696166179
 51
184.99997187300369
  0
ARC
  5
4A71
  8
0
 10
92.455427159955306
 20
102.58616772703191
 30
0.0
 40
8.48835583420224
 50
129.25647303206139
 51
147.56796303833889
  0
ARC
  5
4A72
  8
0
 10
74.089583791537507
 20
114.2558965917808
 30
0.0
 40
13.27139541460595
 50
310.00002812691918
 51
327.56796303833892
  0
ARC
  5
4A73
  8
0
 10
79.314161592231471
 20
108.0294934355155
 30
0.0
 40
5.1433999999999989
 50
207.49997187320579
 51
310.00002812679242
  0
ARC
  5
4A74
  8
0
 10
65.090144737312514
 20
108.0294608377327
 30
0.0
 40
8.48835583420224
 50
9.9320369616614741
 51
28.243526967939498
  0
ARC
  5
4A75
  8
0
 10
86.523783419433926
 20
111.7825805073247
 30
0.0
 40
13.27139541460595
 50
189.9320369616614
 51
207.49997187300031
  0
ARC
  5
4A85
  8
0
 10
68.638995202804253
 20
114.2558965917808
 30
0.0
 40
13.27139541460595
 50
212.43203696166111
 51
229.9999718730808
  0
ARC
  5
4A86
  8
0
 10
50.273151834386447
 20
102.58616772703191
 30
0.0
 40
8.48835583420224
 50
32.43203696166109
 51
50.743526967938593
  0
ARC
  5
4A87
  8
0
 10
40.627902886788043
 20
102.6533222576021
 30
0.0
 40
13.27139541460595
 50
355.00002812699631
 51
12.56796303833821
  0
ARC
  5
4A88
  8
0
 10
61.866259689678543
 20
107.38819023074799
 30
0.0
 40
8.48835583420224
 50
174.25647303206321
 51
192.56796303833821
  0
ARC
  5
4A89
  8
0
 10
48.724969172691942
 20
101.94492475511299
 30
0.0
 40
5.1433999999999989
 50
252.4999718732046
 51
355.0000281267935
  0
ARC
  5
4A8A
  8
0
 10
51.16910833763751
 20
109.6967305577782
 30
0.0
 40
13.27139541460595
 50
234.9320369616608
 51
252.49997187308159
  0
ARC
  5
4A8B
  8
0
 10
38.667093448980211
 20
91.887002931174834
 30
0.0
 40
8.48835583420224
 50
54.932036961660863
 51
73.24352696793845
  0
ARC
  5
4A8C
  8
0
 10
29.73034643406044
 20
88.25796865420125
 30
0.0
 40
13.27139541460595
 50
17.50002812699703
 51
35.067963038339073
  0
ARC
  5
4A8D
  8
0
 10
47.540074060663919
 20
100.75998354285851
 30
0.0
 40
8.48835583420224
 50
196.75647303206159
 51
215.06796303833909
  0
ARC
  5
4A8E
  8
0
 10
37.482152236725767
 20
90.702107819146804
 30
0.0
 40
5.1433999999999989
 50
274.99997187320639
 51
17.500028126792131
  0
ARC
  5
4A8F
  8
0
 10
36.773754734236661
 20
98.799174105050724
 30
0.0
 40
13.27139541460595
 50
257.43203696166211
 51
274.99997187308207
  0
ARC
  5
4A90
  8
0
 10
32.038886761090737
 20
77.560817302160217
 30
0.0
 40
8.48835583420224
 50
77.432036961662106
 51
95.743526967936816
  0
ARC
  5
4A91
  8
0
 10
25.171180400057828
 20
70.788081789034436
 30
0.0
 40
13.27139541460595
 50
40.000028127001137
 51
57.567963038339393
  0
ARC
  5
4A92
  8
0
 10
36.840909264806733
 20
89.153925157452235
 30
0.0
 40
8.48835583420224
 50
219.25647303206301
 51
237.5679630383394
  0
ARC
  5
4A93
  8
0
 10
31.397583556323241
 20
76.012659589728443
 30
0.0
 40
5.1433999999999989
 50
297.4999718732048
 51
40.000028126792898
  0
ARC
  5
4A94
  8
0
 10
27.64449648451404
 20
83.222281416930855
 30
0.0
 40
13.27139541460595
 50
279.93203696166108
 51
297.49997187308122
  0
ARC
  5
4A95
  8
0
 10
31.39761615410595
 20
61.788642734809457
 30
0.0
 40
8.48835583420224
 50
99.932036961661098
 51
118.24352696793601
  0
ARC
  5
4A96
  8
0
 10
27.64449648451404
 20
52.903293572404657
 30
0.0
 40
13.27139541460595
 50
62.500028127000171
 51
80.067963038338846
  0
ARC
  5
4A97
  8
0
 10
31.39761615410595
 20
74.336932254526118
 30
0.0
 40
8.48835583420224
 50
241.75647303206401
 51
260.0679630383388
  0
ARC
  5
4A98
  8
0
 10
31.397583556323241
 20
60.112915399607118
 30
0.0
 40
5.1433999999999989
 50
319.99997187320707
 51
62.500028126795108
  0
ARC
  5
4A99
  8
0
 10
36.840909264806733
 20
46.971649831883319
 30
0.0
 40
8.48835583420224
 50
122.4320369616606
 51
140.74352696793699
  0
ARC
  5
4A9A
  8
0
 10
25.171180400057828
 20
65.337493200301139
 30
0.0
 40
13.27139541460595
 50
302.43203696166057
 51
319.9999718729988
  0
ARC
  5
4A9B
  8
0
 10
32.038886761090737
 20
58.564757687175408
 30
0.0
 40
8.48835583420224
 50
264.25647303206318
 51
282.56796303833778
  0
ARC
  5
4A9C
  8
0
 10
36.773754734236661
 20
37.326400884284851
 30
0.0
 40
13.27139541460595
 50
85.00002812691784
 51
102.56796303833779
  0
ARC
  5
4A9D
  8
0
 10
37.482152236725767
 20
45.423467170188808
 30
0.0
 40
5.1433999999999989
 50
342.49997187320793
 51
85.000028126793595
  0
ARC
  5
4A9E
  8
0
 10
47.540074060663919
 20
35.365591446477083
 30
0.0
 40
8.48835583420224
 50
144.93203696166091
 51
163.24352696793829
  0
ARC
  5
4A9F
  8
0
 10
29.73034643406044
 20
47.867606335134383
 30
0.0
 40
13.27139541460595
 50
324.93203696166091
 51
342.49997187300289
  0
ARC
  5
4AA0
  8
0
 10
38.667093448980211
 20
44.238572058160791
 30
0.0
 40
8.48835583420224
 50
286.75647303206148
 51
305.06796303833909
  0
ARC
  5
4AA1
  8
0
 10
51.16910833763751
 20
26.428844431557369
 30
0.0
 40
13.27139541460595
 50
107.50002812691829
 51
125.0679630383391
  0
ARC
  5
4AA2
  8
0
 10
48.724969172691942
 20
34.180650234222639
 30
0.0
 40
5.1433999999999989
 50
4.9999718732064462
 51
107.5000281267953
  0
ARC
  5
4AA3
  8
0
 10
61.866259689678543
 20
28.737384758587609
 30
0.0
 40
8.48835583420224
 50
167.43203696166179
 51
185.74352696793679
  0
ARC
  5
4AA4
  8
0
 10
40.627902886788043
 20
33.472252731733477
 30
0.0
 40
13.27139541460595
 50
347.43203696166182
 51
4.999971873003747
  0
ARC
  5
4AA5
  8
0
 10
50.273151834386447
 20
33.539407262303598
 30
0.0
 40
8.48835583420224
 50
309.25647303206142
 51
327.56796303833892
  0
ARC
  5
4AA6
  8
0
 10
68.638995202804253
 20
21.869678397554761
 30
0.0
 40
13.27139541460595
 50
130.0000281269192
 51
147.56796303833889
  0
ARC
  5
4AA7
  8
0
 10
86.523783419433926
 20
24.342994482010909
 30
0.0
 40
13.27139541460595
 50
152.50002812699969
 51
170.06796303833849
  0
ARC
  5
4AA8
  8
0
 10
65.090144737312514
 20
28.096114151602819
 30
0.0
 40
8.48835583420224
 50
331.75647303206051
 51
350.06796303833852
  0
ARC
  5
4AA9
  8
0
 10
79.314161592231471
 20
28.09608155382012
 30
0.0
 40
5.1433999999999989
 50
49.99997187320762
 51
152.50002812679409
  0
ARC
  5
4AAA
  8
0
 10
74.089583791537507
 20
21.869678397554761
 30
0.0
 40
13.27139541460595
 50
32.43203696166109
 51
49.999971873080817
  0
ARC
  5
4AAB
  8
0
 10
92.455427159955306
 20
33.539407262303598
 30
0.0
 40
8.48835583420224
 50
212.43203696166111
 51
230.74352696793861
  0
ARC
  5
4AAC
  8
0
 10
102.1006761075538
 20
33.472252731733477
 30
0.0
 40
13.27139541460595
 50
175.0000281269962
 51
192.56796303833821
  0
ARC
  5
4AAD
  8
0
 10
80.862319304663245
 20
28.737384758587609
 30
0.0
 40
8.48835583420224
 50
354.25647303206318
 51
12.56796303833821
  0
ARC
  5
4AAE
  8
0
 10
94.003609821649832
 20
34.180650234222639
 30
0.0
 40
5.1433999999999989
 50
72.499971873204629
 51
175.0000281267935
  0
ARC
  5
4AAF
  8
0
 10
91.559470656704264
 20
26.428844431557369
 30
0.0
 40
13.27139541460595
 50
54.932036961660842
 51
72.499971873081705
  0
ARC
  5
4AB0
  8
0
 10
104.06148554536161
 20
44.238572058160791
 30
0.0
 40
8.48835583420224
 50
234.9320369616608
 51
253.24352696793849
  0
ARC
  5
4AB1
  8
0
 10
112.99823256028129
 20
47.867606335134383
 30
0.0
 40
13.27139541460595
 50
197.50002812699699
 51
215.06796303833909
  0
ARC
  5
4AB2
  8
0
 10
95.188504933677834
 20
35.365591446477083
 30
0.0
 40
8.48835583420224
 50
16.75647303206166
 51
35.067963038339073
  0
ARC
  5
4AB3
  8
0
 10
105.24642675761601
 20
45.423467170188808
 30
0.0
 40
5.1433999999999989
 50
94.999971873206377
 51
197.5000281267921
  0
ARC
  5
4AB4
  8
0
 10
105.9548242601051
 20
37.326400884284851
 30
0.0
 40
13.27139541460595
 50
77.432036961662106
 51
94.999971873082146
  0
ARC
  5
4AB5
  8
0
 10
110.68969223325109
 20
58.564757687175408
 30
0.0
 40
8.48835583420224
 50
257.43203696166211
 51
275.74352696793682
  0
ARC
  5
4AB6
  8
0
 10
117.5573985942839
 20
65.337493200301139
 30
0.0
 40
13.27139541460595
 50
220.00002812700109
 51
237.5679630383394
  0
ARC
  5
4AB7
  8
0
 10
105.88766972953501
 20
46.971649831883319
 30
0.0
 40
8.48835583420224
 50
39.256473032062992
 51
57.567963038339393
  0
ARC
  5
4AB8
  8
0
 10
77.638434257029246
 20
28.096114151602819
 30
0.0
 40
8.48835583420224
 50
189.9320369616614
 51
208.24352696793949
  0
ARC
  5
4AB9
  8
0
 10
56.204795574907791
 20
24.342994482010909
 30
0.0
 40
13.27139541460595
 50
9.9320369616614741
 51
27.499971873081041
  0
ARC
  5
4ABA
  8
0
 10
63.414417402110239
 20
28.09608155382012
 30
0.0
 40
5.1433999999999989
 50
27.499971873205858
 51
130.0000281267923
  0
ARC
  5
4B21
  8
0
 10
71.364289497170887
 20
68.062787494667816
 30
0.0
 40
44.0
 50
88.432474334238705
 51
91.567525665761295
  0
ARC
  5
4B22
  8
0
 10
71.364289497170887
 20
68.062787494667816
 30
0.0
 40
44.0
 50
110.9324743342363
 51
114.06752566576159
  0
ARC
  5
4B23
  8
0
 10
71.364289497170887
 20
68.062787494667816
 30
0.0
 40
44.0
 50
133.43247433423679
 51
136.5675256657612
  0
ARC
  5
4B24
  8
0
 10
71.364289497170887
 20
68.062787494667816
 30
0.0
 40
44.0
 50
155.9324743342379
 51
159.06752566576299
  0
ARC
  5
4B25
  8
0
 10
71.364289497170887
 20
68.062787494667816
 30
0.0
 40
44.0
 50
178.43247433423869
 51
181.5675256657612
  0
ARC
  5
4B26
  8
0
 10
71.364289497170887
 20
68.062787494667816
 30
0.0
 40
44.0
 50
200.93247433423701
 51
204.0675256657621
  0
ARC
  5
4B27
  8
0
 10
71.364289497170887
 20
68.062787494667816
 30
0.0
 40
44.0
 50
223.4324743342388
 51
226.5675256657631
  0
ARC
  5
4B28
  8
0
 10
71.364289497170887
 20
68.062787494667816
 30
0.0
 40
44.0
 50
245.93247433423741
 51
249.06752566576361
  0
ARC
  5
4B29
  8
0
 10
71.364289497170887
 20
68.062787494667816
 30
0.0
 40
44.0
 50
268.43247433423869
 51
271.56752566576131
  0
ARC
  5
4B2A
  8
0
 10
71.364289497170887
 20
68.062787494667816
 30
0.0
 40
44.0
 50
290.9324743342363
 51
294.06752566576171
  0
ARC
  5
4B2B
  8
0
 10
71.364289497170887
 20
68.062787494667816
 30
0.0
 40
44.0
 50
313.43247433423682
 51
316.5675256657612
  0
ARC
  5
4B2C
  8
0
 10
71.364289497170887
 20
68.062787494667816
 30
0.0
 40
44.0
 50
335.93247433423801
 51
339.06752566576301
  0
ARC
  5
4B2D
  8
0
 10
71.364289497170887
 20
68.062787494667816
 30
0.0
 40
44.0
 50
358.4324743342388
 51
1.5675256657612531
  0
ARC
  5
4B2E
  8
0
 10
71.364289497170887
 20
68.062787494667816
 30
0.0
 40
44.0
 50
20.932474334236979
 51
24.067525665762052
  0
ARC
  5
4B2F
  8
0
 10
71.364289497170887
 20
68.062787494667816
 30
0.0
 40
44.0
 50
43.432474334238783
 51
46.567525665763178
  0
ARC
  5
4B30
  8
0
 10
71.364289497170887
 20
68.062787494667816
 30
0.0
 40
44.0
 50
65.932474334237398
 51
69.067525665763625
  0
LINE
  5
4B31
  8
0
 10
194.31482166888861
 20
24.06278749466782
 30
0.0
 11
199.29458070406301
 21
24.06278749466782
 31
0.0
  0
LINE
  5
4B32
  8
0
 10
194.31482166888881
 20
112.0627874946678
 30
0.0
 11
199.29458070406281
 21
112.0627874946678
 31
0.0
  0
ENDSEC
  0
EOF
