  0
SECTION
  2
HEADER
  9
$ACADVER
  1
AC1009
  9
$INSBASE
 10
0.0
 20
0.0
 30
0.0
  9
$EXTMIN
 10
0.0
 20
-2.960436562073669
 30
0.0
  9
$EXTMAX
 10
198.09131882685591
 20
120.1812427213065
 30
0.0
  9
$LIMMIN
 10
0.0
 20
0.0
  9
$LIMMAX
 10
385.0
 20
270.0
  9
$ORTHOMODE
 70
     1
  9
$REGENMODE
 70
     1
  9
$FILLMODE
 70
     1
  9
$QTEXTMODE
 70
     0
  9
$MIRRTEXT
 70
     0
  9
$DRAGMODE
 70
     2
  9
$LTSCALE
 40
10.0
  9
$OSMODE
 70
    37
  9
$ATTMODE
 70
     1
  9
$TEXTSIZE
 40
4.0
  9
$TRACEWID
 40
0.05
  9
$TEXTSTYLE
  7
STANDARD
  9
$CLAYER
  8
0
  9
$CELTYPE
  6
BYLAYER
  9
$CECOLOR
 62
   256
  9
$DIMSCALE
 40
1.0
  9
$DIMASZ
 40
3.0
  9
$DIMEXO
 40
1.0
  9
$DIMDLI
 40
6.0
  9
$DIMRND
 40
0.0
  9
$DIMDLE
 40
0.0
  9
$DIMEXE
 40
1.0
  9
$DIMTP
 40
495.0
  9
$DIMTM
 40
0.0
  9
$DIMTXT
 40
3.0
  9
$DIMCEN
 40
0.0
  9
$DIMTSZ
 40
0.0
  9
$DIMTOL
 70
     0
  9
$DIMLIM
 70
     0
  9
$DIMTIH
 70
     0
  9
$DIMTOH
 70
     0
  9
$DIMSE1
 70
     0
  9
$DIMSE2
 70
     0
  9
$DIMTAD
 70
     1
  9
$DIMZIN
 70
     0
  9
$DIMBLK
  1

  9
$DIMASO
 70
     0
  9
$DIMSHO
 70
     0
  9
$DIMPOST
  1

  9
$DIMAPOST
  1

  9
$DIMALT
 70
     0
  9
$DIMALTD
 70
     2
  9
$DIMALTF
 40
25.399999999999999
  9
$DIMLFAC
 40
1.0
  9
$DIMTOFL
 70
     1
  9
$DIMTVP
 40
0.0
  9
$DIMTIX
 70
     1
  9
$DIMSOXD
 70
     0
  9
$DIMSAH
 70
     0
  9
$DIMBLK1
  1

  9
$DIMBLK2
  1

  9
$DIMSTYLE
  2
STANDARD
  9
$DIMCLRD
 70
     0
  9
$DIMCLRE
 70
     0
  9
$DIMCLRT
 70
     0
  9
$DIMTFAC
 40
1.0
  9
$DIMGAP
 40
0.09
  9
$LUNITS
 70
     2
  9
$LUPREC
 70
     1
  9
$SKETCHINC
 40
0.1
  9
$FILLETRAD
 40
0.8
  9
$AUNITS
 70
     0
  9
$AUPREC
 70
     0
  9
$MENU
  1
E:\r13\win\SUPPORT\ACAD
  9
$ELEVATION
 40
0.0
  9
$PELEVATION
 40
0.0
  9
$THICKNESS
 40
0.0
  9
$LIMCHECK
 70
     0
  9
$BLIPMODE
 70
     0
  9
$CHAMFERA
 40
0.5
  9
$CHAMFERB
 40
0.5
  9
$SKPOLY
 70
     0
  9
$TDCREATE
 40
2449920.4263670142
  9
$TDUPDATE
 40
2459690.5085966322
  9
$TDINDWG
 40
0.0879623032
  9
$TDUSRTIMER
 40
0.0879623032
  9
$USRTIMER
 70
     1
  9
$ANGBASE
 50
0.0
  9
$ANGDIR
 70
     0
  9
$PDMODE
 70
     0
  9
$PDSIZE
 40
0.0
  9
$PLINEWID
 40
0.0
  9
$COORDS
 70
     1
  9
$SPLFRAME
 70
     0
  9
$SPLINETYPE
 70
     6
  9
$SPLINESEGS
 70
     8
  9
$ATTDIA
 70
     0
  9
$ATTREQ
 70
     1
  9
$HANDLING
 70
     1
  9
$HANDSEED
  5
1426
  9
$SURFTAB1
 70
     6
  9
$SURFTAB2
 70
     6
  9
$SURFTYPE
 70
     6
  9
$SURFU
 70
     6
  9
$SURFV
 70
     6
  9
$UCSNAME
  2

  9
$UCSORG
 10
0.0
 20
0.0
 30
0.0
  9
$UCSXDIR
 10
1.0
 20
0.0
 30
0.0
  9
$UCSYDIR
 10
0.0
 20
1.0
 30
0.0
  9
$PUCSNAME
  2

  9
$PUCSORG
 10
0.0
 20
0.0
 30
0.0
  9
$PUCSXDIR
 10
1.0
 20
0.0
 30
0.0
  9
$PUCSYDIR
 10
0.0
 20
1.0
 30
0.0
  9
$USERI1
 70
     3
  9
$USERI2
 70
     1
  9
$USERI3
 70
     0
  9
$USERI4
 70
     0
  9
$USERI5
 70
     0
  9
$USERR1
 40
1.0
  9
$USERR2
 40
3.0
  9
$USERR3
 40
3.0
  9
$USERR4
 40
3.0
  9
$USERR5
 40
10.0
  9
$WORLDVIEW
 70
     1
  9
$SHADEDGE
 70
     3
  9
$SHADEDIF
 70
    70
  9
$TILEMODE
 70
     1
  9
$MAXACTVP
 70
    16
  9
$PLIMCHECK
 70
     0
  9
$PEXTMIN
 10
1.0000000000000000E+020
 20
1.0000000000000000E+020
 30
1.0000000000000000E+020
  9
$PEXTMAX
 10
-1.0000000000000000E+020
 20
-1.0000000000000000E+020
 30
-1.0000000000000000E+020
  9
$PLIMMIN
 10
0.0
 20
0.0
  9
$PLIMMAX
 10
12.0
 20
9.0
  9
$UNITMODE
 70
     0
  9
$VISRETAIN
 70
     0
  9
$PLINEGEN
 70
     0
  9
$PSLTSCALE
 70
     0
  0
ENDSEC
  0
SECTION
  2
TABLES
  0
TABLE
  2
VPORT
 70
     1
  0
VPORT
  2
*ACTIVE
 70
     0
 10
0.0
 20
0.0
 11
1.0
 21
1.0
 12
241.48802017654481
 22
100.0
 13
0.0
 23
0.0
 14
10.0
 24
10.0
 15
10.0
 25
10.0
 16
0.0
 26
0.0
 36
1.0
 17
0.0
 27
0.0
 37
0.0
 40
200.0
 41
2.4148802017654472
 42
50.0
 43
0.0
 44
0.0
 50
0.0
 51
0.0
 71
     0
 72
   100
 73
     1
 74
     0
 75
     0
 76
     0
 77
     0
 78
     0
  0
ENDTAB
  0
TABLE
  2
LTYPE
 70
     5
  0
LTYPE
  2
CONTINUOUS
 70
     0
  3
Solid Line
 72
    65
 73
     0
 40
0.0
  0
LTYPE
  2
CENTER
 70
     0
  3
____ _ ____ _ ____ _ ____ _ ____ _ ____ _ ____
 72
    65
 73
     4
 40
2.0
 49
1.25
 49
-0.25
 49
0.25
 49
-0.25
  0
LTYPE
  2
HIDDEN
 70
     0
  3
_ _ _ _ _ _ _ _ _ _ _ _ _ _ _ _ _ _ _ _ _ _ _
 72
    65
 73
     2
 40
0.375
 49
0.25
 49
-0.125
  0
LTYPE
  2
PHANTOM
 70
     0
  3
_____ _ _ _____ _ _ _____ _ _ _____ _ _ ____
 72
    65
 73
     6
 40
2.5
 49
1.25
 49
-0.25
 49
0.25
 49
-0.25
 49
0.25
 49
-0.25
  0
LTYPE
  2
PHANTOM2
 70
     0
  3
___ _ _ ___ _ _ ___ _ _ ___ _ _
 72
    65
 73
     6
 40
1.25
 49
0.625
 49
-0.125
 49
0.125
 49
-0.125
 49
0.125
 49
-0.125
  0
ENDTAB
  0
TABLE
  2
LAYER
 70
     5
  0
LAYER
  2
0
 70
     0
 62
     7
  6
CONTINUOUS
  0
LAYER
  2
1
 70
     0
 62
     1
  6
CENTER
  0
LAYER
  2
2
 70
     0
 62
     2
  6
HIDDEN
  0
LAYER
  2
5
 70
     0
 62
     3
  6
PHANTOM
  0
LAYER
  2
DEFPOINTS
 70
     0
 62
     7
  6
CONTINUOUS
  0
ENDTAB
  0
TABLE
  2
STYLE
 70
     2
  0
STYLE
  2
STANDARD
 70
     0
 40
0.0
 41
1.0
 50
0.0
 71
     0
 42
4.0
  3
simplex
  4
bigfont
  0
STYLE
  2
STANDARD1
 70
     0
 40
0.0
 41
1.0
 50
0.0
 71
     0
 42
3.0
  3
txt
  4

  0
ENDTAB
  0
TABLE
  2
VIEW
 70
     0
  0
ENDTAB
  0
TABLE
  2
UCS
 70
     0
  0
ENDTAB
  0
TABLE
  2
APPID
 70
    34
  0
APPID
  2
ACAD
 70
     0
  0
APPID
  2
ACAD_MLEADERVER
 70
     0
  0
APPID
  2
DCO15
 70
     0
  0
APPID
  2
GENIUS_GENOREF_13
 70
     0
  0
APPID
  2
GENIUS_GENOENT_13
 70
     0
  0
APPID
  2
GENIUS_GENBH_13
 70
     0
  0
APPID
  2
GENIUS_GENOBJ_13
 70
     0
  0
APPID
  2
GENIUS_GENODEF_13
 70
     0
  0
APPID
  2
GENIUS_GENOLIS_13
 70
     0
  0
APPID
  2
GENIUS_GENOBJ-NBEHI-BHF_13
 70
     0
  0
APPID
  2
GENIUS_GENOBJ-NBEHI-BHB_13
 70
     0
  0
APPID
  2
GENIUS_GENOBJ-F-PART_13
 70
     0
  0
APPID
  2
GENIUS_GEFSTDP_13
 70
     0
  0
APPID
  2
GENIUS_GENOBJ-N-RSSYM_13
 70
     0
  0
APPID
  2
GENIUS_GENSYMENT_13
 70
     0
  0
APPID
  2
GENIUS_GENOBJ-N-TIT_13
 70
     0
  0
APPID
  2
GENIUS_GENTITLE_13
 70
     0
  0
APPID
  2
GENIUS_GENZVEED_13
 70
     0
  0
APPID
  2
GENIUS_GENOBJ-N-LEADER_13
 70
     0
  0
APPID
  2
GENIUS_GENOBJ-N-FIL_13
 70
     0
  0
APPID
  2
GENIUS_GENOBJ-N-SEC_13
 70
     0
  0
APPID
  2
GENIUS_GENOBJ-N-CRS_13
 70
     0
  0
APPID
  2
GENIUS_GENOBJ-N-ZOO_13
 70
     0
  0
APPID
  2
GENIUS_GENZOO_13
 70
     0
  0
APPID
  2
GENIUS_GENOBJ-F-TOL_13
 70
     0
  0
APPID
  2
GENIUS_GENFIL_13
 70
     0
  0
APPID
  2
GENIUS_GENOBJ-N-CHA_13
 70
     0
  0
APPID
  2
ACAD_NAV_VCDISPLAY
 70
     0
  0
APPID
  2
GRADIENTCOLOR1ACI
 70
     0
  0
APPID
  2
GRADIENTCOLOR2ACI
 70
     0
  0
APPID
  2
ACAD_EXEMPT_FROM_CAD_STANDARDS
 70
     0
  0
APPID
  2
ACAD_DSTYLE_DIMRADIAL_EXTENSION
 70
     0
  0
APPID
  2
ACAD_DSTYLE_DIMJAG
 70
     0
  0
APPID
  2
ACAD_DSTYLE_DIMTALN
 70
     0
  0
ENDTAB
  0
TABLE
  2
DIMSTYLE
 70
     1
  0
DIMSTYLE
  2
STANDARD
 70
     0
  3

  4

  5

  6

  7

 40
1.0
 41
0.18
 42
0.0625
 43
0.38
 44
0.18
 45
0.0
 46
0.0
 47
0.0
 48
0.0
140
0.18
141
0.09
142
0.0
143
25.399999999999999
144
1.0
145
0.0
146
1.0
147
0.09
 71
     0
 72
     0
 73
     1
 74
     1
 75
     0
 76
     0
 77
     0
 78
     0
170
     0
171
     2
172
     0
173
     0
174
     0
175
     0
176
     0
177
     0
178
     0
  0
ENDTAB
  0
ENDSEC
  0
SECTION
  2
BLOCKS
  0
BLOCK
  8
0
  2
$MODEL_SPACE
 70
     0
 10
0.0
 20
0.0
 30
0.0
  3
$MODEL_SPACE
  1

  0
ENDBLK
  5
148
  8
0
  0
BLOCK
 67
     1
  8
0
  2
$PAPER_SPACE
 70
     0
 10
0.0
 20
0.0
 30
0.0
  3
$PAPER_SPACE
  1

  0
ENDBLK
  5
146
 67
     1
  8
0
  0
ENDSEC
  0
SECTION
  2
ENTITIES
  0
LINE
  5
419
  8
0
 10
183.14131882685541
 20
107.2812427213064
 30
0.0
 11
183.14131882685541
 21
35.081248974967203
 31
0.0
  0
LINE
  5
41A
  8
1
 10
192.12151700830771
 20
58.681242721305857
 30
0.0
 11
183.0611206454042
 21
58.681242721305857
 31
0.0
  0
LINE
  5
420
  8
2
 10
183.09131882685591
 20
63.681242721305694
 30
0.0
 11
192.091318826856
 21
63.681242721305694
 31
0.0
  0
ARC
  5
421
  8
2
 10
183.09131882685591
 20
62.681242721305694
 30
0.0
 40
1.0
 50
90.0
 51
180.0
  0
ARC
  5
422
  8
2
 10
192.091318826856
 20
62.681242721305694
 30
0.0
 40
1.0
 50
0.0
 51
90.0
  0
ARC
  5
423
  8
0
 10
192.091318826856
 20
54.681242721306091
 30
0.0
 40
1.0
 50
270.0
 51
0.0
  0
ARC
  5
424
  8
0
 10
183.09131882685591
 20
54.681242721306091
 30
0.0
 40
1.0
 50
180.0
 51
270.0
  0
LINE
  5
425
  8
0
 10
183.09131882685591
 20
53.681242721306091
 30
0.0
 11
183.14131882685541
 21
53.681242721306091
 31
0.0
  0
LINE
  5
426
  8
0
 10
182.09131882685591
 20
54.681242721306091
 30
0.0
 11
182.09131882685591
 21
87.681242721306816
 31
0.0
  0
LINE
  5
427
  8
0
 10
183.09131882685591
 20
88.681242721306845
 30
0.0
 11
183.14131882685541
 21
88.681242721306802
 31
0.0
  0
LINE
  5
428
  8
0
 10
193.09131882685591
 20
87.681242721306816
 30
0.0
 11
193.09131882685591
 21
54.681242721306091
 31
0.0
  0
ARC
  5
429
  8
0
 10
183.09131882685591
 20
87.681242721306816
 30
0.0
 40
1.0
 50
90.0
 51
180.0
  0
ARC
  5
42A
  8
0
 10
192.091318826856
 20
87.681242721306816
 30
0.0
 40
1.0
 50
0.0
 51
90.0
  0
ARC
  5
42B
  8
2
 10
192.091318826856
 20
79.681242721307214
 30
0.0
 40
1.0
 50
270.0
 51
0.0
  0
ARC
  5
42C
  8
2
 10
183.09131882685591
 20
79.681242721307214
 30
0.0
 40
1.0
 50
180.0
 51
270.0
  0
LINE
  5
42D
  8
2
 10
183.09131882685591
 20
78.681242721307228
 30
0.0
 11
192.091318826856
 21
78.681242721307228
 31
0.0
  0
LINE
  5
435
  8
1
 10
192.12151700830771
 20
83.681242721307044
 30
0.0
 11
183.0611206454042
 21
83.681242721307044
 31
0.0
  0
LINE
  5
448
  8
1
 10
194.4074747178816
 20
30.49624272130638
 30
0.0
 11
180.77516293583031
 21
30.496242721306359
 31
0.0
  0
LINE
  5
449
  8
1
 10
194.4074747178816
 20
111.86624272130661
 30
0.0
 11
180.77516293583031
 21
111.86624272130661
 31
0.0
  0
LINE
  5
450
  8
0
 10
192.04131882685539
 20
35.081248974967203
 30
0.0
 11
192.04131882685539
 21
107.2812427213064
 31
0.0
  0
LINE
  5
452
  8
1
 10
187.591318826856
 20
120.1812427213064
 30
0.0
 11
187.591318826856
 21
22.181242721306489
 31
0.0
  0
LINE
  5
453
  8
1
 10
198.09131882685591
 20
71.181242721306489
 30
0.0
 11
177.091318826856
 21
71.181242721306489
 31
0.0
  0
LINE
  5
460
  8
0
 10
192.04131882685539
 20
88.681242721306845
 30
0.0
 11
192.091318826856
 21
88.681242721306845
 31
0.0
  0
LINE
  5
461
  8
0
 10
192.04131882685539
 20
53.681242721306091
 30
0.0
 11
192.091318826856
 21
53.681242721306091
 31
0.0
  0
TEXT
  5
572
  8
0
 62
     3
 10
0.0
 20
0.0
 30
0.0
 40
10.0
  1
SIS516
  7
STANDARD1
  0
ARC
  5
126D
  8
0
 10
59.425612843184354
 20
117.3743518184195
 30
0.0
 40
13.27139541460595
 50
212.43203696166111
 51
229.99997187300301
  0
ARC
  5
126E
  8
0
 10
54.201035042490389
 20
111.14794866215411
 30
0.0
 40
5.1433999999999989
 50
229.9999718732077
 51
332.50002812679412
  0
ARC
  5
126F
  8
0
 10
46.991413215287928
 20
114.9010357339633
 30
0.0
 40
13.27139541460595
 50
332.50002812691901
 51
350.06796303833852
  0
ARC
  5
1270
  8
0
 10
68.425051897409389
 20
111.1479160643714
 30
0.0
 40
8.48835583420224
 50
151.75647303206051
 51
170.06796303833849
  0
LINE
  5
1271
  8
1
 10
62.15090713755103
 20
120.1812427213065
 30
0.0
 11
62.15090713755103
 21
22.181242721306429
 31
0.0
  0
LINE
  5
1272
  8
1
 10
13.15090713755103
 20
71.181242721306489
 30
0.0
 11
111.150907137551
 21
71.181242721306489
 31
0.0
  0
ARC
  5
1278
  8
0
 10
175.1413188268566
 20
107.2812484433524
 30
0.0
 40
16.899999999999999
 50
359.99998060064632
 51
27.86923981740695
  0
ARC
  5
1279
  8
0
 10
200.0413188268553
 20
107.2812484433524
 30
0.0
 40
16.899999999999999
 50
152.13076018259301
 51
180.00001939935399
  0
ARC
  5
127A
  8
0
 10
200.0413188268553
 20
35.081236467645788
 30
0.0
 40
16.899999999999999
 50
179.99995759664321
 51
207.8692377786152
  0
ARC
  5
127B
  8
0
 10
175.1413188268566
 20
35.081236467645788
 30
0.0
 40
16.899999999999999
 50
332.13076222138483
 51
0.0000424033567621
  0
CIRCLE
  5
12BC
  8
5
 10
62.15090713755103
 20
71.181242721306489
 30
0.0
 40
40.685000000000088
  0
CIRCLE
  5
12BD
  8
0
 10
62.15090713755103
 20
71.181242721306489
 30
0.0
 40
7.4999999999998721
  0
CIRCLE
  5
12BE
  8
0
 10
62.15090713755103
 20
71.181242721306489
 30
0.0
 40
17.49999999999994
  0
ARC
  5
12BF
  8
0
 10
102.1176130783987
 20
63.231370626245791
 30
0.0
 40
5.1433999999999989
 50
117.4999718732049
 51
220.0000281267929
  0
ARC
  5
12C0
  8
0
 10
102.1175804806159
 20
77.455387481164792
 30
0.0
 40
8.48835583420224
 50
279.93203696166108
 51
298.24352696793602
  0
ARC
  5
12C1
  8
0
 10
105.8707001502078
 20
56.021748799043337
 30
0.0
 40
13.27139541460595
 50
99.932036961661098
 51
117.49997187299979
  0
ARC
  5
12C2
  8
0
 10
102.117580480616
 20
64.90709796144813
 30
0.0
 40
8.48835583420224
 50
61.756473032064001
 51
80.067963038338846
  0
ARC
  5
12C3
  8
0
 10
105.8707001502079
 20
86.340736643569585
 30
0.0
 40
13.27139541460595
 50
242.50002812691881
 51
260.0679630383388
  0
ARC
  5
12C4
  8
0
 10
102.1176130783987
 20
79.131114816367131
 30
0.0
 40
5.1433999999999989
 50
139.9999718732071
 51
242.50002812679509
  0
ARC
  5
12C5
  8
0
 10
96.674287369915191
 20
92.272380384090965
 30
0.0
 40
8.48835583420224
 50
302.43203696166057
 51
320.7435269679371
  0
ARC
  5
12C6
  8
0
 10
108.344016234664
 20
73.906537015673166
 30
0.0
 40
13.27139541460595
 50
122.4320369616606
 51
139.9999718729988
  0
ARC
  5
12C7
  8
0
 10
101.47630987363119
 20
80.679272528798876
 30
0.0
 40
8.48835583420224
 50
84.256473032063141
 51
102.56796303833779
  0
ARC
  5
12C8
  8
0
 10
96.741441900485313
 20
101.9176293316894
 30
0.0
 40
13.27139541460595
 50
265.00002812691781
 51
282.56796303833778
  0
ARC
  5
12C9
  8
0
 10
96.033044397996221
 20
93.820563045785491
 30
0.0
 40
5.1433999999999989
 50
162.4999718732079
 51
265.0000281267935
  0
ARC
  5
12CA
  8
0
 10
85.975122574057991
 20
103.87843876949709
 30
0.0
 40
8.48835583420224
 50
324.93203696166091
 51
343.24352696793841
  0
ARC
  5
12CB
  8
0
 10
103.7848502006615
 20
91.376423880839923
 30
0.0
 40
13.27139541460595
 50
144.93203696166091
 51
162.49997187300289
  0
ARC
  5
12CC
  8
0
 10
94.848103185741763
 20
95.005458157813493
 30
0.0
 40
8.48835583420224
 50
106.75647303206151
 51
125.0679630383375
  0
ARC
  5
12CD
  8
0
 10
82.346088297084407
 20
112.8151857844169
 30
0.0
 40
13.27139541460595
 50
287.50002812691832
 51
305.0679630383375
  0
ARC
  5
12CE
  8
0
 10
84.790227462029975
 20
105.06337998175159
 30
0.0
 40
5.1433999999999989
 50
184.99997187320639
 51
287.50002812679531
  0
ARC
  5
12CF
  8
0
 10
71.648936945043374
 20
110.5066454573866
 30
0.0
 40
8.48835583420224
 50
347.43203696166182
 51
5.7435269679367886
  0
ARC
  5
12D0
  8
0
 10
92.887293747933938
 20
105.7717774842408
 30
0.0
 40
13.27139541460595
 50
167.43203696166179
 51
184.99997187300369
  0
ARC
  5
12D1
  8
0
 10
83.242044800335464
 20
105.70462295367059
 30
0.0
 40
8.48835583420224
 50
129.25647303206139
 51
147.56796303833889
  0
ARC
  5
12D2
  8
0
 10
64.87620143191765
 20
117.3743518184195
 30
0.0
 40
13.27139541460595
 50
310.00002812691918
 51
327.56796303833892
  0
ARC
  5
12D3
  8
0
 10
70.100779232611615
 20
111.14794866215421
 30
0.0
 40
5.1433999999999989
 50
207.49997187320579
 51
310.00002812679242
  0
ARC
  5
12D4
  8
0
 10
55.876762377692671
 20
111.1479160643714
 30
0.0
 40
8.48835583420224
 50
9.9320369616614741
 51
28.243526967939498
  0
ARC
  5
12D5
  8
0
 10
77.310401059814055
 20
114.9010357339634
 30
0.0
 40
13.27139541460595
 50
189.9320369616614
 51
207.49997187300031
  0
ARC
  5
12E4
  8
0
 10
41.05976947476659
 20
105.70462295367059
 30
0.0
 40
8.48835583420224
 50
32.43203696166109
 51
50.743526967938593
  0
ARC
  5
12E5
  8
0
 10
31.414520527168179
 20
105.7717774842408
 30
0.0
 40
13.27139541460595
 50
355.00002812699631
 51
12.56796303833821
  0
ARC
  5
12E6
  8
0
 10
52.652877330058693
 20
110.5066454573866
 30
0.0
 40
8.48835583420224
 50
174.25647303206321
 51
192.56796303833821
  0
ARC
  5
12E7
  8
0
 10
39.511586813072093
 20
105.06337998175159
 30
0.0
 40
5.1433999999999989
 50
252.4999718732046
 51
355.0000281267935
  0
ARC
  5
12E8
  8
0
 10
41.955725978017647
 20
112.8151857844169
 30
0.0
 40
13.27139541460595
 50
234.9320369616608
 51
252.49997187308171
  0
ARC
  5
12E9
  8
0
 10
29.45371108936035
 20
95.005458157813493
 30
0.0
 40
8.48835583420224
 50
54.93203696166244
 51
73.243526967938422
  0
ARC
  5
12EA
  8
0
 10
20.51696407444064
 20
91.376423880839923
 30
0.0
 40
13.27139541460595
 50
17.50002812699703
 51
35.06796303833908
  0
ARC
  5
12EB
  8
0
 10
38.326691701044069
 20
103.87843876949709
 30
0.0
 40
8.48835583420224
 50
196.75647303206159
 51
215.06796303833909
  0
ARC
  5
12EC
  8
0
 10
28.26876987710591
 20
93.820563045785491
 30
0.0
 40
5.1433999999999989
 50
274.99997187320639
 51
17.500028126792131
  0
ARC
  5
12ED
  8
0
 10
27.560372374616751
 20
101.9176293316894
 30
0.0
 40
13.27139541460595
 50
257.43203696166211
 51
274.99997187308207
  0
ARC
  5
12EE
  8
0
 10
22.82550440147088
 20
80.679272528798876
 30
0.0
 40
8.48835583420224
 50
77.432036961662106
 51
95.743526967936816
  0
ARC
  5
12EF
  8
0
 10
15.95779804043803
 20
73.906537015673166
 30
0.0
 40
13.27139541460595
 50
40.000028127001123
 51
57.567963038339393
  0
ARC
  5
12F0
  8
0
 10
27.627526905186929
 20
92.272380384090965
 30
0.0
 40
8.48835583420224
 50
219.25647303206301
 51
237.56796303833929
  0
ARC
  5
12F1
  8
0
 10
22.184201196703391
 20
79.131114816367131
 30
0.0
 40
5.1433999999999989
 50
297.4999718732048
 51
40.000028126792898
  0
ARC
  5
12F2
  8
0
 10
18.431114124894179
 20
86.340736643569585
 30
0.0
 40
13.27139541460595
 50
279.93203696166108
 51
297.49997187308122
  0
ARC
  5
12F3
  8
0
 10
22.18423379448609
 20
64.90709796144813
 30
0.0
 40
8.48835583420224
 50
99.932036961661098
 51
118.24352696793601
  0
ARC
  5
12F4
  8
0
 10
18.431114124894179
 20
56.021748799043337
 30
0.0
 40
13.27139541460595
 50
62.500028127000121
 51
80.067963038338846
  0
ARC
  5
12F5
  8
0
 10
22.18423379448609
 20
77.455387481164792
 30
0.0
 40
8.48835583420224
 50
241.75647303206401
 51
260.0679630383388
  0
ARC
  5
12F6
  8
0
 10
22.184201196703391
 20
63.231370626245791
 30
0.0
 40
5.1433999999999989
 50
319.99997187320702
 51
62.500028126795108
  0
ARC
  5
12F7
  8
0
 10
27.627526905186929
 20
50.090105058521999
 30
0.0
 40
8.48835583420224
 50
122.4320369616606
 51
140.74352696793699
  0
ARC
  5
12F8
  8
0
 10
15.95779804043803
 20
68.455948426939813
 30
0.0
 40
13.27139541460595
 50
302.43203696166057
 51
319.9999718729988
  0
ARC
  5
12F9
  8
0
 10
22.82550440147088
 20
61.683212913814089
 30
0.0
 40
8.48835583420224
 50
264.25647303206318
 51
282.56796303833778
  0
ARC
  5
12FA
  8
0
 10
27.560372374616751
 20
40.444856110923517
 30
0.0
 40
13.27139541460595
 50
85.00002812691784
 51
102.56796303833779
  0
ARC
  5
12FB
  8
0
 10
28.26876987710591
 20
48.541922396827488
 30
0.0
 40
5.1433999999999989
 50
342.49997187320793
 51
85.000028126793595
  0
ARC
  5
12FC
  8
0
 10
38.326691701044069
 20
38.484046673115763
 30
0.0
 40
8.48835583420224
 50
144.93203696166091
 51
163.24352696793829
  0
ARC
  5
12FD
  8
0
 10
20.51696407444064
 20
50.986061561773049
 30
0.0
 40
13.27139541460595
 50
324.93203696166091
 51
342.49997187300289
  0
ARC
  5
12FE
  8
0
 10
29.45371108936035
 20
47.357027284799472
 30
0.0
 40
8.48835583420224
 50
286.75647303206148
 51
305.0679630383375
  0
ARC
  5
12FF
  8
0
 10
41.955725978017647
 20
29.547299658196039
 30
0.0
 40
13.27139541460595
 50
107.50002812691829
 51
125.0679630383375
  0
ARC
  5
1300
  8
0
 10
39.511586813072093
 20
37.299105460861263
 30
0.0
 40
5.1433999999999989
 50
4.9999718732064462
 51
107.5000281267953
  0
ARC
  5
1301
  8
0
 10
52.652877330058693
 20
31.855839985226279
 30
0.0
 40
8.48835583420224
 50
167.43203696166179
 51
185.74352696793679
  0
ARC
  5
1302
  8
0
 10
31.414520527168179
 20
36.59070795837215
 30
0.0
 40
13.27139541460595
 50
347.43203696166182
 51
4.999971873003747
  0
ARC
  5
1303
  8
0
 10
41.05976947476659
 20
36.657862488942328
 30
0.0
 40
8.48835583420224
 50
309.25647303206142
 51
327.56796303833892
  0
ARC
  5
1304
  8
0
 10
77.310401059814055
 20
27.461449708649528
 30
0.0
 40
13.27139541460595
 50
152.50002812699969
 51
170.06796303833849
  0
ARC
  5
1305
  8
0
 10
70.100779232611615
 20
31.214536780458729
 30
0.0
 40
5.1433999999999989
 50
49.999971873207578
 51
152.50002812679409
  0
ARC
  5
1306
  8
0
 10
64.87620143191765
 20
24.988133624193441
 30
0.0
 40
13.27139541460595
 50
32.43203696166109
 51
49.999971873080838
  0
ARC
  5
1307
  8
0
 10
83.242044800335464
 20
36.657862488942328
 30
0.0
 40
8.48835583420224
 50
212.43203696166111
 51
230.74352696793861
  0
ARC
  5
1308
  8
0
 10
92.887293747933938
 20
36.59070795837215
 30
0.0
 40
13.27139541460595
 50
175.0000281269962
 51
192.56796303833821
  0
ARC
  5
1309
  8
0
 10
71.648936945043374
 20
31.855839985226279
 30
0.0
 40
8.48835583420224
 50
354.25647303206318
 51
12.56796303833821
  0
ARC
  5
130A
  8
0
 10
84.790227462029975
 20
37.299105460861263
 30
0.0
 40
5.1433999999999989
 50
72.499971873204629
 51
175.0000281267935
  0
ARC
  5
130B
  8
0
 10
82.346088297084407
 20
29.547299658196039
 30
0.0
 40
13.27139541460595
 50
54.93203696166244
 51
72.499971873081705
  0
ARC
  5
130C
  8
0
 10
94.848103185741763
 20
47.357027284799472
 30
0.0
 40
8.48835583420224
 50
234.93203696166239
 51
253.24352696793849
  0
ARC
  5
130D
  8
0
 10
103.7848502006615
 20
50.986061561773049
 30
0.0
 40
13.27139541460595
 50
197.50002812699699
 51
215.06796303833909
  0
ARC
  5
130E
  8
0
 10
85.975122574057991
 20
38.484046673115763
 30
0.0
 40
8.48835583420224
 50
16.75647303206166
 51
35.06796303833908
  0
ARC
  5
130F
  8
0
 10
96.033044397996221
 20
48.541922396827488
 30
0.0
 40
5.1433999999999989
 50
94.999971873206377
 51
197.5000281267921
  0
ARC
  5
1310
  8
0
 10
96.741441900485313
 20
40.444856110923517
 30
0.0
 40
13.27139541460595
 50
77.432036961662106
 51
94.999971873082146
  0
ARC
  5
1311
  8
0
 10
101.47630987363119
 20
61.683212913814089
 30
0.0
 40
8.48835583420224
 50
257.43203696166211
 51
275.74352696793682
  0
ARC
  5
1312
  8
0
 10
108.344016234664
 20
68.455948426939813
 30
0.0
 40
13.27139541460595
 50
220.00002812700109
 51
237.56796303833929
  0
ARC
  5
1313
  8
0
 10
96.674287369915191
 20
50.090105058521999
 30
0.0
 40
8.48835583420224
 50
39.256473032062978
 51
57.567963038339343
  0
ARC
  5
1314
  8
0
 10
46.991413215287928
 20
27.461449708649582
 30
0.0
 40
13.27139541460595
 50
9.9320369616614741
 51
27.499971873081041
  0
ARC
  5
1315
  8
0
 10
54.201035042490389
 20
31.21453678045879
 30
0.0
 40
5.1433999999999989
 50
27.499971873205858
 51
130.0000281267923
  0
ARC
  5
1316
  8
0
 10
59.425612843184354
 20
24.988133624193441
 30
0.0
 40
13.27139541460595
 50
130.00002812699699
 51
147.56796303833889
  0
ARC
  5
1317
  8
0
 10
55.876762377692671
 20
31.214569378241549
 30
0.0
 40
8.48835583420224
 50
331.75647303206051
 51
350.06796303833852
  0
ARC
  5
1318
  8
0
 10
68.425051897409389
 20
31.214569378241489
 30
0.0
 40
8.48835583420224
 50
189.9320369616614
 51
208.24352696793949
  0
ARC
  5
137F
  8
0
 10
62.15090713755103
 20
71.181242721306489
 30
0.0
 40
44.0
 50
110.9324743342363
 51
114.06752566576159
  0
ARC
  5
1380
  8
0
 10
62.15090713755103
 20
71.181242721306489
 30
0.0
 40
44.0
 50
133.43247433423679
 51
136.5675256657612
  0
ARC
  5
1381
  8
0
 10
62.15090713755103
 20
71.181242721306489
 30
0.0
 40
44.0
 50
155.9324743342379
 51
159.06752566576299
  0
ARC
  5
1382
  8
0
 10
62.15090713755103
 20
71.181242721306489
 30
0.0
 40
44.0
 50
178.43247433423869
 51
181.5675256657612
  0
ARC
  5
1383
  8
0
 10
62.15090713755103
 20
71.181242721306489
 30
0.0
 40
44.0
 50
223.4324743342388
 51
226.5675256657631
  0
ARC
  5
1384
  8
0
 10
62.15090713755103
 20
71.181242721306489
 30
0.0
 40
44.0
 50
245.93247433423741
 51
249.06752566576361
  0
ARC
  5
1385
  8
0
 10
62.15090713755103
 20
71.181242721306489
 30
0.0
 40
44.0
 50
268.43247433423869
 51
271.56752566576131
  0
ARC
  5
1386
  8
0
 10
62.15090713755103
 20
71.181242721306489
 30
0.0
 40
44.0
 50
290.9324743342363
 51
294.06752566576262
  0
ARC
  5
1387
  8
0
 10
62.15090713755103
 20
71.181242721306489
 30
0.0
 40
44.0
 50
313.43247433423682
 51
316.5675256657612
  0
ARC
  5
1388
  8
0
 10
62.15090713755103
 20
71.181242721306489
 30
0.0
 40
44.0
 50
335.93247433423801
 51
339.06752566576301
  0
ARC
  5
1389
  8
0
 10
62.15090713755103
 20
71.181242721306489
 30
0.0
 40
44.0
 50
358.4324743342388
 51
1.5675256657612531
  0
ARC
  5
138A
  8
0
 10
62.15090713755103
 20
71.181242721306489
 30
0.0
 40
44.0
 50
20.932474334236979
 51
24.067525665762052
  0
ARC
  5
138B
  8
0
 10
62.15090713755103
 20
71.181242721306489
 30
0.0
 40
44.0
 50
43.43247433423879
 51
46.567525665763178
  0
ARC
  5
138C
  8
0
 10
62.15090713755103
 20
71.181242721306489
 30
0.0
 40
44.0
 50
65.932474334237398
 51
69.067525665763625
  0
ARC
  5
138D
  8
0
 10
62.15090713755103
 20
71.181242721306489
 30
0.0
 40
44.0
 50
88.432474334238705
 51
91.567525665761295
  0
LINE
  5
138E
  8
0
 10
185.10143628353211
 20
115.1812427213065
 30
0.0
 11
190.08120137017971
 21
115.1812427213065
 31
0.0
  0
LINE
  5
138F
  8
0
 10
185.10143600242191
 20
27.181242721306489
 30
0.0
 11
190.08120165129
 21
27.181242721306489
 31
0.0
  0
ARC
  5
1396
  8
0
 10
62.150907137551989
 20
71.181242721306489
 30
0.0
 40
44.0
 50
200.93247433423349
 51
204.0675256657621
  0
ENDSEC
  0
EOF
