  0
SECTION
  2
HEADER
  9
$ACADVER
  1
AC1009
  9
$INSBASE
 10
0.0
 20
0.0
 30
0.0
  9
$EXTMIN
 10
0.0
 20
-2.960436562073669
 30
0.0
  9
$EXTMAX
 10
263.90660802309668
 20
193.5631667675984
 30
0.0
  9
$LIMMIN
 10
0.0
 20
0.0
  9
$LIMMAX
 10
385.0
 20
270.0
  9
$ORTHOMODE
 70
     1
  9
$REGENMODE
 70
     1
  9
$FILLMODE
 70
     1
  9
$QTEXTMODE
 70
     0
  9
$MIRRTEXT
 70
     0
  9
$DRAGMODE
 70
     2
  9
$LTSCALE
 40
10.0
  9
$OSMODE
 70
    55
  9
$ATTMODE
 70
     1
  9
$TEXTSIZE
 40
4.0
  9
$TRACEWID
 40
0.05
  9
$TEXTSTYLE
  7
STANDARD
  9
$CLAYER
  8
0
  9
$CELTYPE
  6
BYLAYER
  9
$CECOLOR
 62
   256
  9
$DIMSCALE
 40
1.0
  9
$DIMASZ
 40
3.0
  9
$DIMEXO
 40
1.0
  9
$DIMDLI
 40
6.0
  9
$DIMRND
 40
0.0
  9
$DIMDLE
 40
0.0
  9
$DIMEXE
 40
1.0
  9
$DIMTP
 40
495.0
  9
$DIMTM
 40
0.0
  9
$DIMTXT
 40
3.0
  9
$DIMCEN
 40
0.0
  9
$DIMTSZ
 40
0.0
  9
$DIMTOL
 70
     0
  9
$DIMLIM
 70
     0
  9
$DIMTIH
 70
     0
  9
$DIMTOH
 70
     0
  9
$DIMSE1
 70
     0
  9
$DIMSE2
 70
     0
  9
$DIMTAD
 70
     1
  9
$DIMZIN
 70
     0
  9
$DIMBLK
  1

  9
$DIMASO
 70
     0
  9
$DIMSHO
 70
     0
  9
$DIMPOST
  1

  9
$DIMAPOST
  1

  9
$DIMALT
 70
     0
  9
$DIMALTD
 70
     2
  9
$DIMALTF
 40
25.399999999999999
  9
$DIMLFAC
 40
1.0
  9
$DIMTOFL
 70
     1
  9
$DIMTVP
 40
0.0
  9
$DIMTIX
 70
     1
  9
$DIMSOXD
 70
     0
  9
$DIMSAH
 70
     0
  9
$DIMBLK1
  1

  9
$DIMBLK2
  1

  9
$DIMSTYLE
  2
STANDARD
  9
$DIMCLRD
 70
     0
  9
$DIMCLRE
 70
     0
  9
$DIMCLRT
 70
     0
  9
$DIMTFAC
 40
1.0
  9
$DIMGAP
 40
0.09
  9
$LUNITS
 70
     2
  9
$LUPREC
 70
     4
  9
$SKETCHINC
 40
0.1
  9
$FILLETRAD
 40
0.8
  9
$AUNITS
 70
     0
  9
$AUPREC
 70
     0
  9
$MENU
  1
E:\r13\win\SUPPORT\ACAD
  9
$ELEVATION
 40
0.0
  9
$PELEVATION
 40
0.0
  9
$THICKNESS
 40
0.0
  9
$LIMCHECK
 70
     0
  9
$BLIPMODE
 70
     0
  9
$CHAMFERA
 40
0.5
  9
$CHAMFERB
 40
0.5
  9
$SKPOLY
 70
     0
  9
$TDCREATE
 40
2449920.4263670142
  9
$TDUPDATE
 40
2456598.5009760419
  9
$TDINDWG
 40
0.0097543519
  9
$TDUSRTIMER
 40
0.0097543519
  9
$USRTIMER
 70
     1
  9
$ANGBASE
 50
0.0
  9
$ANGDIR
 70
     0
  9
$PDMODE
 70
     0
  9
$PDSIZE
 40
0.0
  9
$PLINEWID
 40
0.0
  9
$COORDS
 70
     1
  9
$SPLFRAME
 70
     0
  9
$SPLINETYPE
 70
     6
  9
$SPLINESEGS
 70
     8
  9
$ATTDIA
 70
     0
  9
$ATTREQ
 70
     1
  9
$HANDLING
 70
     1
  9
$HANDSEED
  5
283
  9
$SURFTAB1
 70
     6
  9
$SURFTAB2
 70
     6
  9
$SURFTYPE
 70
     6
  9
$SURFU
 70
     6
  9
$SURFV
 70
     6
  9
$UCSNAME
  2

  9
$UCSORG
 10
0.0
 20
0.0
 30
0.0
  9
$UCSXDIR
 10
1.0
 20
0.0
 30
0.0
  9
$UCSYDIR
 10
0.0
 20
1.0
 30
0.0
  9
$PUCSNAME
  2

  9
$PUCSORG
 10
0.0
 20
0.0
 30
0.0
  9
$PUCSXDIR
 10
1.0
 20
0.0
 30
0.0
  9
$PUCSYDIR
 10
0.0
 20
1.0
 30
0.0
  9
$USERI1
 70
     3
  9
$USERI2
 70
     1
  9
$USERI3
 70
     0
  9
$USERI4
 70
     0
  9
$USERI5
 70
     0
  9
$USERR1
 40
1.0
  9
$USERR2
 40
3.0
  9
$USERR3
 40
3.0
  9
$USERR4
 40
3.0
  9
$USERR5
 40
10.0
  9
$WORLDVIEW
 70
     1
  9
$SHADEDGE
 70
     3
  9
$SHADEDIF
 70
    70
  9
$TILEMODE
 70
     1
  9
$MAXACTVP
 70
    16
  9
$PLIMCHECK
 70
     0
  9
$PEXTMIN
 10
1.0000000000000000E+020
 20
1.0000000000000000E+020
 30
1.0000000000000000E+020
  9
$PEXTMAX
 10
-1.0000000000000000E+020
 20
-1.0000000000000000E+020
 30
-1.0000000000000000E+020
  9
$PLIMMIN
 10
0.0
 20
0.0
  9
$PLIMMAX
 10
12.0
 20
9.0
  9
$UNITMODE
 70
     0
  9
$VISRETAIN
 70
     0
  9
$PLINEGEN
 70
     0
  9
$PSLTSCALE
 70
     0
  0
ENDSEC
  0
SECTION
  2
TABLES
  0
TABLE
  2
VPORT
 70
     1
  0
VPORT
  2
*ACTIVE
 70
     0
 10
0.0
 20
0.0
 11
1.0
 21
1.0
 12
192.49412581440311
 22
174.91677254346851
 13
0.0
 23
0.0
 14
10.0
 24
10.0
 15
10.0
 25
10.0
 16
0.0
 26
0.0
 36
1.0
 17
0.0
 27
0.0
 37
0.0
 40
358.92027899574339
 41
1.7807262569832401
 42
50.0
 43
0.0
 44
0.0
 50
0.0
 51
0.0
 71
     0
 72
   100
 73
     1
 74
     0
 75
     0
 76
     0
 77
     0
 78
     0
  0
ENDTAB
  0
TABLE
  2
LTYPE
 70
     5
  0
LTYPE
  2
CONTINUOUS
 70
     0
  3
Solid Line
 72
    65
 73
     0
 40
0.0
  0
LTYPE
  2
CENTER
 70
     0
  3
____ _ ____ _ ____ _ ____ _ ____ _ ____ _ ____
 72
    65
 73
     4
 40
2.0
 49
1.25
 49
-0.25
 49
0.25
 49
-0.25
  0
LTYPE
  2
HIDDEN
 70
     0
  3
_ _ _ _ _ _ _ _ _ _ _ _ _ _ _ _ _ _ _ _ _ _ _
 72
    65
 73
     2
 40
0.375
 49
0.25
 49
-0.125
  0
LTYPE
  2
PHANTOM
 70
     0
  3
_____ _ _ _____ _ _ _____ _ _ _____ _ _ ____
 72
    65
 73
     6
 40
2.5
 49
1.25
 49
-0.25
 49
0.25
 49
-0.25
 49
0.25
 49
-0.25
  0
LTYPE
  2
PHANTOM2
 70
     0
  3
___ _ _ ___ _ _ ___ _ _ ___ _ _
 72
    65
 73
     6
 40
1.25
 49
0.625
 49
-0.125
 49
0.125
 49
-0.125
 49
0.125
 49
-0.125
  0
ENDTAB
  0
TABLE
  2
LAYER
 70
     1
  0
LAYER
  2
0
 70
     0
 62
     7
  6
CONTINUOUS
  0
ENDTAB
  0
TABLE
  2
STYLE
 70
     2
  0
STYLE
  2
STANDARD
 70
     0
 40
0.0
 41
1.0
 50
0.0
 71
     0
 42
4.0
  3
simplex
  4
bigfont
  0
STYLE
  2
STANDARD1
 70
     0
 40
0.0
 41
1.0
 50
0.0
 71
     0
 42
3.0
  3
txt
  4

  0
ENDTAB
  0
TABLE
  2
VIEW
 70
     0
  0
ENDTAB
  0
TABLE
  2
UCS
 70
     0
  0
ENDTAB
  0
TABLE
  2
APPID
 70
     3
  0
APPID
  2
ACAD
 70
     0
  0
APPID
  2
ACAD_MLEADERVER
 70
     0
  0
APPID
  2
ACAD_NAV_VCDISPLAY
 70
     0
  0
ENDTAB
  0
TABLE
  2
DIMSTYLE
 70
     1
  0
DIMSTYLE
  2
STANDARD
 70
     0
  3

  4

  5

  6

  7

 40
1.0
 41
0.18
 42
0.0625
 43
0.38
 44
0.18
 45
0.0
 46
0.0
 47
0.0
 48
0.0
140
0.18
141
0.09
142
0.0
143
25.399999999999999
144
1.0
145
0.0
146
1.0
147
0.09
 71
     0
 72
     0
 73
     1
 74
     1
 75
     0
 76
     0
 77
     0
 78
     0
170
     0
171
     2
172
     0
173
     0
174
     0
175
     0
176
     0
177
     0
178
     0
  0
ENDTAB
  0
ENDSEC
  0
SECTION
  2
BLOCKS
  0
BLOCK
  8
0
  2
$MODEL_SPACE
 70
     0
 10
0.0
 20
0.0
 30
0.0
  3
$MODEL_SPACE
  1

  0
ENDBLK
  5
148
  8
0
  0
BLOCK
 67
     1
  8
0
  2
$PAPER_SPACE
 70
     0
 10
0.0
 20
0.0
 30
0.0
  3
$PAPER_SPACE
  1

  0
ENDBLK
  5
146
 67
     1
  8
0
  0
ENDSEC
  0
SECTION
  2
ENTITIES
  0
ARC
  5
1D
  8
0
  6
CONTINUOUS
 62
     7
 10
170.84378832475321
 20
131.61329467253771
 30
0.0
 40
5.1433999999999989
 50
117.4999718732071
 51
220.00002812679389
  0
ARC
  5
1E
  8
0
  6
CONTINUOUS
 62
     7
 10
90.910376443057856
 20
131.61329467253771
 30
0.0
 40
5.1433999999999989
 50
319.99997187320707
 51
62.500028126793978
  0
CIRCLE
  5
1F
  8
0
  6
CONTINUOUS
 62
     7
 10
130.8770823839055
 20
139.5631667675984
 30
0.0
 40
17.49999999999994
  0
CIRCLE
  5
20
  8
0
  6
CONTINUOUS
 62
     7
 10
130.8770823839055
 20
139.5631667675984
 30
0.0
 40
7.4999999999998721
  0
CIRCLE
  5
21
  8
0
  6
PHANTOM
 62
     3
 10
130.8770823839055
 20
139.5631667675984
 30
0.0
 40
40.685000000000088
  0
LINE
  5
24
  8
0
  6
CENTER
 62
     1
 10
130.8770823839055
 20
193.5631667675984
 30
0.0
 11
130.8770823839055
 21
85.563166767598403
 31
0.0
  0
ARC
  5
27
  8
0
  6
CONTINUOUS
 62
     7
 10
124.6029376240472
 20
99.596493424533435
 30
0.0
 40
8.48835583420224
 50
331.7564730320629
 51
350.06796303833801
  0
ARC
  5
28
  8
0
  6
CONTINUOUS
 62
     7
 10
98.179886335714784
 20
115.7389513310914
 30
0.0
 40
8.48835583420224
 50
286.7564730320629
 51
305.06796303833801
  0
ARC
  5
29
  8
0
  6
CONTINUOUS
 62
     7
 10
96.994945123460354
 20
116.9238464431194
 30
0.0
 40
5.1433999999999989
 50
342.49997187320719
 51
85.000028126794007
  0
ARC
  5
2A
  8
0
  6
CONTINUOUS
 62
     7
 10
89.243139320795109
 20
119.367985608065
 30
0.0
 40
13.27139541460595
 50
324.93203696166188
 51
342.49997187300198
  0
ARC
  5
2B
  8
0
  6
CONTINUOUS
 62
     7
 10
130.8770823839055
 20
139.5631667675984
 30
0.0
 40
44.0
 50
223.4324743342269
 51
226.5675256657627
  0
ARC
  5
2C
  8
0
  6
CONTINUOUS
 62
     7
 10
107.0528669473985
 20
106.8659707194077
 30
0.0
 40
8.48835583420224
 50
144.93203696166199
 51
163.2435269679371
  0
ARC
  5
2D
  8
0
  6
CONTINUOUS
 62
     7
 10
96.353702151541384
 20
118.4720291048139
 30
0.0
 40
8.48835583420224
 50
122.43203696166201
 51
140.7435269679371
  0
ARC
  5
2E
  8
0
  6
CONTINUOUS
 62
     7
 10
96.28654762097122
 20
108.8267801572154
 30
0.0
 40
13.27139541460595
 50
85.000028126918892
 51
102.56796303833821
  0
ARC
  5
2F
  8
0
  6
CONTINUOUS
 62
     7
 10
91.551679647825324
 20
130.065136960106
 30
0.0
 40
8.48835583420224
 50
264.25647303206279
 51
282.56796303833812
  0
ARC
  5
30
  8
0
  6
CONTINUOUS
 62
     7
 10
130.8770823839055
 20
139.5631667675984
 30
0.0
 40
44.0
 50
200.93247433422681
 51
204.0675256657627
  0
ARC
  5
31
  8
0
  6
CONTINUOUS
 62
     7
 10
84.683973286792494
 20
136.8378724732317
 30
0.0
 40
13.27139541460595
 50
302.43203696166188
 51
319.99997187300198
  0
ARC
  5
32
  8
0
  6
CONTINUOUS
 62
     7
 10
128.1517880895388
 20
93.370057670485366
 30
0.0
 40
13.27139541460595
 50
130.00002812691889
 51
147.56796303833821
  0
ARC
  5
33
  8
0
  6
CONTINUOUS
 62
     7
 10
100.14069577352259
 20
104.97263200466411
 30
0.0
 40
13.27139541460595
 50
347.43203696166199
 51
4.9999718730019493
  0
ARC
  5
34
  8
0
  6
CONTINUOUS
 62
     7
 10
130.8770823839055
 20
139.5631667675984
 30
0.0
 40
44.0
 50
245.9324743342269
 51
249.0675256657627
  0
ARC
  5
35
  8
0
  6
CONTINUOUS
 62
     7
 10
121.3790525764131
 20
100.2377640315182
 30
0.0
 40
8.48835583420224
 50
167.43203696166199
 51
185.74352696793721
  0
ARC
  5
36
  8
0
  6
CONTINUOUS
 62
     7
 10
109.785944721121
 20
105.0397865352342
 30
0.0
 40
8.48835583420224
 50
309.2564730320629
 51
327.56796303833801
  0
ARC
  5
37
  8
0
  6
CONTINUOUS
 62
     7
 10
108.2377620594265
 20
105.6810295071532
 30
0.0
 40
5.1433999999999989
 50
4.9999718732071328
 51
107.50002812679401
  0
ARC
  5
38
  8
0
  6
CONTINUOUS
 62
     7
 10
110.6819012243721
 20
97.92922370448801
 30
0.0
 40
13.27139541460595
 50
107.50002812691891
 51
125.06796303833821
  0
ARC
  5
39
  8
0
  6
CONTINUOUS
 62
     7
 10
122.9272102888448
 20
99.596460826750715
 30
0.0
 40
5.1433999999999989
 50
27.499971873207102
 51
130.00002812679389
  0
ARC
  5
3A
  8
0
  6
CONTINUOUS
 62
     7
 10
137.1512271437638
 20
99.596493424533435
 30
0.0
 40
8.48835583420224
 50
189.93203696166199
 51
208.24352696793721
  0
ARC
  5
3B
  8
0
  6
CONTINUOUS
 62
     7
 10
130.8770823839055
 20
139.56316676759829
 30
0.0
 40
44.0
 50
268.43247433422692
 51
271.56752566576267
  0
ARC
  5
3C
  8
0
  6
CONTINUOUS
 62
     7
 10
115.71758846164241
 20
95.843373754941496
 30
0.0
 40
13.27139541460595
 50
9.9320369616619164
 51
27.499971873001929
  0
ARC
  5
3D
  8
0
  6
CONTINUOUS
 62
     7
 10
164.75921964435071
 20
116.9238464431194
 30
0.0
 40
5.1433999999999989
 50
94.999971873207116
 51
197.50002812679389
  0
ARC
  5
3E
  8
0
  6
CONTINUOUS
 62
     7
 10
154.70129782041249
 20
106.8659707194076
 30
0.0
 40
8.48835583420224
 50
16.756473032062878
 51
35.067963038338007
  0
ARC
  5
3F
  8
0
  6
CONTINUOUS
 62
     7
 10
130.8770823839055
 20
139.5631667675984
 30
0.0
 40
44.0
 50
313.43247433422692
 51
316.56752566576267
  0
ARC
  5
40
  8
0
  6
CONTINUOUS
 62
     7
 10
172.5110254470159
 20
119.3679856080649
 30
0.0
 40
13.27139541460595
 50
197.50002812691889
 51
215.06796303833821
  0
ARC
  5
41
  8
0
  6
CONTINUOUS
 62
     7
 10
153.5164027083845
 20
105.6810295071532
 30
0.0
 40
5.1433999999999989
 50
72.499971873207144
 51
175.00002812679401
  0
ARC
  5
42
  8
0
  6
CONTINUOUS
 62
     7
 10
130.8770823839055
 20
139.5631667675984
 30
0.0
 40
44.0
 50
290.93247433422692
 51
294.06752566576267
  0
ARC
  5
43
  8
0
  6
CONTINUOUS
 62
     7
 10
133.60237667827221
 20
93.37005767048538
 30
0.0
 40
13.27139541460595
 50
32.432036961661893
 51
49.999971873001947
  0
ARC
  5
44
  8
0
  6
CONTINUOUS
 62
     7
 10
138.8269544789662
 20
99.596460826750729
 30
0.0
 40
5.1433999999999989
 50
49.999971873207137
 51
152.50002812679389
  0
ARC
  5
45
  8
0
  6
CONTINUOUS
 62
     7
 10
146.0365763061686
 20
95.843373754941524
 30
0.0
 40
13.27139541460595
 50
152.50002812691881
 51
170.06796303833821
  0
ARC
  5
46
  8
0
  6
CONTINUOUS
 62
     7
 10
151.96822004668999
 20
105.0397865352342
 30
0.0
 40
8.48835583420224
 50
212.43203696166199
 51
230.74352696793721
  0
ARC
  5
47
  8
0
  6
CONTINUOUS
 62
     7
 10
161.61346899428841
 20
104.97263200466411
 30
0.0
 40
13.27139541460595
 50
175.00002812691889
 51
192.56796303833821
  0
ARC
  5
48
  8
0
  6
CONTINUOUS
 62
     7
 10
140.3751121913979
 20
100.2377640315182
 30
0.0
 40
8.48835583420224
 50
354.25647303206279
 51
12.56796303833803
  0
ARC
  5
49
  8
0
  6
CONTINUOUS
 62
     7
 10
163.57427843209621
 20
115.7389513310914
 30
0.0
 40
8.48835583420224
 50
234.93203696166199
 51
253.24352696793721
  0
ARC
  5
4A
  8
0
  6
CONTINUOUS
 62
     7
 10
151.07226354343891
 20
97.929223704487995
 30
0.0
 40
13.27139541460595
 50
54.932036961661922
 51
72.499971873001982
  0
ARC
  5
4B
  8
0
  6
CONTINUOUS
 62
     7
 10
165.40046261626969
 20
118.4720291048139
 30
0.0
 40
8.48835583420224
 50
39.25647303206285
 51
57.567963038337979
  0
ARC
  5
4C
  8
0
  6
CONTINUOUS
 62
     7
 10
170.20248511998571
 20
130.065136960106
 30
0.0
 40
8.48835583420224
 50
257.43203696166199
 51
275.74352696793721
  0
ARC
  5
4D
  8
0
  6
CONTINUOUS
 62
     7
 10
165.46761714683981
 20
108.8267801572154
 30
0.0
 40
13.27139541460595
 50
77.43203696166195
 51
94.999971873001954
  0
ARC
  5
4E
  8
0
  6
CONTINUOUS
 62
     7
 10
130.8770823839055
 20
139.5631667675984
 30
0.0
 40
44.0
 50
335.93247433422692
 51
339.06752566576267
  0
ARC
  5
4F
  8
0
  6
CONTINUOUS
 62
     7
 10
177.0701914810185
 20
136.8378724732317
 30
0.0
 40
13.27139541460595
 50
220.00002812691881
 51
237.56796303833821
  0
ARC
  5
50
  8
0
  6
CONTINUOUS
 62
     7
 10
124.6029376240471
 20
179.52984011066329
 30
0.0
 40
8.48835583420224
 50
9.9320369616620692
 51
28.24352696793725
  0
LINE
  5
51
  8
0
  6
CENTER
 62
     1
 10
76.877082383905531
 20
139.5631667675984
 30
0.0
 11
184.8770823839055
 21
139.5631667675984
 31
0.0
  0
ARC
  5
52
  8
0
  6
CONTINUOUS
 62
     7
 10
121.3790525764131
 20
178.88856950367861
 30
0.0
 40
8.48835583420224
 50
174.2564730320629
 51
192.56796303833801
  0
ARC
  5
53
  8
0
  6
CONTINUOUS
 62
     7
 10
115.71758846164241
 20
183.28295978025531
 30
0.0
 40
13.27139541460595
 50
332.50002812691889
 51
350.06796303833829
  0
ARC
  5
54
  8
0
  6
CONTINUOUS
 62
     7
 10
128.1517880895388
 20
185.7562758647114
 30
0.0
 40
13.27139541460595
 50
212.43203696166191
 51
229.99997187300201
  0
ARC
  5
55
  8
0
  6
CONTINUOUS
 62
     7
 10
96.994945123460354
 20
162.2024870920774
 30
0.0
 40
5.1433999999999989
 50
274.99997187320707
 51
17.500028126793978
  0
ARC
  5
56
  8
0
  6
CONTINUOUS
 62
     7
 10
98.179886335714812
 20
163.38738220410539
 30
0.0
 40
8.48835583420224
 50
54.932036961662021
 51
73.243526967937157
  0
ARC
  5
57
  8
0
  6
CONTINUOUS
 62
     7
 10
130.8770823839055
 20
139.5631667675984
 30
0.0
 40
44.0
 50
155.93247433422681
 51
159.0675256657627
  0
ARC
  5
58
  8
0
  6
CONTINUOUS
 62
     7
 10
90.910409040840563
 20
145.83731152745671
 30
0.0
 40
8.48835583420224
 50
241.7564730320629
 51
260.06796303833801
  0
ARC
  5
59
  8
0
  6
CONTINUOUS
 62
     7
 10
90.910409040840548
 20
133.28902200773999
 30
0.0
 40
8.48835583420224
 50
99.932036961662035
 51
118.2435269679371
  0
ARC
  5
5A
  8
0
  6
CONTINUOUS
 62
     7
 10
130.8770823839055
 20
139.5631667675984
 30
0.0
 40
44.0
 50
178.4324743342269
 51
181.5675256657627
  0
ARC
  5
5B
  8
0
  6
CONTINUOUS
 62
     7
 10
90.910376443057828
 20
147.51303886265899
 30
0.0
 40
5.1433999999999989
 50
297.49997187320707
 51
40.000028126793957
  0
ARC
  5
5C
  8
0
  6
CONTINUOUS
 62
     7
 10
87.157289371248652
 20
124.40367284533529
 30
0.0
 40
13.27139541460595
 50
62.500028126918913
 51
80.067963038338263
  0
ARC
  5
5D
  8
0
  6
CONTINUOUS
 62
     7
 10
87.157289371248623
 20
154.7226606898615
 30
0.0
 40
13.27139541460595
 50
279.93203696166188
 51
297.49997187300193
  0
ARC
  5
5E
  8
0
  6
CONTINUOUS
 62
     7
 10
84.683973286792494
 20
142.28846106196511
 30
0.0
 40
13.27139541460595
 50
40.000028126918941
 51
57.567963038338277
  0
ARC
  5
5F
  8
0
  6
CONTINUOUS
 62
     7
 10
96.353702151541384
 20
160.65430443038289
 30
0.0
 40
8.48835583420224
 50
219.2564730320629
 51
237.56796303833801
  0
ARC
  5
60
  8
0
  6
CONTINUOUS
 62
     7
 10
89.243139320795109
 20
159.75834792713181
 30
0.0
 40
13.27139541460595
 50
17.50002812691892
 51
35.067963038338263
  0
ARC
  5
61
  8
0
  6
CONTINUOUS
 62
     7
 10
96.28654762097122
 20
170.29955337798131
 30
0.0
 40
13.27139541460595
 50
257.43203696166188
 51
274.99997187300198
  0
ARC
  5
62
  8
0
  6
CONTINUOUS
 62
     7
 10
91.551679647825324
 20
149.0611965750908
 30
0.0
 40
8.48835583420224
 50
77.432036961662021
 51
95.743526967937143
  0
ARC
  5
63
  8
0
  6
CONTINUOUS
 62
     7
 10
107.0528669473985
 20
172.26036281578911
 30
0.0
 40
8.48835583420224
 50
196.7564730320629
 51
215.06796303833801
  0
ARC
  5
64
  8
0
  6
CONTINUOUS
 62
     7
 10
130.8770823839055
 20
139.5631667675984
 30
0.0
 40
44.0
 50
133.4324743342269
 51
136.5675256657627
  0
ARC
  5
65
  8
0
  6
CONTINUOUS
 62
     7
 10
108.2377620594265
 20
173.44530402804361
 30
0.0
 40
5.1433999999999989
 50
252.49997187320719
 51
355.00002812679401
  0
ARC
  5
66
  8
0
  6
CONTINUOUS
 62
     7
 10
110.6819012243721
 20
181.1971098307088
 30
0.0
 40
13.27139541460595
 50
234.93203696166199
 51
252.49997187300201
  0
ARC
  5
67
  8
0
  6
CONTINUOUS
 62
     7
 10
100.14069577352259
 20
174.15370153053269
 30
0.0
 40
13.27139541460595
 50
355.00002812691889
 51
12.567963038338229
  0
ARC
  5
68
  8
0
  6
CONTINUOUS
 62
     7
 10
122.9272102888448
 20
179.52987270844611
 30
0.0
 40
5.1433999999999989
 50
229.99997187320719
 51
332.50002812679401
  0
ARC
  5
69
  8
0
  6
CONTINUOUS
 62
     7
 10
130.8770823839055
 20
139.5631667675984
 30
0.0
 40
44.0
 50
110.9324743342269
 51
114.0675256657627
  0
ARC
  5
6A
  8
0
  6
CONTINUOUS
 62
     7
 10
109.785944721121
 20
174.08654699996259
 30
0.0
 40
8.48835583420224
 50
32.432036961662021
 51
50.743526967937157
  0
ARC
  5
6B
  8
0
  6
CONTINUOUS
 62
     7
 10
137.1512271437638
 20
179.5298401106634
 30
0.0
 40
8.48835583420224
 50
151.7564730320629
 51
170.06796303833801
  0
ARC
  5
6C
  8
0
  6
CONTINUOUS
 62
     7
 10
130.8770823839055
 20
139.5631667675984
 30
0.0
 40
44.0
 50
88.432474334226924
 51
91.567525665762787
  0
ARC
  5
6D
  8
0
  6
CONTINUOUS
 62
     7
 10
146.0365763061686
 20
183.28295978025531
 30
0.0
 40
13.27139541460595
 50
189.93203696166191
 51
207.49997187300201
  0
ARC
  5
6E
  8
0
  6
CONTINUOUS
 62
     7
 10
133.60237667827209
 20
185.7562758647114
 30
0.0
 40
13.27139541460595
 50
310.00002812691889
 51
327.56796303833829
  0
ARC
  5
6F
  8
0
  6
CONTINUOUS
 62
     7
 10
140.3751121913979
 20
178.88856950367861
 30
0.0
 40
8.48835583420224
 50
347.43203696166199
 51
5.7435269679372221
  0
ARC
  5
70
  8
0
  6
CONTINUOUS
 62
     7
 10
154.70129782041249
 20
172.26036281578911
 30
0.0
 40
8.48835583420224
 50
324.93203696166199
 51
343.24352696793721
  0
ARC
  5
71
  8
0
  6
CONTINUOUS
 62
     7
 10
130.8770823839055
 20
139.5631667675984
 30
0.0
 40
44.0
 50
43.432474334226882
 51
46.567525665762723
  0
ARC
  5
72
  8
0
  6
CONTINUOUS
 62
     7
 10
164.75921964435071
 20
162.2024870920774
 30
0.0
 40
5.1433999999999989
 50
162.4999718732071
 51
265.00002812679401
  0
ARC
  5
73
  8
0
  6
CONTINUOUS
 62
     7
 10
153.51640270838439
 20
173.44530402804361
 30
0.0
 40
5.1433999999999989
 50
184.9999718732071
 51
287.50002812679401
  0
ARC
  5
74
  8
0
  6
CONTINUOUS
 62
     7
 10
138.82695447896609
 20
179.52987270844611
 30
0.0
 40
5.1433999999999989
 50
207.49997187320719
 51
310.00002812679412
  0
ARC
  5
75
  8
0
  6
CONTINUOUS
 62
     7
 10
172.5110254470159
 20
159.75834792713181
 30
0.0
 40
13.27139541460595
 50
144.93203696166191
 51
162.4999718730019
  0
ARC
  5
76
  8
0
  6
CONTINUOUS
 62
     7
 10
161.61346899428841
 20
174.15370153053269
 30
0.0
 40
13.27139541460595
 50
167.43203696166191
 51
184.9999718730019
  0
ARC
  5
77
  8
0
  6
CONTINUOUS
 62
     7
 10
151.07226354343891
 20
181.1971098307088
 30
0.0
 40
13.27139541460595
 50
287.50002812691901
 51
305.06796303833829
  0
ARC
  5
78
  8
0
  6
CONTINUOUS
 62
     7
 10
163.57427843209621
 20
163.38738220410539
 30
0.0
 40
8.48835583420224
 50
106.756473032063
 51
125.06796303833799
  0
ARC
  5
79
  8
0
  6
CONTINUOUS
 62
     7
 10
130.8770823839055
 20
139.5631667675984
 30
0.0
 40
44.0
 50
20.93247433422686
 51
24.067525665762691
  0
ARC
  5
7A
  8
0
  6
CONTINUOUS
 62
     7
 10
170.84378832475321
 20
147.51303886265899
 30
0.0
 40
5.1433999999999989
 50
139.9999718732071
 51
242.50002812679401
  0
ARC
  5
7B
  8
0
  6
CONTINUOUS
 62
     7
 10
174.59687539656241
 20
154.7226606898615
 30
0.0
 40
13.27139541460595
 50
242.50002812691901
 51
260.06796303833841
  0
ARC
  5
7C
  8
0
  6
CONTINUOUS
 62
     7
 10
174.59687539656241
 20
124.40367284533529
 30
0.0
 40
13.27139541460595
 50
99.932036961661865
 51
117.4999718730019
  0
ARC
  5
7D
  8
0
  6
CONTINUOUS
 62
     7
 10
130.8770823839055
 20
139.5631667675984
 30
0.0
 40
44.0
 50
358.43247433422681
 51
1.5675256657626619
  0
ARC
  5
7E
  8
0
  6
CONTINUOUS
 62
     7
 10
170.8437557269705
 20
145.83731152745671
 30
0.0
 40
8.48835583420224
 50
279.93203696166199
 51
298.2435269679371
  0
ARC
  5
7F
  8
0
  6
CONTINUOUS
 62
     7
 10
170.8437557269705
 20
133.28902200773999
 30
0.0
 40
8.48835583420224
 50
61.756473032062878
 51
80.067963038337993
  0
ARC
  5
80
  8
0
  6
CONTINUOUS
 62
     7
 10
177.07019148101861
 20
142.28846106196511
 30
0.0
 40
13.27139541460595
 50
122.43203696166179
 51
139.9999718730019
  0
ARC
  5
81
  8
0
  6
CONTINUOUS
 62
     7
 10
165.40046261626969
 20
160.65430443038289
 30
0.0
 40
8.48835583420224
 50
302.43203696166199
 51
320.7435269679371
  0
ARC
  5
82
  8
0
  6
CONTINUOUS
 62
     7
 10
170.20248511998571
 20
149.0611965750908
 30
0.0
 40
8.48835583420224
 50
84.256473032062885
 51
102.56796303833799
  0
ARC
  5
83
  8
0
  6
CONTINUOUS
 62
     7
 10
165.46761714683981
 20
170.29955337798131
 30
0.0
 40
13.27139541460595
 50
265.00002812691889
 51
282.56796303833818
  0
ARC
  5
84
  8
0
  6
CONTINUOUS
 62
     7
 10
130.8770823839055
 20
139.5631667675984
 30
0.0
 40
44.0
 50
65.93247433422691
 51
69.067525665762744
  0
ARC
  5
85
  8
0
  6
CONTINUOUS
 62
     7
 10
151.96822004668991
 20
174.08654699996259
 30
0.0
 40
8.48835583420224
 50
129.2564730320629
 51
147.56796303833801
  0
LINE
  5
86
  8
0
  6
CENTER
 62
     1
 10
248.40660802309671
 20
193.5631667675984
 30
0.0
 11
248.40660802309671
 21
85.563166767598403
 31
0.0
  0
LINE
  5
87
  8
0
  6
CONTINUOUS
 62
     7
 10
253.90660802309671
 20
156.06316676759869
 30
0.0
 11
253.90660802309671
 21
123.06316676759801
 31
0.0
  0
LINE
  5
88
  8
0
  6
CONTINUOUS
 62
     7
 10
242.90660802309671
 20
123.06316676759801
 30
0.0
 11
242.90660802309671
 21
156.06316676759869
 31
0.0
  0
LINE
  5
89
  8
0
  6
CONTINUOUS
 62
     7
 10
244.05660802309629
 20
175.6631667675984
 30
0.0
 11
244.05660802309629
 21
103.46316424441331
 31
0.0
  0
LINE
  5
8A
  8
0
  6
CONTINUOUS
 62
     7
 10
252.75660802309619
 20
103.4631730212591
 30
0.0
 11
252.75660802309619
 21
175.6631667675984
 31
0.0
  0
LINE
  5
98
  8
0
  6
CENTER
 62
     1
 10
252.9368062045485
 20
127.06316676759781
 30
0.0
 11
243.876409841645
 21
127.06316676759781
 31
0.0
  0
LINE
  5
99
  8
0
  6
HIDDEN
 62
     2
 10
243.90660802309679
 20
132.06316676759761
 30
0.0
 11
252.90660802309671
 21
132.06316676759761
 31
0.0
  0
ARC
  5
9C
  8
0
  6
CONTINUOUS
 62
     7
 10
235.85660802309741
 20
103.46316676759839
 30
0.0
 40
16.899999999999999
 50
332.13073823803597
 51
0.0000193993538682
  0
LINE
  5
9D
  8
0
  6
CENTER
 62
     1
 10
258.05412463823939
 20
98.87816676759833
 30
0.0
 11
238.75909140795409
 21
98.87816676759833
 31
0.0
  0
ARC
  5
9E
  8
0
  6
CONTINUOUS
 62
     7
 10
260.95660802309612
 20
103.46316676759839
 30
0.0
 40
16.899999999999999
 50
179.99998879977781
 51
207.8692617619638
  0
LINE
  5
9F
  8
0
  6
CONTINUOUS
 62
     7
 10
250.7964875406837
 20
95.563166767598432
 30
0.0
 11
246.01672850550949
 21
95.563166767598432
 31
0.0
  0
ARC
  5
A0
  8
0
  6
CONTINUOUS
 62
     7
 10
243.90660802309679
 20
123.06316676759801
 30
0.0
 40
1.0
 50
180.00000000000011
 51
270.0
  0
LINE
  5
A1
  8
0
  6
CONTINUOUS
 62
     7
 10
243.90660802309679
 20
122.06316676759801
 30
0.0
 11
244.0566080230962
 21
122.06316676759801
 31
0.0
  0
ARC
  5
A2
  8
0
  6
HIDDEN
 62
     2
 10
243.90660802309679
 20
131.06316676759761
 30
0.0
 40
1.0
 50
90.000000000000028
 51
179.99999999999989
  0
LINE
  5
A3
  8
0
  6
CONTINUOUS
 62
     7
 10
252.75660802309619
 20
122.06316676759801
 30
0.0
 11
252.90660802309671
 21
122.06316676759801
 31
0.0
  0
ARC
  5
A4
  8
0
  6
CONTINUOUS
 62
     7
 10
252.90660802309671
 20
123.06316676759801
 30
0.0
 40
1.0
 50
270.0
 51
0.0
  0
ARC
  5
A5
  8
0
  6
HIDDEN
 62
     2
 10
252.90660802309671
 20
131.06316676759761
 30
0.0
 40
1.0
 50
0.0
 51
90.000000000000028
  0
LINE
  5
A6
  8
0
  6
CENTER
 62
     1
 10
258.05412463823939
 20
180.24816676759849
 30
0.0
 11
238.75909140795409
 21
180.24816676759849
 31
0.0
  0
LINE
  5
A7
  8
0
  6
CENTER
 62
     1
 10
252.9368062045485
 20
152.063166767599
 30
0.0
 11
243.876409841645
 21
152.063166767599
 31
0.0
  0
LINE
  5
A8
  8
0
  6
HIDDEN
 62
     2
 10
243.90660802309679
 20
147.06316676759911
 30
0.0
 11
252.90660802309671
 21
147.06316676759911
 31
0.0
  0
ARC
  5
A9
  8
0
  6
CONTINUOUS
 62
     7
 10
235.85660802309741
 20
175.6631667675984
 30
0.0
 40
16.899999999999999
 50
359.9999806006461
 51
27.869261761964029
  0
LINE
  5
AA
  8
0
  6
CENTER
 62
     1
 10
263.90660802309668
 20
139.5631667675984
 30
0.0
 11
232.90660802309671
 21
139.5631667675984
 31
0.0
  0
ARC
  5
AB
  8
0
  6
CONTINUOUS
 62
     7
 10
260.95660802309612
 20
175.6631667675984
 30
0.0
 40
16.899999999999999
 50
152.1307382380362
 51
180.00001120022219
  0
ARC
  5
AC
  8
0
  6
CONTINUOUS
 62
     7
 10
243.90660802309679
 20
156.06316676759869
 30
0.0
 40
1.0
 50
90.0
 51
179.99999999999989
  0
ARC
  5
AD
  8
0
  6
HIDDEN
 62
     2
 10
243.90660802309679
 20
148.06316676759911
 30
0.0
 40
1.0
 50
180.00000000000011
 51
270.0
  0
LINE
  5
AE
  8
0
  6
CONTINUOUS
 62
     7
 10
243.90660802309679
 20
157.06316676759869
 30
0.0
 11
244.0566080230962
 21
157.06316676759869
 31
0.0
  0
LINE
  5
AF
  8
0
  6
CONTINUOUS
 62
     7
 10
250.7964875406837
 20
183.5631667675984
 30
0.0
 11
246.01672850550949
 21
183.5631667675984
 31
0.0
  0
ARC
  5
B0
  8
0
  6
CONTINUOUS
 62
     7
 10
252.90660802309671
 20
156.06316676759869
 30
0.0
 40
1.0
 50
0.0
 51
90.0
  0
ARC
  5
B1
  8
0
  6
HIDDEN
 62
     2
 10
252.90660802309671
 20
148.06316676759911
 30
0.0
 40
1.0
 50
270.0
 51
0.0
  0
LINE
  5
B2
  8
0
  6
CONTINUOUS
 62
     7
 10
252.75660802309619
 20
157.06316676759869
 30
0.0
 11
252.90660802309671
 21
157.06316676759869
 31
0.0
  0
TEXT
  5
1F3
  8
0
 62
     3
 10
0.0
 20
0.0
 30
0.0
 40
10.0
  1
SIS516-SUS
  7
STANDARD1
  0
ENDSEC
  0
EOF
