  0
SECTION
  2
HEADER
  9
$ACADVER
  1
AC1009
  9
$INSBASE
 10
0.0
 20
0.0
 30
0.0
  9
$EXTMIN
 10
0.0
 20
-2.960436562073669
 30
0.0
  9
$EXTMAX
 10
569.46890479319359
 20
497.91366906474809
 30
0.0
  9
$LIMMIN
 10
0.0
 20
0.0
  9
$LIMMAX
 10
750.0
 20
540.0
  9
$ORTHOMODE
 70
     1
  9
$REGENMODE
 70
     1
  9
$FILLMODE
 70
     1
  9
$QTEXTMODE
 70
     0
  9
$MIRRTEXT
 70
     0
  9
$DRAGMODE
 70
     2
  9
$LTSCALE
 40
20.0
  9
$OSMODE
 70
    37
  9
$ATTMODE
 70
     1
  9
$TEXTSIZE
 40
0.2
  9
$TRACEWID
 40
0.05
  9
$TEXTSTYLE
  7
STANDARD
  9
$CLAYER
  8
0
  9
$CELTYPE
  6
BYLAYER
  9
$CECOLOR
 62
   256
  9
$DIMSCALE
 40
2.0
  9
$DIMASZ
 40
3.0
  9
$DIMEXO
 40
2.0
  9
$DIMDLI
 40
0.38
  9
$DIMRND
 40
0.0
  9
$DIMDLE
 40
0.0
  9
$DIMEXE
 40
2.0
  9
$DIMTP
 40
0.0
  9
$DIMTM
 40
0.0
  9
$DIMTXT
 40
3.2000000000000002
  9
$DIMCEN
 40
0.0
  9
$DIMTSZ
 40
0.0
  9
$DIMTOL
 70
     0
  9
$DIMLIM
 70
     0
  9
$DIMTIH
 70
     0
  9
$DIMTOH
 70
     0
  9
$DIMSE1
 70
     0
  9
$DIMSE2
 70
     0
  9
$DIMTAD
 70
     1
  9
$DIMZIN
 70
     0
  9
$DIMBLK
  1

  9
$DIMASO
 70
     0
  9
$DIMSHO
 70
     0
  9
$DIMPOST
  1

  9
$DIMAPOST
  1

  9
$DIMALT
 70
     0
  9
$DIMALTD
 70
     2
  9
$DIMALTF
 40
25.399999999999999
  9
$DIMLFAC
 40
1.0
  9
$DIMTOFL
 70
     1
  9
$DIMTVP
 40
1.6000000000000001
  9
$DIMTIX
 70
     1
  9
$DIMSOXD
 70
     0
  9
$DIMSAH
 70
     0
  9
$DIMBLK1
  1

  9
$DIMBLK2
  1

  9
$DIMSTYLE
  2
STANDARD
  9
$DIMCLRD
 70
     0
  9
$DIMCLRE
 70
     0
  9
$DIMCLRT
 70
     0
  9
$DIMTFAC
 40
1.0
  9
$DIMGAP
 40
0.09
  9
$LUNITS
 70
     2
  9
$LUPREC
 70
     4
  9
$SKETCHINC
 40
0.1
  9
$FILLETRAD
 40
3.0
  9
$AUNITS
 70
     0
  9
$AUPREC
 70
     4
  9
$MENU
  1
E:\r13\win\SUPPORT\ACAD
  9
$ELEVATION
 40
0.0
  9
$PELEVATION
 40
0.0
  9
$THICKNESS
 40
0.0
  9
$LIMCHECK
 70
     0
  9
$BLIPMODE
 70
     0
  9
$CHAMFERA
 40
0.0
  9
$CHAMFERB
 40
0.0
  9
$SKPOLY
 70
     0
  9
$TDCREATE
 40
2449840.6482638889
  9
$TDUPDATE
 40
2456708.419539317
  9
$TDINDWG
 40
0.076771412
  9
$TDUSRTIMER
 40
0.076771412
  9
$USRTIMER
 70
     1
  9
$ANGBASE
 50
0.0
  9
$ANGDIR
 70
     0
  9
$PDMODE
 70
     0
  9
$PDSIZE
 40
0.0
  9
$PLINEWID
 40
0.0
  9
$COORDS
 70
     1
  9
$SPLFRAME
 70
     0
  9
$SPLINETYPE
 70
     6
  9
$SPLINESEGS
 70
     8
  9
$ATTDIA
 70
     0
  9
$ATTREQ
 70
     1
  9
$HANDLING
 70
     1
  9
$HANDSEED
  5
AE7
  9
$SURFTAB1
 70
     6
  9
$SURFTAB2
 70
     6
  9
$SURFTYPE
 70
     6
  9
$SURFU
 70
     6
  9
$SURFV
 70
     6
  9
$UCSNAME
  2

  9
$UCSORG
 10
0.0
 20
0.0
 30
0.0
  9
$UCSXDIR
 10
1.0
 20
0.0
 30
0.0
  9
$UCSYDIR
 10
0.0
 20
1.0
 30
0.0
  9
$PUCSNAME
  2

  9
$PUCSORG
 10
0.0
 20
0.0
 30
0.0
  9
$PUCSXDIR
 10
1.0
 20
0.0
 30
0.0
  9
$PUCSYDIR
 10
0.0
 20
1.0
 30
0.0
  9
$USERI1
 70
     0
  9
$USERI2
 70
     1
  9
$USERI3
 70
     0
  9
$USERI4
 70
     0
  9
$USERI5
 70
     0
  9
$USERR1
 40
0.0
  9
$USERR2
 40
0.0
  9
$USERR3
 40
0.0
  9
$USERR4
 40
0.0
  9
$USERR5
 40
0.0
  9
$WORLDVIEW
 70
     1
  9
$SHADEDGE
 70
     3
  9
$SHADEDIF
 70
    70
  9
$TILEMODE
 70
     1
  9
$MAXACTVP
 70
    16
  9
$PLIMCHECK
 70
     0
  9
$PEXTMIN
 10
1.0000000000000000E+020
 20
1.0000000000000000E+020
 30
1.0000000000000000E+020
  9
$PEXTMAX
 10
-1.0000000000000000E+020
 20
-1.0000000000000000E+020
 30
-1.0000000000000000E+020
  9
$PLIMMIN
 10
0.0
 20
0.0
  9
$PLIMMAX
 10
12.0
 20
9.0
  9
$UNITMODE
 70
     0
  9
$VISRETAIN
 70
     0
  9
$PLINEGEN
 70
     0
  9
$PSLTSCALE
 70
     0
  0
ENDSEC
  0
SECTION
  2
TABLES
  0
TABLE
  2
VPORT
 70
     1
  0
VPORT
  2
*ACTIVE
 70
     0
 10
0.0
 20
0.0
 11
1.0
 21
1.0
 12
471.27955493741302
 22
270.0
 13
0.0
 23
0.0
 14
20.0
 24
20.0
 15
20.0
 25
20.0
 16
0.0
 26
0.0
 36
1.0
 17
0.0
 27
0.0
 37
0.0
 40
540.0
 41
1.7454798331015291
 42
50.0
 43
0.0
 44
0.0
 50
0.0
 51
0.0
 71
     0
 72
   500
 73
     1
 74
     0
 75
     0
 76
     0
 77
     0
 78
     2
  0
ENDTAB
  0
TABLE
  2
LTYPE
 70
     4
  0
LTYPE
  2
CONTINUOUS
 70
     0
  3
Solid Line
 72
    65
 73
     0
 40
0.0
  0
LTYPE
  2
CENTER
 70
     0
  3
____ _ ____ _ ____ _ ____ _ ____ _ ____ _ ____
 72
    65
 73
     4
 40
2.0
 49
1.25
 49
-0.25
 49
0.25
 49
-0.25
  0
LTYPE
  2
PHANTOM2
 70
     0
  3
___ _ _ ___ _ _ ___ _ _ ___ _ _
 72
    65
 73
     6
 40
1.25
 49
0.625
 49
-0.125
 49
0.125
 49
-0.125
 49
0.125
 49
-0.125
  0
LTYPE
  2
HIDDEN
 70
     0
  3
_ _ _ _ _ _ _ _ _ _ _ _ _ _ _ _ _ _ _ _ _ _ _
 72
    65
 73
     2
 40
0.375
 49
0.25
 49
-0.125
  0
ENDTAB
  0
TABLE
  2
LAYER
 70
     4
  0
LAYER
  2
0
 70
     0
 62
     7
  6
CONTINUOUS
  0
LAYER
  2
1
 70
     0
 62
     1
  6
CENTER
  0
LAYER
  2
DEFPOINTS
 70
     0
 62
     7
  6
CONTINUOUS
  0
LAYER
  2
2
 70
     0
 62
     2
  6
HIDDEN
  0
ENDTAB
  0
TABLE
  2
STYLE
 70
     2
  0
STYLE
  2
STANDARD
 70
     0
 40
0.0
 41
1.0
 50
0.0
 71
     0
 42
0.2
  3
TXT
  4
BIGFONT
  0
STYLE
  2
STANDARD1
 70
     0
 40
0.0
 41
1.0
 50
0.0
 71
     0
 42
3.0
  3
txt
  4

  0
ENDTAB
  0
TABLE
  2
VIEW
 70
     1
  0
VIEW
  2
ALL
 70
     0
 40
540.0
 10
441.98319327731087
 20
270.0
 41
0.0
 11
0.0
 21
0.0
 31
1.0
 12
0.0
 22
0.0
 32
0.0
 42
0.0
 43
0.0
 44
0.0
 50
0.0
 71
     0
  0
ENDTAB
  0
TABLE
  2
UCS
 70
     0
  0
ENDTAB
  0
TABLE
  2
APPID
 70
    39
  0
APPID
  2
ACAD
 70
     0
  0
APPID
  2
ACAD_MLEADERVER
 70
     0
  0
APPID
  2
DCO15
 70
     0
  0
APPID
  2
GENIUS_GENOREF_13
 70
     0
  0
APPID
  2
GENIUS_GENOENT_13
 70
     0
  0
APPID
  2
GENIUS_GENBH_13
 70
     0
  0
APPID
  2
GENIUS_GENOBJ_13
 70
     0
  0
APPID
  2
GENIUS_GENODEF_13
 70
     0
  0
APPID
  2
GENIUS_GENOLIS_13
 70
     0
  0
APPID
  2
GENIUS_GENOBJ-NBEHI-BHF_13
 70
     0
  0
APPID
  2
GENIUS_GENOBJ-NBEHI-BHB_13
 70
     0
  0
APPID
  2
GENIUS_GENOBJ-F-PART_13
 70
     0
  0
APPID
  2
GENIUS_GEFSTDP_13
 70
     0
  0
APPID
  2
GENIUS_GENOBJ-N-RSSYM_13
 70
     0
  0
APPID
  2
GENIUS_GENSYMENT_13
 70
     0
  0
APPID
  2
GENIUS_GENOBJ-N-TIT_13
 70
     0
  0
APPID
  2
GENIUS_GENTITLE_13
 70
     0
  0
APPID
  2
GENIUS_GENZVEED_13
 70
     0
  0
APPID
  2
GENIUS_GENOBJ-N-LEADER_13
 70
     0
  0
APPID
  2
GENIUS_GENOBJ-N-FIL_13
 70
     0
  0
APPID
  2
GENIUS_GENOBJ-N-SEC_13
 70
     0
  0
APPID
  2
GENIUS_GENOBJ-N-CRS_13
 70
     0
  0
APPID
  2
GENIUS_GENOBJ-N-ZOO_13
 70
     0
  0
APPID
  2
GENIUS_GENZOO_13
 70
     0
  0
APPID
  2
GENIUS_GENOBJ-F-TOL_13
 70
     0
  0
APPID
  2
GENIUS_GENFIL_13
 70
     0
  0
APPID
  2
GENIUS_GENOBJ-N-CHA_13
 70
     0
  0
APPID
  2
_CALL_MAC$
 70
     0
  0
APPID
  2
ASM_BASE
 70
     0
  0
APPID
  2
ASM_EXPLO_VER_2_00
 70
     0
  0
APPID
  2
ASM_CADM_VER_12_00
 70
     0
  0
APPID
  2
ASM_BASEFORO
 70
     0
  0
APPID
  2
ASM_BASETRAVI
 70
     0
  0
APPID
  2
ASM_BASETRAVI1
 70
     0
  0
APPID
  2
ASM_GRUPPI
 70
     0
  0
APPID
  2
ASM_CADM_ALBERO
 70
     0
  0
APPID
  2
ASM_GOLE
 70
     0
  0
APPID
  2
ACAD_NAV_VCDISPLAY
 70
     0
  0
APPID
  2
ACAD_EXEMPT_FROM_CAD_STANDARDS
 70
     0
  0
ENDTAB
  0
TABLE
  2
DIMSTYLE
 70
     1
  0
DIMSTYLE
  2
STANDARD
 70
     0
  3

  4

  5

  6

  7

 40
1.0
 41
0.18
 42
0.0625
 43
0.38
 44
0.18
 45
0.0
 46
0.0
 47
0.0
 48
0.0
140
0.18
141
0.09
142
0.0
143
25.399999999999999
144
1.0
145
0.0
146
1.0
147
0.09
 71
     0
 72
     0
 73
     1
 74
     1
 75
     0
 76
     0
 77
     0
 78
     0
170
     0
171
     2
172
     0
173
     0
174
     0
175
     0
176
     0
177
     0
178
     0
  0
ENDTAB
  0
ENDSEC
  0
SECTION
  2
BLOCKS
  0
BLOCK
  8
0
  2
$MODEL_SPACE
 70
     0
 10
0.0
 20
0.0
 30
0.0
  3
$MODEL_SPACE
  1

  0
ENDBLK
  5
CB
  8
0
  0
BLOCK
 67
     1
  8
0
  2
$PAPER_SPACE
 70
     0
 10
0.0
 20
0.0
 30
0.0
  3
$PAPER_SPACE
  1

  0
ENDBLK
  5
C9
 67
     1
  8
0
  0
ENDSEC
  0
SECTION
  2
ENTITIES
  0
TEXT
  5
185
  8
0
 62
     3
 10
0.0
 20
0.0
 30
0.0
 40
10.0
  1
SHK20
  7
STANDARD1
  0
LINE
  5
500
  8
0
 10
504.46890479319359
 20
62.913669064748198
 30
0.0
 11
486.46890479319359
 21
62.913669064748198
 31
0.0
  0
LINE
  5
501
  8
0
 10
484.46890479319359
 20
64.913669064748206
 30
0.0
 11
484.46890479319359
 21
260.91366906474821
 31
0.0
  0
LINE
  5
502
  8
0
 10
486.46890479319359
 20
262.91366906474821
 30
0.0
 11
504.46890479319359
 21
262.91366906474821
 31
0.0
  0
LINE
  5
503
  8
1
 10
474.46890479319359
 20
162.91366906474821
 30
0.0
 11
569.46890479319359
 21
162.91366906474821
 31
0.0
  0
LINE
  5
506
  8
0
 10
559.46890479319347
 20
182.41366906474821
 30
0.0
 11
555.96890479319359
 21
185.41366906474821
 31
0.0
  0
LINE
  5
507
  8
0
 10
559.46890479319347
 20
143.41366906474821
 30
0.0
 11
555.96890479319359
 21
140.41366906474821
 31
0.0
  0
LINE
  5
508
  8
0
 10
536.6662688549161
 20
187.64569783770901
 30
0.0
 11
555.96890479319359
 21
185.41366906474821
 31
0.0
  0
LINE
  5
509
  8
0
 10
555.96890479319359
 20
140.41366906474821
 30
0.0
 11
536.6662688549161
 21
138.1816402917874
 31
0.0
  0
LINE
  5
50A
  8
0
 10
534.46890479319347
 20
204.41366906474821
 30
0.0
 11
528.46890479319347
 21
210.41366906474821
 31
0.0
  0
LINE
  5
50B
  8
0
 10
534.46890479319347
 20
121.41366906474821
 30
0.0
 11
528.46890479319347
 21
115.41366906474821
 31
0.0
  0
LINE
  5
50C
  8
0
 10
534.46890479319347
 20
204.41366906474809
 30
0.0
 11
534.46890479319347
 21
121.41366906474821
 31
0.0
  0
LINE
  5
50E
  8
0
 10
528.46890479319347
 20
210.41366906474821
 30
0.0
 11
511.46890479319359
 21
211.41366906474821
 31
0.0
  0
LINE
  5
50F
  8
2
 10
505.46890479319359
 20
67.913669064748206
 30
0.0
 11
490.46890479319359
 21
67.913669064748206
 31
0.0
  0
LINE
  5
510
  8
2
 10
489.46890479319359
 20
68.913669064748206
 30
0.0
 11
489.46890479319359
 21
76.641987000354789
 31
0.0
  0
LINE
  5
511
  8
2
 10
489.60637988742741
 20
77.148001611737641
 30
0.0
 11
506.46890479319347
 21
105.8909417920207
 31
0.0
  0
LINE
  5
512
  8
2
 10
493.28576669853828
 20
242.40765445336541
 30
0.0
 11
506.46890479319359
 21
219.9363963374754
 31
0.0
  0
LINE
  5
513
  8
0
 10
506.46890479319359
 20
64.913669064748206
 30
0.0
 11
506.46890479319359
 21
260.91366906474821
 31
0.0
  0
LINE
  5
514
  8
2
 10
484.46890479319359
 20
82.913669064748206
 30
0.0
 11
486.46890479319359
 21
82.913669064748206
 31
0.0
  0
LINE
  5
515
  8
2
 10
484.46890479319359
 20
242.91366906474821
 30
0.0
 11
486.46890479319359
 21
242.91366906474821
 31
0.0
  0
LINE
  5
516
  8
2
 10
486.46890479319359
 20
82.913669064748206
 30
0.0
 11
486.46890479319359
 21
242.91366906474821
 31
0.0
  0
LINE
  5
517
  8
2
 10
492.46890479319359
 20
114.91366906474821
 30
0.0
 11
492.46890479319359
 21
210.91366906474821
 31
0.0
  0
LINE
  5
518
  8
2
 10
492.46890479319359
 20
114.91366906474821
 30
0.0
 11
500.97349814331932
 21
114.91366906474821
 31
0.0
  0
LINE
  5
519
  8
2
 10
492.46890479319359
 20
210.91366906474821
 30
0.0
 11
500.97349814331932
 21
210.91366906474821
 31
0.0
  0
LINE
  5
51A
  8
2
 10
502.2981717225054
 20
213.1174019036909
 30
0.0
 11
486.46890479319359
 21
242.91366906474821
 31
0.0
  0
LINE
  5
51B
  8
2
 10
502.2981717225054
 20
112.70993622580551
 30
0.0
 11
486.46890479319359
 21
82.913669064748206
 31
0.0
  0
LINE
  5
51C
  8
2
 10
504.4689047931941
 20
120.41366906474821
 30
0.0
 11
504.4689047931941
 21
205.41366906474821
 31
0.0
  0
LINE
  5
51D
  8
2
 10
503.46890479319399
 20
119.41366906474821
 30
0.0
 11
503.46890479319399
 21
206.41366906474821
 31
0.0
  0
LINE
  5
51E
  8
2
 10
493.46890479319387
 20
119.41366906474821
 30
0.0
 11
493.46890479319381
 21
206.41366906474821
 31
0.0
  0
LINE
  5
51F
  8
2
 10
492.46890479319399
 20
207.41366906474821
 30
0.0
 11
493.46890479319387
 21
206.41366906474821
 31
0.0
  0
LINE
  5
520
  8
2
 10
492.46890479319399
 20
118.41366906474821
 30
0.0
 11
493.46890479319387
 21
119.41366906474821
 31
0.0
  0
LINE
  5
521
  8
2
 10
504.46890479319399
 20
205.41366906474821
 30
0.0
 11
503.46890479319399
 21
206.41366906474821
 31
0.0
  0
LINE
  5
522
  8
2
 10
503.46890479319399
 20
119.41366906474821
 30
0.0
 11
504.4689047931941
 21
120.41366906474821
 31
0.0
  0
LINE
  5
523
  8
2
 10
493.46890479319387
 20
206.41366906474821
 30
0.0
 11
503.46890479319399
 21
206.41366906474821
 31
0.0
  0
LINE
  5
524
  8
2
 10
493.46890479319387
 20
119.41366906474821
 30
0.0
 11
503.46890479319399
 21
119.41366906474821
 31
0.0
  0
LINE
  5
525
  8
2
 10
504.46890479319399
 20
205.41366906474821
 30
0.0
 11
519.46890479319404
 21
205.41366906474821
 31
0.0
  0
LINE
  5
526
  8
2
 10
504.4689047931941
 20
120.41366906474821
 30
0.0
 11
519.46890479319404
 21
120.41366906474821
 31
0.0
  0
LINE
  5
527
  8
2
 10
519.46890479319404
 20
120.41366906474821
 30
0.0
 11
519.46890479319404
 21
205.41366906474821
 31
0.0
  0
LINE
  5
528
  8
2
 10
525.46890479319404
 20
130.91366906474821
 30
0.0
 11
525.46890479319404
 21
194.91366906474821
 31
0.0
  0
LINE
  5
529
  8
2
 10
519.46890479319404
 20
197.91366906474821
 30
0.0
 11
522.46890479319404
 21
197.91366906474821
 31
0.0
  0
LINE
  5
52A
  8
2
 10
519.46890479319404
 20
127.91366906474821
 30
0.0
 11
522.46890479319404
 21
127.91366906474821
 31
0.0
  0
LINE
  5
52F
  8
1
 10
512.46890479319404
 20
109.46151451549269
 30
0.0
 11
512.46890479319404
 21
125.41366906474821
 31
0.0
  0
LINE
  5
530
  8
2
 10
484.46890479319359
 20
259.60166906474831
 30
0.0
 11
485.9689047931937
 21
258.10166906474831
 31
0.0
  0
LINE
  5
531
  8
2
 10
485.9689047931937
 20
249.7256690647481
 30
0.0
 11
485.9689047931937
 21
250.11366906474831
 31
0.0
  0
LINE
  5
532
  8
2
 10
484.46890479319359
 20
248.2256690647481
 30
0.0
 11
485.9689047931937
 21
249.7256690647481
 31
0.0
  0
LINE
  5
533
  8
2
 10
485.1569047931938
 20
248.91366906474821
 30
0.0
 11
500.4689047931933
 21
248.91366906474821
 31
0.0
  0
LINE
  5
534
  8
2
 10
485.9689047931937
 20
249.7256690647481
 30
0.0
 11
501.28090479319332
 21
249.7256690647481
 31
0.0
  0
LINE
  5
535
  8
2
 10
485.1569047931938
 20
258.91366906474821
 30
0.0
 11
506.45107382141629
 21
258.91366906474832
 31
0.0
  0
LINE
  5
536
  8
2
 10
485.9689047931937
 20
258.10166906474831
 30
0.0
 11
505.46890479319359
 21
258.10166906474842
 31
0.0
  0
LINE
  5
537
  8
2
 10
499.46890479319359
 20
246.91366906474821
 30
0.0
 11
499.46890479319359
 21
248.91366906474821
 31
0.0
  0
LINE
  5
538
  8
2
 10
494.1482916043044
 20
243.91366906474821
 30
0.0
 11
496.46890479319359
 21
243.91366906474821
 31
0.0
  0
ARC
  5
539
  8
2
 10
496.46890479319359
 20
246.91366906474821
 30
0.0
 40
3.0
 50
270.0
 51
0.0
  0
ARC
  5
53A
  8
0
 10
486.46890479319359
 20
260.91366906474821
 30
0.0
 40
2.0
 50
90.0
 51
180.0
  0
ARC
  5
53B
  8
0
 10
504.46890479319359
 20
260.91366906474821
 30
0.0
 40
2.0
 50
0.0
 51
90.0
  0
ARC
  5
53C
  8
0
 10
504.46890479319359
 20
64.913669064748206
 30
0.0
 40
2.0
 50
270.0
 51
0.0
  0
ARC
  5
53D
  8
0
 10
486.46890479319359
 20
64.913669064748206
 30
0.0
 40
2.0
 50
180.0
 51
270.0
  0
ARC
  5
53E
  8
2
 10
500.97349814331932
 20
113.41366906474821
 30
0.0
 40
1.5
 50
332.02052561151652
 51
90.0
  0
ARC
  5
53F
  8
2
 10
500.97349814331932
 20
212.41366906474821
 30
0.0
 40
1.5
 50
270.0
 51
27.979474388483521
  0
ARC
  5
540
  8
2
 10
505.46890479319359
 20
66.913669064748206
 30
0.0
 40
1.0
 50
0.0
 51
90.0
  0
ARC
  5
541
  8
2
 10
505.46890479319359
 20
259.10166906474831
 30
0.0
 40
1.0
 50
270.0
 51
0.0
  0
ARC
  5
542
  8
2
 10
490.46890479319359
 20
68.913669064748206
 30
0.0
 40
1.0
 50
180.0
 51
270.0
  0
ARC
  5
543
  8
2
 10
490.46890479319359
 20
76.641987000354789
 30
0.0
 40
1.0
 50
149.6012722858342
 51
180.0
  0
ARC
  5
544
  8
2
 10
494.1482916043044
 20
242.91366906474821
 30
0.0
 40
1.0
 50
90.0
 51
210.3987277141658
  0
ARC
  5
545
  8
0
 10
536.96890479319347
 20
135.70002559791129
 30
0.0
 40
2.5
 50
96.95295746817331
 51
180.0
  0
ARC
  5
546
  8
0
 10
536.96890479319347
 20
190.12731253158501
 30
0.0
 40
2.5
 50
180.0
 51
263.04704253182672
  0
ARC
  5
547
  8
2
 10
522.46890479319404
 20
130.91366906474821
 30
0.0
 40
3.0
 50
270.0
 51
0.0
  0
ARC
  5
548
  8
2
 10
522.46890479319404
 20
194.91366906474821
 30
0.0
 40
3.0
 50
0.0
 51
90.0
  0
LINE
  5
549
  8
2
 10
525.46890479319404
 20
158.91366906474821
 30
0.0
 11
556.96890479319359
 21
158.91366906474821
 31
0.0
  0
LINE
  5
54A
  8
2
 10
525.46890479319404
 20
166.91366906474821
 30
0.0
 11
556.96890479319359
 21
166.91366906474821
 31
0.0
  0
LINE
  5
54B
  8
0
 10
559.46890479319347
 20
182.41366906474821
 30
0.0
 11
559.46890479319347
 21
143.41366906474821
 31
0.0
  0
LINE
  5
54C
  8
2
 10
559.46890479319347
 20
156.41366906474821
 30
0.0
 11
556.96890479319359
 21
158.91366906474821
 31
0.0
  0
LINE
  5
54D
  8
2
 10
556.96890479319359
 20
166.91366906474821
 30
0.0
 11
559.46890479319347
 21
169.41366906474821
 31
0.0
  0
LINE
  5
54E
  8
2
 10
556.96890479319359
 20
158.91366906474821
 30
0.0
 11
556.96890479319359
 21
166.91366906474821
 31
0.0
  0
LINE
  5
54F
  8
1
 10
511.46890479319347
 20
253.91366906474821
 30
0.0
 11
394.46890479319359
 21
253.91366906474821
 31
0.0
  0
LINE
  5
550
  8
0
 10
407.94471753538102
 20
240.91366906474821
 30
0.0
 11
454.4689047931933
 21
240.91366906474821
 31
0.0
  0
LINE
  5
551
  8
0
 10
483.252785922241
 20
243.3365546816714
 30
0.0
 11
454.4689047931933
 21
240.91366906474821
 31
0.0
  0
LINE
  5
552
  8
2
 10
501.46890479319347
 20
257.91366906474821
 30
0.0
 11
501.46890479319342
 21
249.91366906474821
 31
0.0
  0
ARC
  5
553
  8
0
 10
454.4689047931933
 20
253.91366906474821
 30
0.0
 40
50.0
 50
180.0
 51
193.01057508545051
  0
ARC
  5
554
  8
0
 10
483.16890479319341
 20
244.33303044966431
 30
0.0
 40
1.0
 50
274.8115345016775
 51
0.0
  0
ARC
  5
555
  8
0
 10
407.94471753538102
 20
243.16366906474821
 30
0.0
 40
2.25
 50
193.01057508545051
 51
270.0
  0
ARC
  5
556
  8
0
 10
407.94471753538102
 20
264.66366906474821
 30
0.0
 40
2.25
 50
90.0
 51
166.98942491454949
  0
ARC
  5
557
  8
0
 10
483.16890479319341
 20
263.4943076798321
 30
0.0
 40
1.0
 50
0.0
 51
85.188465498322444
  0
ARC
  5
558
  8
0
 10
454.4689047931933
 20
253.91366906474821
 30
0.0
 40
50.0
 50
166.98942491454949
 51
180.0
  0
LINE
  5
559
  8
0
 10
483.25278324382049
 20
264.49078367328133
 30
0.0
 11
454.46890479319347
 21
266.91366906474821
 31
0.0
  0
LINE
  5
55B
  8
0
 10
484.46890479319347
 20
259.91366906474821
 30
0.0
 11
484.16890479319341
 21
259.91366906474821
 31
0.0
  0
LINE
  5
55C
  8
0
 10
454.46890479319347
 20
266.91366906474821
 30
0.0
 11
454.4689047931933
 21
240.91366906474821
 31
0.0
  0
LINE
  5
55D
  8
0
 10
407.94471753538102
 20
266.91366906474821
 30
0.0
 11
454.46890479319347
 21
266.91366906474821
 31
0.0
  0
LINE
  5
55E
  8
0
 10
484.16890479319352
 20
263.4943076798321
 30
0.0
 11
484.16890479319341
 21
244.33303044966431
 31
0.0
  0
LINE
  5
55F
  8
0
 10
406.54422211069902
 20
265.2374765485352
 30
0.0
 11
406.54422211069891
 21
242.5898615809611
 31
0.0
  0
LINE
  5
560
  8
0
 10
484.46890479319342
 20
247.91366906474821
 30
0.0
 11
484.16890479319341
 21
247.91366906474821
 31
0.0
  0
LINE
  5
561
  8
2
 10
501.46890479319342
 20
251.02691771880009
 30
0.0
 11
495.46890479319342
 21
251.02691771880009
 31
0.0
  0
LINE
  5
562
  8
2
 10
501.46890479319342
 20
252.47029339177411
 30
0.0
 11
495.46890479319342
 21
252.47029339177411
 31
0.0
  0
LINE
  5
563
  8
2
 10
495.46890479319342
 20
256.80042041069629
 30
0.0
 11
495.46890479319342
 21
251.02691771880009
 31
0.0
  0
LINE
  5
564
  8
2
 10
495.46890479319342
 20
251.02691771880009
 30
0.0
 11
494.41821322954041
 21
253.91366906474821
 31
0.0
  0
LINE
  5
565
  8
2
 10
495.46890479319342
 20
256.80042041069629
 30
0.0
 11
494.41821322954041
 21
253.91366906474821
 31
0.0
  0
LINE
  5
566
  8
2
 10
501.46890479319347
 20
255.3570447377223
 30
0.0
 11
495.46890479319342
 21
255.3570447377223
 31
0.0
  0
LINE
  5
567
  8
2
 10
501.46890479319347
 20
256.80042041069629
 30
0.0
 11
495.46890479319342
 21
256.80042041069629
 31
0.0
  0
LINE
  5
568
  8
2
 10
500.4689047931933
 20
258.91366906474821
 30
0.0
 11
500.4689047931933
 21
248.91366906474821
 31
0.0
  0
LINE
  5
569
  8
2
 10
501.46890479319347
 20
257.91366906474821
 30
0.0
 11
500.46890479319347
 21
258.91366906474821
 31
0.0
  0
LINE
  5
56A
  8
2
 10
501.46890479319342
 20
249.91366906474821
 30
0.0
 11
500.4689047931933
 21
248.91366906474821
 31
0.0
  0
LINE
  5
56F
  8
2
 10
486.96890479319342
 20
250.11366906474831
 30
0.0
 11
484.96890479319342
 21
250.11366906474831
 31
0.0
  0
LINE
  5
570
  8
2
 10
486.96890479319347
 20
257.71366906474822
 30
0.0
 11
484.96890479319347
 21
257.71366906474822
 31
0.0
  0
LINE
  5
571
  8
2
 10
487.46890479319342
 20
248.91366906474821
 30
0.0
 11
487.46890479319347
 21
258.91366906474821
 31
0.0
  0
ARC
  5
572
  8
2
 10
486.96890479319342
 20
249.61366906474831
 30
0.0
 40
0.5
 50
0.0
 51
90.0
  0
ARC
  5
573
  8
2
 10
484.96890479319342
 20
249.61366906474831
 30
0.0
 40
0.5
 50
90.0
 51
180.0
  0
ARC
  5
574
  8
2
 10
484.96890479319347
 20
258.21366906474822
 30
0.0
 40
0.5
 50
180.0
 51
270.0
  0
ARC
  5
575
  8
2
 10
486.96890479319347
 20
258.21366906474822
 30
0.0
 40
0.5
 50
269.9999999999992
 51
0.0
  0
LINE
  5
578
  8
2
 10
485.9689047931937
 20
257.71366906474822
 30
0.0
 11
485.9689047931937
 21
258.10166906474831
 31
0.0
  0
ARC
  5
579
  8
0
 10
234.46890479319359
 20
162.91366906474821
 30
0.0
 40
100.0
 50
95.63661559780266
 51
84.363384402197326
  0
LINE
  5
57A
  8
1
 10
344.46890479319359
 20
162.91366906474821
 30
0.0
 11
124.4689047931936
 21
162.91366906474821
 31
0.0
  0
LINE
  5
57B
  8
1
 10
234.46890479319359
 20
276.91366906474821
 30
0.0
 11
234.46890479319359
 21
52.913669064748198
 31
0.0
  0
LINE
  5
57E
  8
2
 10
510.73685398703481
 20
117.41366906474821
 30
0.0
 11
512.46890479319404
 21
118.41366906393441
 31
0.0
  0
LINE
  5
57F
  8
2
 10
514.20095559935305
 20
117.41366906474821
 30
0.0
 11
512.46890479319404
 21
118.41366906393441
 31
0.0
  0
LINE
  5
580
  8
2
 10
510.7368539870356
 20
117.41366906474821
 30
0.0
 11
514.20095559935305
 21
117.41366906474821
 31
0.0
  0
LINE
  5
581
  8
2
 10
510.7368539870356
 20
114.41366906474821
 30
0.0
 11
510.7368539870356
 21
117.41366906474821
 31
0.0
  0
LINE
  5
582
  8
2
 10
511.60287939011499
 20
114.41366906474821
 30
0.0
 11
511.60287939011499
 21
117.41366906474821
 31
0.0
  0
LINE
  5
583
  8
2
 10
513.33493019627281
 20
114.41366906474821
 30
0.0
 11
513.33493019627281
 21
117.41366906474821
 31
0.0
  0
LINE
  5
584
  8
2
 10
514.20095559935305
 20
114.41366906474821
 30
0.0
 11
514.20095559935305
 21
117.41366906474821
 31
0.0
  0
LINE
  5
585
  8
2
 10
509.46890479319518
 20
114.91366906474821
 30
0.0
 11
510.33493019697983
 21
114.41366906474821
 31
0.0
  0
LINE
  5
586
  8
2
 10
515.46890479319279
 20
114.91366906474821
 30
0.0
 11
514.95840868557377
 21
114.61893399959411
 31
0.0
  0
LINE
  5
587
  8
2
 10
509.46890479319518
 20
114.91366906474821
 30
0.0
 11
515.46890479319279
 21
114.91366906474821
 31
0.0
  0
LINE
  5
588
  8
2
 10
513.96890479319291
 20
120.41366906474821
 30
0.0
 11
515.46890479319279
 21
118.91366906474821
 31
0.0
  0
LINE
  5
589
  8
2
 10
509.46890479319518
 20
118.91366906474821
 30
0.0
 11
510.96890479319518
 21
120.41366906474821
 31
0.0
  0
LINE
  5
58A
  8
2
 10
509.46890479319518
 20
118.91366906474821
 30
0.0
 11
515.46890479319279
 21
118.91366906474821
 31
0.0
  0
LINE
  5
58D
  8
2
 10
514.92740479319207
 20
114.60103389398169
 30
0.0
 11
514.92740479319207
 21
120.41366906474811
 31
0.0
  0
LINE
  5
58F
  8
2
 10
510.33493019697983
 20
114.41366906474821
 30
0.0
 11
511.46890479319211
 21
114.41366906474821
 31
0.0
  0
LINE
  5
590
  8
2
 10
509.46890479319399
 20
120.41366906474811
 30
0.0
 11
509.46890479319399
 21
111.00457815565809
 31
0.0
  0
LINE
  5
591
  8
2
 10
510.01040479319357
 20
120.41366906474811
 30
0.0
 11
510.01040479319403
 21
111.9275895192942
 31
0.0
  0
LINE
  5
592
  8
2
 10
515.46890479319404
 20
120.41366906474811
 30
0.0
 11
515.46890479319404
 21
114.64896318239509
 31
0.0
  0
LINE
  5
593
  8
1
 10
257.46890479319359
 20
253.91366906474821
 30
0.0
 11
211.46890479319299
 21
253.91366906474821
 31
0.0
  0
CIRCLE
  5
594
  8
0
 10
234.46890479319359
 20
253.91366906474821
 30
0.0
 40
13.0
  0
CIRCLE
  5
595
  8
0
 10
234.46890479319359
 20
162.91366906474821
 30
0.0
 40
4.0
  0
CIRCLE
  5
596
  8
0
 10
234.46890479319359
 20
162.91366906474821
 30
0.0
 40
35.000000000000028
  0
ARC
  5
597
  8
0
 10
234.46890479319359
 20
162.91366906474821
 30
0.0
 40
80.0
 50
94.653684592762005
 51
85.346315407237995
  0
CIRCLE
  5
598
  8
0
 10
234.46890479319359
 20
162.91366906474821
 30
0.0
 40
48.0
  0
CIRCLE
  5
599
  8
0
 10
234.46890479319359
 20
162.91366906474821
 30
0.0
 40
42.499999999999943
  0
CIRCLE
  5
59A
  8
0
 10
234.46890479319359
 20
162.91366906474821
 30
0.0
 40
44.500000000000327
  0
CIRCLE
  5
59B
  8
0
 10
234.46890479319359
 20
162.91366906474821
 30
0.0
 40
43.5
  0
LINE
  5
8D3
  8
0
 10
511.46890479319359
 20
114.41366906474821
 30
0.0
 11
506.46890479319359
 21
105.8909417920208
 31
0.0
  0
LINE
  5
8D4
  8
0
 10
506.46890479319359
 20
219.9363963374756
 30
0.0
 11
511.46890479319359
 21
211.41366906474821
 31
0.0
  0
LINE
  5
8D5
  8
0
 10
528.46890479319347
 20
210.41366906474821
 30
0.0
 11
528.46890479319347
 21
115.41366906474821
 31
0.0
  0
LINE
  5
8D6
  8
0
 10
555.96890479319359
 20
185.41366906474821
 30
0.0
 11
555.96890479319359
 21
140.41366906474821
 31
0.0
  0
LINE
  5
8D7
  8
0
 10
528.46890479319347
 20
115.41366906474821
 30
0.0
 11
511.46890479319359
 21
114.41366906474821
 31
0.0
  0
LINE
  5
8D8
  8
0
 10
514.95840868557411
 20
114.6189339995942
 30
0.0
 11
514.60287938940837
 21
114.41366906474811
 31
0.0
  0
LINE
  5
8D9
  8
0
 10
511.46890479319211
 20
114.41366906474821
 30
0.0
 11
514.60287938940837
 21
114.41366906474821
 31
0.0
  0
LINE
  5
8F5
  8
2
 10
232.73685398703441
 20
117.41366906474821
 30
0.0
 11
234.46890479319359
 21
118.41366906393441
 31
0.0
  0
LINE
  5
8F6
  8
2
 10
236.2009555993528
 20
117.41366906474821
 30
0.0
 11
234.46890479319359
 21
118.41366906393441
 31
0.0
  0
LINE
  5
8F7
  8
2
 10
232.7368539870352
 20
117.41366906474821
 30
0.0
 11
236.2009555993528
 21
117.41366906474821
 31
0.0
  0
LINE
  5
8F8
  8
2
 10
232.7368539870352
 20
114.41366906474821
 30
0.0
 11
232.7368539870352
 21
117.41366906474821
 31
0.0
  0
LINE
  5
8FA
  8
2
 10
234.4689047931937
 20
114.41366906474821
 30
0.0
 11
234.4689047931937
 21
117.41366906474821
 31
0.0
  0
LINE
  5
8FB
  8
2
 10
236.2009555993528
 20
114.41366906474821
 30
0.0
 11
236.2009555993528
 21
117.41366906474821
 31
0.0
  0
LINE
  5
8FC
  8
2
 10
231.46890479319481
 20
114.91366906474821
 30
0.0
 11
232.33493019697929
 21
114.41366906474821
 31
0.0
  0
LINE
  5
8FD
  8
2
 10
237.46890479319251
 20
114.91366906474821
 30
0.0
 11
236.602879389408
 21
114.41366906474821
 31
0.0
  0
LINE
  5
8FE
  8
2
 10
231.46890479319481
 20
114.91366906474821
 30
0.0
 11
237.46890479319239
 21
114.91366906474821
 31
0.0
  0
LINE
  5
8FF
  8
2
 10
235.96890479319239
 20
120.41366906474821
 30
0.0
 11
237.46890479319239
 21
118.91366906474821
 31
0.0
  0
LINE
  5
900
  8
2
 10
231.46890479319481
 20
118.91366906474821
 30
0.0
 11
232.96890479319481
 21
120.41366906474821
 31
0.0
  0
LINE
  5
901
  8
2
 10
231.46890479319481
 20
118.91366906474821
 30
0.0
 11
237.46890479319251
 21
118.91366906474821
 31
0.0
  0
LINE
  5
902
  8
2
 10
236.92740479319181
 20
114.60103389398169
 30
0.0
 11
236.92740479319181
 21
120.4848371488209
 31
0.0
  0
LINE
  5
903
  8
2
 10
232.33493019697929
 20
114.41366906474821
 30
0.0
 11
236.60287938940809
 21
114.41366906474821
 31
0.0
  0
LINE
  5
904
  8
2
 10
237.4689047931937
 20
120.5196836422854
 30
0.0
 11
237.4689047931937
 21
114.913669064749
 31
0.0
  0
LINE
  5
907
  8
2
 10
231.4689047931937
 20
120.5196836422854
 30
0.0
 11
231.4689047931937
 21
114.9136690647489
 31
0.0
  0
LINE
  5
908
  8
2
 10
232.0104047931932
 20
120.4848371488211
 30
0.0
 11
232.0104047931934
 21
114.6010338939828
 31
0.0
  0
CIRCLE
  5
90B
  8
2
 10
234.46890479319359
 20
162.91366906474821
 30
0.0
 40
48.5
  0
LINE
  5
914
  8
0
 10
334.46890479319359
 20
432.91366906474821
 30
0.0
 11
334.46890479319359
 21
414.91366906474809
 31
0.0
  0
LINE
  5
915
  8
0
 10
332.46890479319359
 20
412.91366906474821
 30
0.0
 11
136.46890479319359
 21
412.91366906474821
 31
0.0
  0
LINE
  5
916
  8
0
 10
134.46890479319359
 20
414.91366906474809
 30
0.0
 11
134.46890479319359
 21
432.91366906474821
 31
0.0
  0
LINE
  5
917
  8
1
 10
234.46890479319359
 20
322.91366906474821
 30
0.0
 11
234.46890479319359
 21
497.91366906474809
 31
0.0
  0
LINE
  5
918
  8
0
 10
214.9689047931937
 20
487.91366906474821
 30
0.0
 11
211.96890479319359
 21
484.41366906474821
 31
0.0
  0
LINE
  5
919
  8
0
 10
253.96890479319359
 20
487.91366906474821
 30
0.0
 11
256.96890479319359
 21
484.41366906474821
 31
0.0
  0
LINE
  5
91A
  8
0
 10
209.73687602023281
 20
465.11103312647072
 30
0.0
 11
211.96890479319359
 21
484.41366906474821
 31
0.0
  0
LINE
  5
91B
  8
0
 10
256.96890479319359
 20
484.41366906474821
 30
0.0
 11
259.20093356615439
 21
465.11103312647072
 31
0.0
  0
LINE
  5
91C
  8
0
 10
192.96890479319359
 20
462.91366906474821
 30
0.0
 11
186.96890479319359
 21
456.91366906474809
 31
0.0
  0
LINE
  5
91D
  8
0
 10
275.96890479319359
 20
462.91366906474821
 30
0.0
 11
281.96890479319359
 21
456.91366906474809
 31
0.0
  0
LINE
  5
91E
  8
0
 10
192.96890479319359
 20
462.91366906474821
 30
0.0
 11
275.96890479319359
 21
462.91366906474821
 31
0.0
  0
LINE
  5
91F
  8
0
 10
186.96890479319359
 20
456.91366906474809
 30
0.0
 11
185.96890479319359
 21
439.91366906474809
 31
0.0
  0
LINE
  5
920
  8
2
 10
329.4689047931937
 20
433.91366906474821
 30
0.0
 11
329.4689047931937
 21
418.91366906474809
 31
0.0
  0
LINE
  5
921
  8
2
 10
328.46890479319359
 20
417.91366906474821
 30
0.0
 11
320.74058685758712
 21
417.91366906474821
 31
0.0
  0
LINE
  5
922
  8
2
 10
320.23457224620421
 20
418.05114415898203
 30
0.0
 11
291.49163206592112
 21
434.91366906474809
 31
0.0
  0
LINE
  5
924
  8
0
 10
332.46890479319359
 20
434.91366906474809
 30
0.0
 11
136.46890479319359
 21
434.91366906474809
 31
0.0
  0
LINE
  5
925
  8
2
 10
314.4689047931937
 20
412.91366906474821
 30
0.0
 11
314.4689047931937
 21
414.91366906474809
 31
0.0
  0
LINE
  5
926
  8
2
 10
154.46890479319359
 20
412.91366906474821
 30
0.0
 11
154.46890479319359
 21
414.91366906474809
 31
0.0
  0
LINE
  5
927
  8
2
 10
314.4689047931937
 20
414.91366906474809
 30
0.0
 11
154.46890479319359
 21
414.91366906474809
 31
0.0
  0
LINE
  5
928
  8
2
 10
282.46890479319359
 20
420.91366906474821
 30
0.0
 11
186.46890479319359
 21
420.91366906474821
 31
0.0
  0
LINE
  5
929
  8
2
 10
282.46890479319359
 20
420.91366906474821
 30
0.0
 11
282.46890479319359
 21
429.41826241487388
 31
0.0
  0
LINE
  5
92A
  8
2
 10
186.46890479319359
 20
420.91366906474821
 30
0.0
 11
186.46890479319359
 21
429.41826241487388
 31
0.0
  0
LINE
  5
92B
  8
2
 10
184.265171954251
 20
430.74293599406002
 30
0.0
 11
154.46890479319359
 21
414.91366906474809
 31
0.0
  0
LINE
  5
92C
  8
2
 10
284.67263763213629
 20
430.74293599406002
 30
0.0
 11
314.4689047931937
 21
414.91366906474809
 31
0.0
  0
LINE
  5
92D
  8
2
 10
276.9689047931937
 20
432.9136690647486
 30
0.0
 11
191.96890479319359
 21
432.9136690647486
 31
0.0
  0
LINE
  5
92E
  8
2
 10
277.96890479319359
 20
431.91366906474872
 30
0.0
 11
190.96890479319359
 21
431.91366906474872
 31
0.0
  0
LINE
  5
92F
  8
2
 10
277.96890479319359
 20
421.9136690647486
 30
0.0
 11
190.96890479319359
 21
421.91366906474838
 31
0.0
  0
LINE
  5
930
  8
2
 10
189.96890479319359
 20
420.9136690647486
 30
0.0
 11
190.96890479319359
 21
421.9136690647486
 31
0.0
  0
LINE
  5
931
  8
2
 10
278.96890479319359
 20
420.9136690647486
 30
0.0
 11
277.96890479319359
 21
421.9136690647486
 31
0.0
  0
LINE
  5
932
  8
2
 10
191.96890479319359
 20
432.9136690647486
 30
0.0
 11
190.96890479319359
 21
431.91366906474872
 31
0.0
  0
LINE
  5
933
  8
2
 10
277.96890479319359
 20
431.91366906474872
 30
0.0
 11
276.9689047931937
 21
432.9136690647486
 31
0.0
  0
LINE
  5
934
  8
2
 10
190.96890479319359
 20
421.9136690647486
 30
0.0
 11
190.96890479319359
 21
431.91366906474872
 31
0.0
  0
LINE
  5
935
  8
2
 10
277.96890479319359
 20
421.9136690647486
 30
0.0
 11
277.96890479319359
 21
431.91366906474872
 31
0.0
  0
LINE
  5
936
  8
2
 10
191.96890479319359
 20
432.9136690647486
 30
0.0
 11
191.96890479319359
 21
447.9136690647486
 31
0.0
  0
LINE
  5
937
  8
2
 10
276.9689047931937
 20
432.9136690647486
 30
0.0
 11
276.9689047931937
 21
447.9136690647486
 31
0.0
  0
LINE
  5
938
  8
2
 10
276.9689047931937
 20
447.9136690647486
 30
0.0
 11
191.96890479319359
 21
447.9136690647486
 31
0.0
  0
LINE
  5
939
  8
2
 10
266.46890479319359
 20
453.9136690647486
 30
0.0
 11
202.4689047931937
 21
453.9136690647486
 31
0.0
  0
LINE
  5
93A
  8
2
 10
199.46890479319359
 20
447.9136690647486
 30
0.0
 11
199.46890479319359
 21
450.9136690647486
 31
0.0
  0
LINE
  5
93B
  8
2
 10
269.46890479319359
 20
447.9136690647486
 30
0.0
 11
269.46890479319359
 21
450.9136690647486
 31
0.0
  0
LINE
  5
93C
  8
1
 10
242.46890479319359
 20
440.9136690647486
 30
0.0
 11
226.46890479319359
 21
440.9136690647486
 31
0.0
  0
ARC
  5
947
  8
0
 10
136.46890479319359
 20
414.91366906474809
 30
0.0
 40
2.0
 50
180.0
 51
270.0
  0
ARC
  5
948
  8
0
 10
136.46890479319359
 20
432.91366906474821
 30
0.0
 40
2.0
 50
90.0
 51
180.0
  0
ARC
  5
949
  8
0
 10
332.46890479319359
 20
432.91366906474821
 30
0.0
 40
2.0
 50
0.0
 51
90.0
  0
ARC
  5
94A
  8
0
 10
332.46890479319359
 20
414.91366906474809
 30
0.0
 40
2.0
 50
270.0
 51
0.0
  0
ARC
  5
94B
  8
2
 10
283.9689047931937
 20
429.41826241487388
 30
0.0
 40
1.5
 50
62.020525611521663
 51
180.0
  0
ARC
  5
94C
  8
2
 10
184.96890479319359
 20
429.41826241487388
 30
0.0
 40
1.5
 50
0.0
 51
117.97947438847829
  0
ARC
  5
94D
  8
2
 10
330.46890479319359
 20
433.91366906474821
 30
0.0
 40
1.0
 50
90.0
 51
180.0
  0
ARC
  5
94F
  8
2
 10
328.46890479319359
 20
418.91366906474809
 30
0.0
 40
1.0
 50
270.0
 51
0.0
  0
ARC
  5
950
  8
2
 10
320.74058685758712
 20
418.91366906474809
 30
0.0
 40
1.0
 50
239.60127228583431
 51
270.0
  0
ARC
  5
952
  8
0
 10
261.6825482600305
 20
465.41366906474821
 30
0.0
 40
2.5
 50
186.95295746817271
 51
270.0
  0
ARC
  5
953
  8
0
 10
207.25526132635679
 20
465.41366906474821
 30
0.0
 40
2.5
 50
270.0
 51
353.04704253182729
  0
ARC
  5
954
  8
2
 10
266.46890479319359
 20
450.9136690647486
 30
0.0
 40
3.0
 50
0.0
 51
90.0
  0
ARC
  5
955
  8
2
 10
202.4689047931937
 20
450.9136690647486
 30
0.0
 40
3.0
 50
90.0
 51
180.0
  0
LINE
  5
956
  8
2
 10
238.46890479319359
 20
453.9136690647486
 30
0.0
 11
238.46890479319359
 21
485.41366906474809
 31
0.0
  0
LINE
  5
957
  8
2
 10
230.46890479319359
 20
453.9136690647486
 30
0.0
 11
230.46890479319359
 21
485.41366906474809
 31
0.0
  0
LINE
  5
958
  8
0
 10
214.9689047931937
 20
487.91366906474821
 30
0.0
 11
253.96890479319359
 21
487.91366906474821
 31
0.0
  0
LINE
  5
959
  8
2
 10
240.96890479319359
 20
487.91366906474821
 30
0.0
 11
238.46890479319359
 21
485.41366906474809
 31
0.0
  0
LINE
  5
95A
  8
2
 10
230.46890479319359
 20
485.41366906474809
 30
0.0
 11
227.96890479319359
 21
487.91366906474821
 31
0.0
  0
LINE
  5
95B
  8
2
 10
238.46890479319359
 20
485.41366906474809
 30
0.0
 11
230.46890479319359
 21
485.41366906474809
 31
0.0
  0
LINE
  5
95D
  8
0
 10
247.46890479319359
 20
336.38948180693558
 30
0.0
 11
247.46890479319359
 21
382.91366906474821
 31
0.0
  0
LINE
  5
95E
  8
0
 10
245.04601917627051
 20
411.69755019379568
 30
0.0
 11
247.46890479319359
 21
382.91366906474821
 31
0.0
  0
ARC
  5
960
  8
0
 10
234.46890479319359
 20
382.91366906474821
 30
0.0
 40
50.0
 50
270.0
 51
283.01057508544437
  0
ARC
  5
961
  8
0
 10
244.04954340827749
 20
411.61366906474802
 30
0.0
 40
1.0
 50
4.8115345016777686
 51
90.0
  0
ARC
  5
962
  8
0
 10
245.21890479319359
 20
336.38948180693558
 30
0.0
 40
2.25
 50
283.01057508544437
 51
0.0
  0
ARC
  5
963
  8
0
 10
223.71890479319359
 20
336.38948180693558
 30
0.0
 40
2.25
 50
180.0
 51
256.98942491455563
  0
ARC
  5
964
  8
0
 10
224.88826617810969
 20
411.61366906474802
 30
0.0
 40
1.0
 50
90.0
 51
175.18846549832219
  0
ARC
  5
965
  8
0
 10
234.46890479319359
 20
382.91366906474821
 30
0.0
 40
50.0
 50
256.98942491455563
 51
270.0
  0
LINE
  5
966
  8
0
 10
223.89179018466061
 20
411.69754751537522
 30
0.0
 11
221.46890479319359
 21
382.91366906474821
 31
0.0
  0
LINE
  5
967
  8
0
 10
228.46890479319359
 20
412.91366906474821
 30
0.0
 11
228.46890479319359
 21
412.61366906474802
 31
0.0
  0
LINE
  5
968
  8
0
 10
221.46890479319359
 20
382.91366906474821
 30
0.0
 11
247.46890479319359
 21
382.91366906474821
 31
0.0
  0
LINE
  5
969
  8
0
 10
221.46890479319359
 20
336.38948180693558
 30
0.0
 11
221.46890479319359
 21
382.91366906474821
 31
0.0
  0
LINE
  5
96A
  8
0
 10
224.88826617810969
 20
412.61366906474831
 30
0.0
 11
244.04954340827749
 21
412.61366906474802
 31
0.0
  0
LINE
  5
96B
  8
0
 10
223.14509730940659
 20
334.98898638225381
 30
0.0
 11
245.79271227698069
 21
334.98898638225347
 31
0.0
  0
LINE
  5
96C
  8
0
 10
240.46890479319359
 20
412.91366906474821
 30
0.0
 11
240.46890479319359
 21
412.61366906474802
 31
0.0
  0
LINE
  5
991
  8
0
 10
282.96890479319359
 20
439.91366906474809
 30
0.0
 11
291.49163206592112
 21
434.91366906474809
 31
0.0
  0
LINE
  5
992
  8
0
 10
177.44617752046611
 20
434.91366906474809
 30
0.0
 11
185.96890479319359
 21
439.91366906474809
 31
0.0
  0
LINE
  5
993
  8
0
 10
186.96890479319359
 20
456.91366906474809
 30
0.0
 11
281.96890479319359
 21
456.91366906474809
 31
0.0
  0
LINE
  5
994
  8
0
 10
211.96890479319359
 20
484.41366906474821
 30
0.0
 11
256.96890479319359
 21
484.41366906474821
 31
0.0
  0
LINE
  5
995
  8
0
 10
281.96890479319359
 20
456.91366906474809
 30
0.0
 11
282.96890479319359
 21
439.91366906474809
 31
0.0
  0
LINE
  5
999
  8
2
 10
139.46890479319359
 20
433.91366906474821
 30
0.0
 11
139.46890479319359
 21
418.91366906474809
 31
0.0
  0
LINE
  5
99A
  8
2
 10
140.46890479319359
 20
417.91366906474821
 30
0.0
 11
148.1972227288002
 21
417.91366906474821
 31
0.0
  0
ARC
  5
99B
  8
2
 10
138.46890479319359
 20
433.91366906474821
 30
0.0
 40
1.0
 50
0.0
 51
90.0
  0
ARC
  5
99C
  8
2
 10
140.46890479319359
 20
418.91366906474809
 30
0.0
 40
1.0
 50
180.0
 51
270.0
  0
ARC
  5
99D
  8
2
 10
148.1972227288002
 20
418.91366906474809
 30
0.0
 40
1.0
 50
270.0
 51
300.39872771416572
  0
LINE
  5
99E
  8
2
 10
148.70323734018311
 20
418.05114415898203
 30
0.0
 11
177.44617752046611
 21
434.91366906474809
 31
0.0
  0
CIRCLE
  5
9A1
  8
2
 10
234.46890479319359
 20
440.9136690647486
 30
0.0
 40
2.4584999999981392
  0
CIRCLE
  5
9A2
  8
2
 10
234.46890479319359
 20
440.9136690647486
 30
0.0
 40
3.0
  0
ENDSEC
  0
EOF
