  0
SECTION
  2
HEADER
  9
$ACADVER
  1
AC1009
  9
$INSBASE
 10
0.0
 20
0.0
 30
0.0
  9
$EXTMIN
 10
0.0
 20
-2.960436562073669
 30
0.0
  9
$EXTMAX
 10
147.2183279830335
 20
100.1546545748688
 30
0.0
  9
$LIMMIN
 10
0.0
 20
0.0
  9
$LIMMAX
 10
187.5
 20
135.0
  9
$ORTHOMODE
 70
     1
  9
$REGENMODE
 70
     1
  9
$FILLMODE
 70
     1
  9
$QTEXTMODE
 70
     0
  9
$MIRRTEXT
 70
     0
  9
$DRAGMODE
 70
     2
  9
$LTSCALE
 40
5.0
  9
$OSMODE
 70
    55
  9
$ATTMODE
 70
     1
  9
$TEXTSIZE
 40
4.000000000000048
  9
$TRACEWID
 40
0.05
  9
$TEXTSTYLE
  7
STANDARD
  9
$CLAYER
  8
0
  9
$CELTYPE
  6
BYLAYER
  9
$CECOLOR
 62
   256
  9
$DIMSCALE
 40
0.5
  9
$DIMASZ
 40
3.0
  9
$DIMEXO
 40
2.0
  9
$DIMDLI
 40
0.38
  9
$DIMRND
 40
0.0
  9
$DIMDLE
 40
0.0
  9
$DIMEXE
 40
2.0
  9
$DIMTP
 40
0.0
  9
$DIMTM
 40
0.0
  9
$DIMTXT
 40
3.2000000000000002
  9
$DIMCEN
 40
0.09
  9
$DIMTSZ
 40
0.0
  9
$DIMTOL
 70
     0
  9
$DIMLIM
 70
     0
  9
$DIMTIH
 70
     0
  9
$DIMTOH
 70
     0
  9
$DIMSE1
 70
     0
  9
$DIMSE2
 70
     0
  9
$DIMTAD
 70
     1
  9
$DIMZIN
 70
     0
  9
$DIMBLK
  1

  9
$DIMASO
 70
     1
  9
$DIMSHO
 70
     0
  9
$DIMPOST
  1

  9
$DIMAPOST
  1

  9
$DIMALT
 70
     0
  9
$DIMALTD
 70
     2
  9
$DIMALTF
 40
25.399999999999999
  9
$DIMLFAC
 40
1.0
  9
$DIMTOFL
 70
     0
  9
$DIMTVP
 40
1.6000000000000001
  9
$DIMTIX
 70
     1
  9
$DIMSOXD
 70
     0
  9
$DIMSAH
 70
     0
  9
$DIMBLK1
  1

  9
$DIMBLK2
  1

  9
$DIMSTYLE
  2
STANDARD
  9
$DIMCLRD
 70
     0
  9
$DIMCLRE
 70
     0
  9
$DIMCLRT
 70
     0
  9
$DIMTFAC
 40
1.0
  9
$DIMGAP
 40
0.09
  9
$LUNITS
 70
     2
  9
$LUPREC
 70
     4
  9
$SKETCHINC
 40
0.1
  9
$FILLETRAD
 40
1.8999999999999999
  9
$AUNITS
 70
     0
  9
$AUPREC
 70
     0
  9
$MENU
  1
E:\r13\win\SUPPORT\ACAD
  9
$ELEVATION
 40
0.0
  9
$PELEVATION
 40
0.0
  9
$THICKNESS
 40
0.0
  9
$LIMCHECK
 70
     0
  9
$BLIPMODE
 70
     0
  9
$CHAMFERA
 40
0.0
  9
$CHAMFERB
 40
0.0
  9
$SKPOLY
 70
     0
  9
$TDCREATE
 40
2451582.6899569449
  9
$TDUPDATE
 40
2456598.4963863082
  9
$TDINDWG
 40
0.0001507986
  9
$TDUSRTIMER
 40
0.0001507986
  9
$USRTIMER
 70
     1
  9
$ANGBASE
 50
0.0
  9
$ANGDIR
 70
     0
  9
$PDMODE
 70
     0
  9
$PDSIZE
 40
0.0
  9
$PLINEWID
 40
0.0
  9
$COORDS
 70
     1
  9
$SPLFRAME
 70
     0
  9
$SPLINETYPE
 70
     6
  9
$SPLINESEGS
 70
     8
  9
$ATTDIA
 70
     0
  9
$ATTREQ
 70
     1
  9
$HANDLING
 70
     1
  9
$HANDSEED
  5
985
  9
$SURFTAB1
 70
     6
  9
$SURFTAB2
 70
     6
  9
$SURFTYPE
 70
     6
  9
$SURFU
 70
     6
  9
$SURFV
 70
     6
  9
$UCSNAME
  2

  9
$UCSORG
 10
0.0
 20
0.0
 30
0.0
  9
$UCSXDIR
 10
1.0
 20
0.0
 30
0.0
  9
$UCSYDIR
 10
0.0
 20
1.0
 30
0.0
  9
$PUCSNAME
  2

  9
$PUCSORG
 10
0.0
 20
0.0
 30
0.0
  9
$PUCSXDIR
 10
1.0
 20
0.0
 30
0.0
  9
$PUCSYDIR
 10
0.0
 20
1.0
 30
0.0
  9
$USERI1
 70
     0
  9
$USERI2
 70
     1
  9
$USERI3
 70
     1
  9
$USERI4
 70
     0
  9
$USERI5
 70
     0
  9
$USERR1
 40
0.0
  9
$USERR2
 40
0.0
  9
$USERR3
 40
0.0
  9
$USERR4
 40
0.0
  9
$USERR5
 40
0.0
  9
$WORLDVIEW
 70
     1
  9
$SHADEDGE
 70
     3
  9
$SHADEDIF
 70
    70
  9
$TILEMODE
 70
     1
  9
$MAXACTVP
 70
    16
  9
$PLIMCHECK
 70
     0
  9
$PEXTMIN
 10
1.0000000000000000E+020
 20
1.0000000000000000E+020
 30
1.0000000000000000E+020
  9
$PEXTMAX
 10
-1.0000000000000000E+020
 20
-1.0000000000000000E+020
 30
-1.0000000000000000E+020
  9
$PLIMMIN
 10
0.0
 20
0.0
  9
$PLIMMAX
 10
12.0
 20
9.0
  9
$UNITMODE
 70
     0
  9
$VISRETAIN
 70
     0
  9
$PLINEGEN
 70
     0
  9
$PSLTSCALE
 70
     0
  0
ENDSEC
  0
SECTION
  2
TABLES
  0
TABLE
  2
VPORT
 70
     1
  0
VPORT
  2
*ACTIVE
 70
     0
 10
0.0
 20
0.0
 11
1.0
 21
1.0
 12
93.74713919532617
 22
86.941769983850563
 13
0.0
 23
0.0
 14
5.0
 24
5.0
 15
5.0
 25
5.0
 16
0.0
 26
0.0
 36
1.0
 17
0.0
 27
0.0
 37
0.0
 40
181.41026326986619
 41
1.7807262569832401
 42
50.0
 43
0.0
 44
0.0
 50
0.0
 51
0.0
 71
     0
 72
   500
 73
     1
 74
     0
 75
     0
 76
     0
 77
     0
 78
     2
  0
ENDTAB
  0
TABLE
  2
LTYPE
 70
     4
  0
LTYPE
  2
CONTINUOUS
 70
     0
  3
Solid Line
 72
    65
 73
     0
 40
0.0
  0
LTYPE
  2
CENTER
 70
     0
  3
____ _ ____ _ ____ _ ____ _ ____ _ ____ _ ____
 72
    65
 73
     4
 40
2.0
 49
1.25
 49
-0.25
 49
0.25
 49
-0.25
  0
LTYPE
  2
HIDDEN
 70
     0
  3
_ _ _ _ _ _ _ _ _ _ _ _ _ _ _ _ _ _ _ _ _ _ _
 72
    65
 73
     2
 40
0.375
 49
0.25
 49
-0.125
  0
LTYPE
  2
PHANTOM2
 70
     0
  3
___ _ _ ___ _ _ ___ _ _ ___ _ _
 72
    65
 73
     6
 40
1.25
 49
0.625
 49
-0.125
 49
0.125
 49
-0.125
 49
0.125
 49
-0.125
  0
ENDTAB
  0
TABLE
  2
LAYER
 70
     3
  0
LAYER
  2
0
 70
     0
 62
     7
  6
CONTINUOUS
  0
LAYER
  2
1
 70
     0
 62
     1
  6
CENTER
  0
LAYER
  2
2
 70
     0
 62
     2
  6
HIDDEN
  0
ENDTAB
  0
TABLE
  2
STYLE
 70
     2
  0
STYLE
  2
STANDARD
 70
     0
 40
0.0
 41
1.0
 50
0.0
 71
     0
 42
4.000000000000048
  3
TXT
  4
BIGFONT
  0
STYLE
  2
STANDARD1
 70
     0
 40
0.0
 41
1.0
 50
0.0
 71
     0
 42
3.0
  3
txt
  4

  0
ENDTAB
  0
TABLE
  2
VIEW
 70
     1
  0
VIEW
  2
ALL
 70
     0
 40
135.0
 10
110.4957983193277
 20
67.5
 41
0.0
 11
0.0
 21
0.0
 31
1.0
 12
0.0
 22
0.0
 32
0.0
 42
0.0
 43
0.0
 44
0.0
 50
0.0
 71
     0
  0
ENDTAB
  0
TABLE
  2
UCS
 70
     0
  0
ENDTAB
  0
TABLE
  2
APPID
 70
     3
  0
APPID
  2
ACAD
 70
     0
  0
APPID
  2
ACAD_MLEADERVER
 70
     0
  0
APPID
  2
ACAD_NAV_VCDISPLAY
 70
     0
  0
ENDTAB
  0
TABLE
  2
DIMSTYLE
 70
     1
  0
DIMSTYLE
  2
STANDARD
 70
     0
  3

  4

  5

  6

  7

 40
1.0
 41
0.18
 42
0.0625
 43
0.38
 44
0.18
 45
0.0
 46
0.0
 47
0.0
 48
0.0
140
0.18
141
0.09
142
0.0
143
25.399999999999999
144
1.0
145
0.0
146
1.0
147
0.09
 71
     0
 72
     0
 73
     1
 74
     1
 75
     0
 76
     0
 77
     0
 78
     0
170
     0
171
     2
172
     0
173
     0
174
     0
175
     0
176
     0
177
     0
178
     0
  0
ENDTAB
  0
ENDSEC
  0
SECTION
  2
BLOCKS
  0
BLOCK
  8
0
  2
$MODEL_SPACE
 70
     0
 10
0.0
 20
0.0
 30
0.0
  3
$MODEL_SPACE
  1

  0
ENDBLK
  5
806
  8
0
  0
BLOCK
 67
     1
  8
0
  2
$PAPER_SPACE
 70
     0
 10
0.0
 20
0.0
 30
0.0
  3
$PAPER_SPACE
  1

  0
ENDBLK
  5
804
 67
     1
  8
0
  0
BLOCK
  8
0
  2
STDGX5
 70
     0
 10
0.0
 20
0.0
 30
0.0
  3
STDGX5
  1

  0
ENDBLK
  5
3DA
  8
0
  0
ENDSEC
  0
SECTION
  2
ENTITIES
  0
INSERT
  5
404
  8
0
  2
STDGX5
 10
0.0
 20
0.0
 30
0.0
 41
0.125
 42
0.125
 43
0.125
  0
INSERT
  5
405
  8
0
  2
STDGX5
 10
0.0
 20
0.0
 30
0.0
 41
0.125
 42
0.125
 43
0.125
  0
INSERT
  5
406
  8
0
  2
STDGX5
 10
34.375
 20
0.0
 30
0.0
 41
0.125
 42
0.125
 43
0.125
  0
INSERT
  5
407
  8
0
  2
STDGX5
 10
34.375
 20
0.0
 30
0.0
 41
0.125
 42
0.125
 43
0.125
  0
INSERT
  5
408
  8
0
  2
STDGX5
 10
0.0
 20
0.0
 30
0.0
 41
0.25
 42
0.25
 43
0.25
  0
INSERT
  5
409
  8
0
  2
STDGX5
 10
0.0
 20
0.0
 30
0.0
 41
0.25
 42
0.25
 43
0.25
  0
INSERT
  5
40A
  8
0
  2
STDGX5
 10
68.75
 20
0.0
 30
0.0
 41
0.25
 42
0.25
 43
0.25
  0
INSERT
  5
40B
  8
0
  2
STDGX5
 10
68.75
 20
0.0
 30
0.0
 41
0.25
 42
0.25
 43
0.25
  0
INSERT
  5
40D
  8
0
  2
STDGX5
 10
-17.5
 20
-50.0
 30
0.0
 41
0.1666666666666666
 42
0.1666666666666666
 43
0.1666666666666666
  0
INSERT
  5
40E
  8
0
  2
STDGX5
 10
-17.5
 20
-50.0
 30
0.0
 41
0.1666666666666666
 42
0.1666666666666666
 43
0.1666666666666666
  0
INSERT
  5
40F
  8
0
  2
STDGX5
 10
28.333333333333321
 20
-50.0
 30
0.0
 41
0.1666666666666666
 42
0.1666666666666666
 43
0.1666666666666666
  0
INSERT
  5
410
  8
0
  2
STDGX5
 10
28.333333333333321
 20
-50.0
 30
0.0
 41
0.1666666666666666
 42
0.1666666666666666
 43
0.1666666666666666
  0
INSERT
  5
412
  8
0
  2
STDGX5
 10
-17.5
 20
-50.0
 30
0.0
 41
0.1666666666666666
 42
0.1666666666666666
 43
0.1666666666666666
  0
INSERT
  5
413
  8
0
  2
STDGX5
 10
-17.5
 20
-50.0
 30
0.0
 41
0.1666666666666666
 42
0.1666666666666666
 43
0.1666666666666666
  0
INSERT
  5
414
  8
0
  2
STDGX5
 10
28.333333333333329
 20
-50.0
 30
0.0
 41
0.1666666666666666
 42
0.1666666666666666
 43
0.1666666666666666
  0
INSERT
  5
415
  8
0
  2
STDGX5
 10
28.333333333333329
 20
-50.0
 30
0.0
 41
0.1666666666666666
 42
0.1666666666666666
 43
0.1666666666666666
  0
INSERT
  5
416
  8
0
  2
STDGX5
 10
0.0
 20
0.0
 30
0.0
 41
0.5
 42
0.5
 43
0.5
  0
INSERT
  5
417
  8
0
  2
STDGX5
 10
0.0
 20
0.0
 30
0.0
 41
0.5
 42
0.5
 43
0.5
  0
INSERT
  5
418
  8
0
  2
STDGX5
 10
137.5
 20
0.0
 30
0.0
 41
0.5
 42
0.5
 43
0.5
  0
INSERT
  5
419
  8
0
  2
STDGX5
 10
137.5
 20
0.0
 30
0.0
 41
0.5
 42
0.5
 43
0.5
  0
ARC
  5
784
  8
0
 10
26.133309190248561
 20
62.401512058161963
 30
0.0
 40
15.259999999999989
 50
352.75174968626322
 51
43.248250313736719
  0
LINE
  5
785
  8
1
 10
59.228078886816903
 20
100.1546545748688
 30
0.0
 11
59.228078886816867
 21
46.154654574868893
 31
0.0
  0
ARC
  5
786
  8
0
 10
92.322848583385294
 20
62.401512058161842
 30
0.0
 40
15.259999999999989
 50
136.7517496862632
 51
187.24825031373669
  0
CIRCLE
  5
787
  8
0
 10
59.228078886816881
 20
73.154654574868886
 30
0.0
 40
16.609999999999971
  0
ARC
  5
789
  8
0
 10
59.228078886816881
 20
38.356754419061929
 30
0.0
 40
15.259999999999989
 50
64.751749686267132
 51
115.2482503137328
  0
ARC
  5
78A
  8
0
 10
49.276874565505288
 20
59.457996860101026
 30
0.0
 40
8.0699999999999985
 50
172.75174968626311
 51
295.24825031373263
  0
ARC
  5
78B
  8
0
 10
69.179283208128481
 20
59.457996860101019
 30
0.0
 40
8.0699999999999985
 50
244.7517496862672
 51
7.2482503137367971
  0
ARC
  5
78C
  8
0
 10
43.126692065940013
 20
78.38631228963672
 30
0.0
 40
8.0699999999999985
 50
100.7517496862631
 51
223.24825031373669
  0
LINE
  5
78D
  8
1
 10
32.228078886816917
 20
73.1546545748689
 30
0.0
 11
86.22807888681686
 21
73.154654574868815
 31
0.0
  0
ARC
  5
78E
  8
0
 10
59.228078886816888
 20
90.084654574868836
 30
0.0
 40
8.0699999999999985
 50
28.751749686263189
 51
151.24825031373649
  0
ARC
  5
78F
  8
0
 10
38.774386364487682
 20
101.30674716947939
 30
0.0
 40
15.259999999999989
 50
280.75174968626311
 51
331.24825031373678
  0
ARC
  5
790
  8
0
 10
79.681771409146222
 20
101.30674716947919
 30
0.0
 40
15.259999999999989
 50
208.75174968626311
 51
259.24825031373672
  0
ARC
  5
791
  8
0
 10
75.329465707693771
 20
78.38631228963672
 30
0.0
 40
8.0699999999999985
 50
316.75174968626328
 51
79.248250313736676
  0
LINE
  5
792
  8
2
 10
130.2313998868168
 20
69.1546545748688
 30
0.0
 11
130.2313998868168
 21
77.1546545748688
 31
0.0
  0
LINE
  5
793
  8
2
 10
145.2313998868168
 20
69.1546545748688
 30
0.0
 11
144.4646061368168
 21
69.921448324868805
 31
0.0
  0
LINE
  5
794
  8
2
 10
130.2313998868168
 20
69.1546545748688
 30
0.0
 11
128.90327415289059
 21
69.921448324868805
 31
0.0
  0
LINE
  5
795
  8
0
 10
126.53111049989781
 20
52.750353961521867
 30
0.0
 11
126.53111049989781
 21
97.429301662454179
 31
0.0
  0
ARC
  5
796
  8
0
 10
87.941587467882954
 20
74.473324389174039
 30
0.0
 40
27.949195729766299
 50
349.09578106302428
 51
12.77536194360674
  0
LINE
  5
797
  8
0
 10
144.09806688681681
 20
82.154651074868809
 30
0.0
 11
144.09806688681681
 21
64.154658074868848
 31
0.0
  0
LINE
  5
798
  8
0
 10
128.2314068868169
 20
55.237995074869339
 30
0.0
 11
128.2314068868167
 21
73.1546545748688
 31
0.0
1001
ACAD
1000
ASC_BOUNDS
1002
{
1070
    19
1002
}
  0
LINE
  5
799
  8
0
 10
114.2280788868169
 20
79.504624036976907
 30
0.0
 11
114.2280788868169
 21
68.431678869473743
 31
0.0
  0
LINE
  5
79A
  8
2
 10
125.2313998868168
 20
73.1546545748688
 30
0.0
 11
125.2313998868168
 21
67.654657074868766
 31
0.0
1001
ACAD
1000
ASC_BOUNDS
1002
{
1070
    19
1002
}
  0
LINE
  5
79B
  8
0
 10
114.2280788868169
 20
89.763820718898629
 30
0.0
 11
114.2280788868168
 21
56.545488430839569
 31
0.0
1001
ACAD
1000
ASC_BOUNDS
1002
{
1070
    19
1002
}
  0
ARC
  5
79C
  8
2
 10
59.38807888681832
 20
73.154654574869113
 30
0.0
 40
57.299999999998462
 50
343.15022881695938
 51
16.849771183039689
1001
ACAD
1000
ASC_BOUNDS
1002
{
1070
    19
1002
}
  0
LINE
  5
79D
  8
0
 10
144.93139988681699
 20
73.1546545748688
 30
0.0
 11
144.93139988681679
 21
64.987991074868773
 31
0.0
1001
ACAD
1000
ASC_BOUNDS
1002
{
1070
    19
1002
}
  0
LINE
  5
79E
  8
0
 10
145.2313998868168
 20
66.154657074868794
 30
0.0
 11
145.2313998868168
 21
73.1546545748688
 31
0.0
1001
ACAD
1000
ASC_BOUNDS
1002
{
1070
    19
1002
}
  0
LINE
  5
7AA
  8
0
 10
116.7697311699196
 20
57.006504161478773
 30
0.0
 11
125.9115225160772
 21
57.006504161478773
 31
0.0
  0
LINE
  5
7AB
  8
0
 10
117.47972531449621
 20
51.38799686010092
 30
0.0
 11
126.56474088681691
 21
51.387996860100912
 31
0.0
  0
ARC
  5
7AC
  8
0
 10
143.25356893015709
 20
63.999513775988163
 30
0.0
 40
28.345985524317509
 50
169.456665119436
 51
191.8896448791825
  0
ARC
  5
7AD
  8
0
 10
107.6013113098102
 20
53.772147234775019
 30
0.0
 40
9.0491052802505667
 50
350.16338682968779
 51
29.00165494956288
  0
ARC
  5
7AE
  8
0
 10
143.19024438152621
 20
66.224915812786747
 30
0.0
 40
30.536835864007461
 50
198.4801113583469
 51
206.398488421308
1001
ACAD
1000
ASC_BOUNDS
1002
{
1070
    19
1002
}
  0
ARC
  5
7AF
  8
0
 10
117.47972531449621
 20
53.087996860100972
 30
0.0
 40
1.6999999999999991
 50
195.0041363700245
 51
270.0
1001
ACAD
1000
ASC_BOUNDS
1002
{
1070
    19
1002
}
  0
LINE
  5
7B0
  8
2
 10
145.2313998868168
 20
69.1546545748688
 30
0.0
 11
130.2313998868168
 21
69.1546545748688
 31
0.0
  0
LINE
  5
7B1
  8
2
 10
126.7313998868168
 20
66.154657074868766
 30
0.0
 11
144.93139988681679
 21
66.154657074868823
 31
0.0
  0
LINE
  5
7B2
  8
0
 10
128.23140688681681
 20
64.154658074868806
 30
0.0
 11
144.09806688681681
 21
64.154658074868848
 31
0.0
1001
ACAD
1000
ASC_BOUNDS
1002
{
1070
    19
1002
}
  0
LINE
  5
7B3
  8
0
 10
128.2314068868169
 20
55.237995074869339
 30
0.0
 11
128.23140688681681
 21
53.054662860100997
 31
0.0
1001
ACAD
1000
ASC_BOUNDS
1002
{
1070
    19
1002
}
  0
ARC
  5
7B4
  8
0
 10
126.56474088681691
 20
53.054662860100997
 30
0.0
 40
1.6666659999999991
 50
270.0
 51
359.9999999999996
  0
LINE
  5
7B5
  8
2
 10
125.2313998868168
 20
67.654657074868766
 30
0.0
 11
126.7313998868168
 21
66.154657074868766
 31
0.0
  0
LINE
  5
7B6
  8
0
 10
144.93139988681679
 20
66.154657074868823
 30
0.0
 11
145.2313998868168
 21
66.154657074868794
 31
0.0
1001
ACAD
1000
ASC_BOUNDS
1002
{
1070
    19
1002
}
  0
LINE
  5
7B7
  8
0
 10
144.93139988681679
 20
64.98799107486883
 30
0.0
 11
144.09806688681681
 21
64.154658074868792
 31
0.0
1001
ACAD
1000
ASC_BOUNDS
1002
{
1070
    19
1002
}
  0
LINE
  5
7B8
  8
0
 10
144.93139988681679
 20
65.237991074868773
 30
0.0
 11
144.93139988681679
 21
65.237991074868773
 31
0.0
  0
LINE
  5
7B9
  8
0
 10
116.32704257843331
 20
80.846555459446336
 30
0.0
 11
126.6166159962542
 21
80.846555459446336
 31
0.0
  0
LINE
  5
7BA
  8
0
 10
116.6940273913612
 20
88.982221529608324
 30
0.0
 11
125.9115225160773
 21
88.982221529608324
 31
0.0
  0
LINE
  5
7BB
  8
0
 10
116.7046888601849
 20
70.752282007676499
 30
0.0
 11
125.9115225160773
 21
70.752282007676499
 31
0.0
  0
LINE
  5
7BC
  8
0
 10
117.47972531449621
 20
98.154644574868826
 30
0.0
 11
126.56474088681679
 21
98.154644574868769
 31
0.0
1001
ACAD
1000
ASC_BOUNDS
1002
{
1070
    19
1002
}
  0
LINE
  5
7BD
  8
1
 10
112.2280788868168
 20
73.154654574868815
 30
0.0
 11
147.2183279830335
 21
73.1546545748688
 31
0.0
  0
ARC
  5
7BE
  8
0
 10
163.98341210100489
 20
87.159683619888526
 30
0.0
 40
49.216435786894458
 50
170.1951675759876
 51
187.59622906631219
  0
ARC
  5
7BF
  8
0
 10
204.4113678044429
 20
73.154654574868815
 30
0.0
 40
91.699999999999989
 50
164.9958636299753
 51
169.56470295968219
1001
ACAD
1000
ASC_BOUNDS
1002
{
1070
    19
1002
}
  0
ARC
  5
7C0
  8
0
 10
117.47972531449621
 20
96.454644574868794
 30
0.0
 40
1.6999999999999991
 50
90.0
 51
164.99586362997539
1001
ACAD
1000
ASC_BOUNDS
1002
{
1070
    19
1002
}
  0
LINE
  5
7C1
  8
0
 10
128.23140688681681
 20
92.977596242371916
 30
0.0
 11
128.23140688681701
 21
73.1546545748688
 31
0.0
1001
ACAD
1000
ASC_BOUNDS
1002
{
1070
    19
1002
}
  0
LINE
  5
7C2
  8
2
 10
126.7313998868168
 20
80.154652074868835
 30
0.0
 11
144.93139988681679
 21
80.154652074868778
 31
0.0
  0
LINE
  5
7C3
  8
2
 10
144.4646061368168
 20
76.387860824868795
 30
0.0
 11
128.2313998868168
 21
76.387860824868795
 31
0.0
  0
LINE
  5
7C4
  8
2
 10
144.4646061368168
 20
69.921448324868805
 30
0.0
 11
128.2313998868168
 21
69.921448324868805
 31
0.0
  0
LINE
  5
7C5
  8
2
 10
145.2313998868168
 20
77.1546545748688
 30
0.0
 11
130.2313998868168
 21
77.1546545748688
 31
0.0
  0
LINE
  5
7C6
  8
0
 10
128.2314068868169
 20
82.154651074868781
 30
0.0
 11
144.09806688681681
 21
82.154651074868809
 31
0.0
1001
ACAD
1000
ASC_BOUNDS
1002
{
1070
    19
1002
}
  0
LINE
  5
7C7
  8
2
 10
125.2313998868168
 20
73.1546545748688
 30
0.0
 11
125.2313998868168
 21
78.654652074868835
 31
0.0
1001
ACAD
1000
ASC_BOUNDS
1002
{
1070
    19
1002
}
  0
LINE
  5
7C8
  8
2
 10
128.2313998868168
 20
76.387860824868795
 30
0.0
 11
126.36470738803381
 21
73.1546545748688
 31
0.0
  0
LINE
  5
7C9
  8
2
 10
128.2313998868168
 20
69.921448324868805
 30
0.0
 11
128.2313998868168
 21
76.387860824868795
 31
0.0
  0
LINE
  5
7CA
  8
2
 10
128.2313998868168
 20
69.921448324868805
 30
0.0
 11
126.36470738803381
 21
73.1546545748688
 31
0.0
  0
LINE
  5
7CB
  8
2
 10
125.2313998868168
 20
78.654652074868835
 30
0.0
 11
126.7313998868168
 21
80.154652074868835
 31
0.0
  0
LINE
  5
7CC
  8
2
 10
130.2313998868168
 20
77.1546545748688
 30
0.0
 11
128.90327415289059
 21
76.387860824868795
 31
0.0
  0
LINE
  5
7CD
  8
0
 10
144.93139988681699
 20
73.1546545748688
 30
0.0
 11
144.93139988681679
 21
81.321318074868827
 31
0.0
1001
ACAD
1000
ASC_BOUNDS
1002
{
1070
    19
1002
}
  0
LINE
  5
7CE
  8
0
 10
144.93139988681679
 20
80.154652074868778
 30
0.0
 11
145.2313998868168
 21
80.154652074868807
 31
0.0
1001
ACAD
1000
ASC_BOUNDS
1002
{
1070
    19
1002
}
  0
LINE
  5
7CF
  8
2
 10
144.4646061368168
 20
76.387860824868795
 30
0.0
 11
145.2313998868168
 21
77.1546545748688
 31
0.0
  0
LINE
  5
7D0
  8
2
 10
144.4646061368168
 20
69.921448324868805
 30
0.0
 11
144.4646061368168
 21
76.387860824868795
 31
0.0
  0
LINE
  5
7D1
  8
0
 10
145.2313998868168
 20
80.154652074868807
 30
0.0
 11
145.2313998868168
 21
73.1546545748688
 31
0.0
1001
ACAD
1000
ASC_BOUNDS
1002
{
1070
    19
1002
}
  0
LINE
  5
7D2
  8
0
 10
144.93139988681679
 20
81.321318074868756
 30
0.0
 11
144.09806688681681
 21
82.154651074868809
 31
0.0
1001
ACAD
1000
ASC_BOUNDS
1002
{
1070
    19
1002
}
  0
LINE
  5
7D3
  8
0
 10
144.93139988681679
 20
81.071318074868827
 30
0.0
 11
144.93139988681679
 21
81.071318074868827
 31
0.0
  0
ARC
  5
7D4
  8
0
 10
126.56474088681679
 20
96.487978574868805
 30
0.0
 40
1.6666659999999991
 50
0.0000000000001908
 51
90.0
1001
ACAD
1000
ASC_BOUNDS
1002
{
1070
    19
1002
}
  0
LINE
  5
7D5
  8
0
 10
128.23140688681681
 20
92.977596242371916
 30
0.0
 11
128.23140688681681
 21
96.487978574868805
 31
0.0
1001
ACAD
1000
ASC_BOUNDS
1002
{
1070
    19
1002
}
  0
TEXT
  5
8F0
  8
0
 62
     3
 10
0.0
 20
0.0
 30
0.0
 40
10.0
  1
SFK50A
  7
STANDARD1
  0
ENDSEC
  0
EOF
