  0
SECTION
  2
HEADER
  9
$ACADVER
  1
AC1009
  9
$INSBASE
 10
0.0
 20
0.0
 30
0.0
  9
$EXTMIN
 10
-0.0005
 20
-2.960436562073669
 30
0.0
  9
$EXTMAX
 10
134.2283755881306
 20
89.895176973477064
 30
0.0
  9
$LIMMIN
 10
0.0
 20
0.0
  9
$LIMMAX
 10
187.5
 20
135.0
  9
$ORTHOMODE
 70
     0
  9
$REGENMODE
 70
     1
  9
$FILLMODE
 70
     1
  9
$QTEXTMODE
 70
     0
  9
$MIRRTEXT
 70
     0
  9
$DRAGMODE
 70
     2
  9
$LTSCALE
 40
5.0
  9
$OSMODE
 70
    55
  9
$ATTMODE
 70
     1
  9
$TEXTSIZE
 40
4.000000000000048
  9
$TRACEWID
 40
0.05
  9
$TEXTSTYLE
  7
STANDARD
  9
$CLAYER
  8
0
  9
$CELTYPE
  6
BYLAYER
  9
$CECOLOR
 62
   256
  9
$DIMSCALE
 40
0.5
  9
$DIMASZ
 40
3.0
  9
$DIMEXO
 40
2.0
  9
$DIMDLI
 40
0.38
  9
$DIMRND
 40
0.0
  9
$DIMDLE
 40
0.0
  9
$DIMEXE
 40
2.0
  9
$DIMTP
 40
0.0
  9
$DIMTM
 40
0.0
  9
$DIMTXT
 40
3.0
  9
$DIMCEN
 40
0.09
  9
$DIMTSZ
 40
0.0
  9
$DIMTOL
 70
     0
  9
$DIMLIM
 70
     0
  9
$DIMTIH
 70
     0
  9
$DIMTOH
 70
     0
  9
$DIMSE1
 70
     0
  9
$DIMSE2
 70
     0
  9
$DIMTAD
 70
     1
  9
$DIMZIN
 70
     0
  9
$DIMBLK
  1

  9
$DIMASO
 70
     1
  9
$DIMSHO
 70
     0
  9
$DIMPOST
  1

  9
$DIMAPOST
  1

  9
$DIMALT
 70
     0
  9
$DIMALTD
 70
     2
  9
$DIMALTF
 40
25.399999999999999
  9
$DIMLFAC
 40
1.0
  9
$DIMTOFL
 70
     0
  9
$DIMTVP
 40
1.6000000000000001
  9
$DIMTIX
 70
     1
  9
$DIMSOXD
 70
     0
  9
$DIMSAH
 70
     0
  9
$DIMBLK1
  1

  9
$DIMBLK2
  1

  9
$DIMSTYLE
  2
STANDARD
  9
$DIMCLRD
 70
     0
  9
$DIMCLRE
 70
     0
  9
$DIMCLRT
 70
     0
  9
$DIMTFAC
 40
1.0
  9
$DIMGAP
 40
0.09
  9
$LUNITS
 70
     2
  9
$LUPREC
 70
     4
  9
$SKETCHINC
 40
0.1
  9
$FILLETRAD
 40
1.8999999999999999
  9
$AUNITS
 70
     0
  9
$AUPREC
 70
     0
  9
$MENU
  1
E:\r13\win\SUPPORT\ACAD
  9
$ELEVATION
 40
0.0
  9
$PELEVATION
 40
0.0
  9
$THICKNESS
 40
0.0
  9
$LIMCHECK
 70
     0
  9
$BLIPMODE
 70
     0
  9
$CHAMFERA
 40
0.0
  9
$CHAMFERB
 40
0.0
  9
$SKPOLY
 70
     0
  9
$TDCREATE
 40
2451582.6889442131
  9
$TDUPDATE
 40
2456598.4957447918
  9
$TDINDWG
 40
0.005451713
  9
$TDUSRTIMER
 40
0.005451713
  9
$USRTIMER
 70
     1
  9
$ANGBASE
 50
0.0
  9
$ANGDIR
 70
     0
  9
$PDMODE
 70
     0
  9
$PDSIZE
 40
0.0
  9
$PLINEWID
 40
0.0
  9
$COORDS
 70
     1
  9
$SPLFRAME
 70
     0
  9
$SPLINETYPE
 70
     6
  9
$SPLINESEGS
 70
     8
  9
$ATTDIA
 70
     0
  9
$ATTREQ
 70
     1
  9
$HANDLING
 70
     1
  9
$HANDSEED
  5
7B4
  9
$SURFTAB1
 70
     6
  9
$SURFTAB2
 70
     6
  9
$SURFTYPE
 70
     6
  9
$SURFU
 70
     6
  9
$SURFV
 70
     6
  9
$UCSNAME
  2

  9
$UCSORG
 10
0.0
 20
0.0
 30
0.0
  9
$UCSXDIR
 10
1.0
 20
0.0
 30
0.0
  9
$UCSYDIR
 10
0.0
 20
1.0
 30
0.0
  9
$PUCSNAME
  2

  9
$PUCSORG
 10
0.0
 20
0.0
 30
0.0
  9
$PUCSXDIR
 10
1.0
 20
0.0
 30
0.0
  9
$PUCSYDIR
 10
0.0
 20
1.0
 30
0.0
  9
$USERI1
 70
     0
  9
$USERI2
 70
     1
  9
$USERI3
 70
     1
  9
$USERI4
 70
     0
  9
$USERI5
 70
     0
  9
$USERR1
 40
0.0
  9
$USERR2
 40
0.0
  9
$USERR3
 40
0.0
  9
$USERR4
 40
0.0
  9
$USERR5
 40
0.0
  9
$WORLDVIEW
 70
     1
  9
$SHADEDGE
 70
     3
  9
$SHADEDIF
 70
    70
  9
$TILEMODE
 70
     1
  9
$MAXACTVP
 70
    16
  9
$PLIMCHECK
 70
     0
  9
$PEXTMIN
 10
1.0000000000000000E+020
 20
1.0000000000000000E+020
 30
1.0000000000000000E+020
  9
$PEXTMAX
 10
-1.0000000000000000E+020
 20
-1.0000000000000000E+020
 30
-1.0000000000000000E+020
  9
$PLIMMIN
 10
0.0
 20
0.0
  9
$PLIMMAX
 10
12.0
 20
9.0
  9
$UNITMODE
 70
     0
  9
$VISRETAIN
 70
     0
  9
$PLINEGEN
 70
     0
  9
$PSLTSCALE
 70
     0
  0
ENDSEC
  0
SECTION
  2
TABLES
  0
TABLE
  2
VPORT
 70
     1
  0
VPORT
  2
*ACTIVE
 70
     0
 10
0.0
 20
0.0
 11
1.0
 21
1.0
 12
93.746889187697406
 22
86.945179616803841
 13
0.0
 23
0.0
 14
5.0
 24
5.0
 15
5.0
 25
5.0
 16
0.0
 26
0.0
 36
1.0
 17
0.0
 27
0.0
 37
0.0
 40
181.39739258337829
 41
1.7807262569832401
 42
50.0
 43
0.0
 44
0.0
 50
0.0
 51
0.0
 71
     0
 72
   500
 73
     1
 74
     0
 75
     0
 76
     0
 77
     0
 78
     2
  0
ENDTAB
  0
TABLE
  2
LTYPE
 70
     4
  0
LTYPE
  2
CONTINUOUS
 70
     0
  3
Solid Line
 72
    65
 73
     0
 40
0.0
  0
LTYPE
  2
CENTER
 70
     0
  3
____ _ ____ _ ____ _ ____ _ ____ _ ____ _ ____
 72
    65
 73
     4
 40
2.0
 49
1.25
 49
-0.25
 49
0.25
 49
-0.25
  0
LTYPE
  2
HIDDEN
 70
     0
  3
_ _ _ _ _ _ _ _ _ _ _ _ _ _ _ _ _ _ _ _ _ _ _
 72
    65
 73
     2
 40
0.375
 49
0.25
 49
-0.125
  0
LTYPE
  2
PHANTOM2
 70
     0
  3
___ _ _ ___ _ _ ___ _ _ ___ _ _
 72
    65
 73
     6
 40
1.25
 49
0.625
 49
-0.125
 49
0.125
 49
-0.125
 49
0.125
 49
-0.125
  0
ENDTAB
  0
TABLE
  2
LAYER
 70
     4
  0
LAYER
  2
0
 70
     0
 62
     7
  6
CONTINUOUS
  0
LAYER
  2
1
 70
     0
 62
     1
  6
CENTER
  0
LAYER
  2
2
 70
     0
 62
     2
  6
HIDDEN
  0
LAYER
  2
ITTEN
 70
     0
 62
     1
  6
CENTER
  0
ENDTAB
  0
TABLE
  2
STYLE
 70
     2
  0
STYLE
  2
STANDARD
 70
     0
 40
0.0
 41
1.0
 50
0.0
 71
     0
 42
4.000000000000048
  3
TXT
  4
BIGFONT
  0
STYLE
  2
STANDARD1
 70
     0
 40
0.0
 41
1.0
 50
0.0
 71
     0
 42
3.0
  3
txt
  4

  0
ENDTAB
  0
TABLE
  2
VIEW
 70
     1
  0
VIEW
  2
ALL
 70
     0
 40
135.0
 10
110.4957983193277
 20
67.5
 41
0.0
 11
0.0
 21
0.0
 31
1.0
 12
0.0
 22
0.0
 32
0.0
 42
0.0
 43
0.0
 44
0.0
 50
0.0
 71
     0
  0
ENDTAB
  0
TABLE
  2
UCS
 70
     0
  0
ENDTAB
  0
TABLE
  2
APPID
 70
     3
  0
APPID
  2
ACAD
 70
     0
  0
APPID
  2
ACAD_MLEADERVER
 70
     0
  0
APPID
  2
ACAD_NAV_VCDISPLAY
 70
     0
  0
ENDTAB
  0
TABLE
  2
DIMSTYLE
 70
     1
  0
DIMSTYLE
  2
STANDARD
 70
     0
  3

  4

  5

  6

  7

 40
1.0
 41
0.18
 42
0.0625
 43
0.38
 44
0.18
 45
0.0
 46
0.0
 47
0.0
 48
0.0
140
0.18
141
0.09
142
0.0
143
25.399999999999999
144
1.0
145
0.0
146
1.0
147
0.09
 71
     0
 72
     0
 73
     1
 74
     1
 75
     0
 76
     0
 77
     0
 78
     0
170
     0
171
     2
172
     0
173
     0
174
     0
175
     0
176
     0
177
     0
178
     0
  0
ENDTAB
  0
ENDSEC
  0
SECTION
  2
BLOCKS
  0
BLOCK
  8
0
  2
$MODEL_SPACE
 70
     0
 10
0.0
 20
0.0
 30
0.0
  3
$MODEL_SPACE
  1

  0
ENDBLK
  5
604
  8
0
  0
BLOCK
 67
     1
  8
0
  2
$PAPER_SPACE
 70
     0
 10
0.0
 20
0.0
 30
0.0
  3
$PAPER_SPACE
  1

  0
ENDBLK
  5
602
 67
     1
  8
0
  0
BLOCK
  8
0
  2
STDGX5
 70
     0
 10
0.0
 20
0.0
 30
0.0
  3
STDGX5
  1

  0
ENDBLK
  5
3DA
  8
0
  0
BLOCK
  8
0
  2
BATU
 70
     0
 10
0.0
 20
0.0
 30
0.0
  3
BATU
  1

  0
LINE
  5
60F
  8
ITTEN
 10
0.5
 20
0.0
 30
0.0
 11
-0.5
 21
0.0
 31
0.0
  0
LINE
  5
610
  8
ITTEN
 10
0.0
 20
0.5
 30
0.0
 11
0.0
 21
-0.5
 31
0.0
  0
ENDBLK
  5
612
  8
0
  0
ENDSEC
  0
SECTION
  2
ENTITIES
  0
INSERT
  5
404
  8
0
  2
STDGX5
 10
0.0
 20
0.0
 30
0.0
 41
0.125
 42
0.125
 43
0.125
  0
INSERT
  5
405
  8
0
  2
STDGX5
 10
0.0
 20
0.0
 30
0.0
 41
0.125
 42
0.125
 43
0.125
  0
INSERT
  5
406
  8
0
  2
STDGX5
 10
34.375
 20
0.0
 30
0.0
 41
0.125
 42
0.125
 43
0.125
  0
INSERT
  5
407
  8
0
  2
STDGX5
 10
34.375
 20
0.0
 30
0.0
 41
0.125
 42
0.125
 43
0.125
  0
INSERT
  5
408
  8
0
  2
STDGX5
 10
0.0
 20
0.0
 30
0.0
 41
0.25
 42
0.25
 43
0.25
  0
INSERT
  5
409
  8
0
  2
STDGX5
 10
0.0
 20
0.0
 30
0.0
 41
0.25
 42
0.25
 43
0.25
  0
INSERT
  5
40A
  8
0
  2
STDGX5
 10
68.75
 20
0.0
 30
0.0
 41
0.25
 42
0.25
 43
0.25
  0
INSERT
  5
40B
  8
0
  2
STDGX5
 10
68.75
 20
0.0
 30
0.0
 41
0.25
 42
0.25
 43
0.25
  0
INSERT
  5
40D
  8
0
  2
STDGX5
 10
-17.5
 20
-50.0
 30
0.0
 41
0.1666666666666666
 42
0.1666666666666666
 43
0.1666666666666666
  0
INSERT
  5
40E
  8
0
  2
STDGX5
 10
-17.5
 20
-50.0
 30
0.0
 41
0.1666666666666666
 42
0.1666666666666666
 43
0.1666666666666666
  0
INSERT
  5
40F
  8
0
  2
STDGX5
 10
28.333333333333321
 20
-50.0
 30
0.0
 41
0.1666666666666666
 42
0.1666666666666666
 43
0.1666666666666666
  0
INSERT
  5
410
  8
0
  2
STDGX5
 10
28.333333333333321
 20
-50.0
 30
0.0
 41
0.1666666666666666
 42
0.1666666666666666
 43
0.1666666666666666
  0
INSERT
  5
412
  8
0
  2
STDGX5
 10
-17.5
 20
-50.0
 30
0.0
 41
0.1666666666666666
 42
0.1666666666666666
 43
0.1666666666666666
  0
INSERT
  5
413
  8
0
  2
STDGX5
 10
-17.5
 20
-50.0
 30
0.0
 41
0.1666666666666666
 42
0.1666666666666666
 43
0.1666666666666666
  0
INSERT
  5
414
  8
0
  2
STDGX5
 10
28.333333333333329
 20
-50.0
 30
0.0
 41
0.1666666666666666
 42
0.1666666666666666
 43
0.1666666666666666
  0
INSERT
  5
415
  8
0
  2
STDGX5
 10
28.333333333333329
 20
-50.0
 30
0.0
 41
0.1666666666666666
 42
0.1666666666666666
 43
0.1666666666666666
  0
INSERT
  5
416
  8
0
  2
STDGX5
 10
0.0
 20
0.0
 30
0.0
 41
0.5
 42
0.5
 43
0.5
  0
INSERT
  5
417
  8
0
  2
STDGX5
 10
0.0
 20
0.0
 30
0.0
 41
0.5
 42
0.5
 43
0.5
  0
INSERT
  5
418
  8
0
  2
STDGX5
 10
137.5
 20
0.0
 30
0.0
 41
0.5
 42
0.5
 43
0.5
  0
INSERT
  5
419
  8
0
  2
STDGX5
 10
137.5
 20
0.0
 30
0.0
 41
0.5
 42
0.5
 43
0.5
  0
ARC
  5
584
  8
0
 10
85.836678132184176
 20
64.71106197367854
 30
0.0
 40
10.83
 50
137.17170914384889
 51
186.82829085615069
  0
LINE
  5
585
  8
1
 10
63.72624566813041
 20
89.895176973477064
 30
0.0
 11
63.72624566813041
 21
53.895176973477199
 31
0.0
1001
ACAD
1000
ASC_BOUNDS
1002
{
1070
    19
1002
}
  0
ARC
  5
586
  8
0
 10
41.615813204076602
 20
64.711061973678653
 30
0.0
 40
10.83
 50
353.17170914384877
 51
42.828290856150709
1001
ACAD
1000
ASC_BOUNDS
1002
{
1070
    19
1002
}
  0
CIRCLE
  5
587
  8
0
 10
63.72624566813041
 20
71.895176973477106
 30
0.0
 40
10.5
  0
ARC
  5
589
  8
0
 10
63.72624566813036
 20
48.646892475953159
 30
0.0
 40
10.83
 50
65.171709143851743
 51
114.828290856148
  0
ARC
  5
58A
  8
0
 10
57.154806547500563
 20
62.850366976365223
 30
0.0
 40
4.8200000000000003
 50
173.17170914384889
 51
294.8282908561481
  0
ARC
  5
58B
  8
0
 10
70.297684788760222
 20
62.850366976365223
 30
0.0
 40
4.8200000000000003
 50
245.1717091438517
 51
6.8282908561508071
  0
LINE
  5
58C
  8
1
 10
45.726245668130531
 20
71.895176973477106
 30
0.0
 11
81.726245668130304
 21
71.895176973477106
 31
0.0
1001
ACAD
1000
ASC_BOUNDS
1002
{
1070
    19
1002
}
  0
ARC
  5
58D
  8
0
 10
63.72624566813041
 20
83.075176973477099
 30
0.0
 40
4.8200000000000003
 50
29.17170914384884
 51
150.828290856151
1001
ACAD
1000
ASC_BOUNDS
1002
{
1070
    19
1002
}
  0
ARC
  5
58E
  8
0
 10
53.09343381595059
 20
75.349986970589072
 30
0.0
 40
4.8200000000000003
 50
101.1717091438489
 51
222.828290856151
1001
ACAD
1000
ASC_BOUNDS
1002
{
1070
    19
1002
}
  0
ARC
  5
58F
  8
0
 10
50.061246899386127
 20
90.703434222037686
 30
0.0
 40
10.83
 50
281.17170914384877
 51
330.82829085615072
1001
ACAD
1000
ASC_BOUNDS
1002
{
1070
    19
1002
}
  0
ARC
  5
590
  8
0
 10
74.359057520310216
 20
75.349986970589043
 30
0.0
 40
4.8200000000000003
 50
317.17170914384877
 51
78.828290856150701
  0
ARC
  5
591
  8
0
 10
77.391244436874757
 20
90.703434222037615
 30
0.0
 40
10.83
 50
209.17170914384889
 51
258.82829085615077
  0
LINE
  5
592
  8
2
 10
118.2283755881307
 20
69.395176973477106
 30
0.0
 11
118.2283755881307
 21
71.895176973477106
 31
0.0
1001
ACAD
1000
ASC_BOUNDS
1002
{
1070
    19
1002
}
  0
LINE
  5
593
  8
2
 10
122.2283755881307
 20
68.895176973477106
 30
0.0
 11
121.1658750009896
 21
69.508611973477116
 31
0.0
  0
LINE
  5
594
  8
0
 10
118.77908564095119
 20
58.717684097008799
 30
0.0
 11
118.77908564095119
 21
86.828935496006437
 31
0.0
  0
LINE
  5
595
  8
0
 10
119.7283755881304
 20
60.428514893477477
 30
0.0
 11
119.7283755881305
 21
71.895176973477064
 31
0.0
1001
ACAD
1000
ASC_BOUNDS
1002
{
1070
    19
1005
0
1002
}
  0
LINE
  5
596
  8
2
 10
122.2283755881307
 20
68.895176973477106
 30
0.0
 11
122.2283755881307
 21
74.895176973477106
 31
0.0
  0
LINE
  5
597
  8
2
 10
132.22837558813069
 20
68.895176973477106
 30
0.0
 11
131.61494058813071
 21
69.508611973477116
 31
0.0
  0
LINE
  5
598
  8
0
 10
131.3950424681307
 20
78.895176973477106
 30
0.0
 11
131.3950424681307
 21
64.895176973477106
 31
0.0
  0
LINE
  5
599
  8
0
 10
131.92837558813071
 20
71.895176973477106
 30
0.0
 11
131.92837558813071
 21
65.428510093477115
 31
0.0
1001
ACAD
1000
ASC_BOUNDS
1002
{
1070
    19
1005
0
1002
}
  0
LINE
  5
59A
  8
0
 10
132.22837558813069
 20
71.895176973477106
 30
0.0
 11
132.22837558813069
 21
67.395176973477106
 31
0.0
1001
ACAD
1000
ASC_BOUNDS
1002
{
1070
    19
1002
}
  0
ARC
  5
59B
  8
0
 10
120.90595478882631
 20
67.055203825143934
 30
0.0
 40
10.764453390754349
 50
163.63659927534991
 51
198.4630796502488
  0
LINE
  5
59C
  8
0
 10
109.7262456681303
 20
75.959157429226309
 30
0.0
 11
109.7262456681303
 21
68.87247252202431
 31
0.0
  0
LINE
  5
59D
  8
0
 10
109.7262456681304
 20
82.395176973476978
 30
0.0
 11
109.7262456681303
 21
61.395176973477483
 31
0.0
1001
ACAD
1000
ASC_BOUNDS
1002
{
1070
    19
1005
0
1002
}
  0
ARC
  5
59E
  8
2
 10
83.163745668130048
 20
71.895176973477163
 30
0.0
 40
28.56250000000033
 50
338.43140426487508
 51
21.568595735124781
1001
ACAD
1000
ASC_BOUNDS
1002
{
1070
    19
1002
}
  0
LINE
  5
5AA
  8
0
 10
119.7283755881305
 20
64.895176973477106
 30
0.0
 11
131.3950424681307
 21
64.895176973477106
 31
0.0
1001
ACAD
1000
ASC_BOUNDS
1002
{
1070
    19
1005
0
1002
}
  0
LINE
  5
5AB
  8
2
 10
132.22837558813069
 20
68.895176973477106
 30
0.0
 11
122.2283755881307
 21
68.895176973477106
 31
0.0
  0
LINE
  5
5AC
  8
2
 10
120.2283755881307
 20
67.395176973477106
 30
0.0
 11
131.92837558813071
 21
67.395176973477106
 31
0.0
  0
ARC
  5
5AD
  8
0
 10
118.6617093481303
 20
59.097033216365269
 30
0.0
 40
1.0666662399999991
 50
270.0
 51
359.99999999999972
  0
ARC
  5
5AE
  8
0
 10
111.76335660462119
 20
59.030366976365201
 30
0.0
 40
1.0
 50
195.06799885095751
 51
270.0
1001
ACAD
1000
ASC_BOUNDS
1002
{
1070
    19
1002
}
  0
ARC
  5
5AF
  8
0
 10
103.3406919229363
 20
60.304953583055919
 30
0.0
 40
8.0782408417948872
 50
345.19051880393209
 51
24.431652095235538
  0
LINE
  5
5B0
  8
0
 10
111.76335660462119
 20
58.030366976365279
 30
0.0
 11
118.6617093481303
 21
58.030366976365251
 31
0.0
  0
LINE
  5
5B1
  8
0
 10
111.5472046660574
 20
62.595655572679391
 30
0.0
 11
118.2872907265395
 21
62.595655572679391
 31
0.0
  0
ARC
  5
5B2
  8
0
 10
128.57982975694509
 20
67.560547388426784
 30
0.0
 40
19.83606375638934
 50
198.10842675135351
 51
206.304373118348
1001
ACAD
1000
ASC_BOUNDS
1002
{
1070
    19
1002
}
  0
LINE
  5
5B3
  8
0
 10
119.7283755881304
 20
60.428514893477463
 30
0.0
 11
119.7283755881304
 21
59.097033216365269
 31
0.0
1001
ACAD
1000
ASC_BOUNDS
1002
{
1070
    19
1002
}
  0
LINE
  5
5B4
  8
2
 10
118.2283755881307
 20
69.395176973477106
 30
0.0
 11
120.2283755881307
 21
67.395176973477106
 31
0.0
1001
ACAD
1000
ASC_BOUNDS
1002
{
1070
    19
1002
}
  0
LINE
  5
5B5
  8
0
 10
131.92837558813071
 20
65.428510093477115
 30
0.0
 11
131.3950424681307
 21
64.895176973477106
 31
0.0
1001
ACAD
1000
ASC_BOUNDS
1002
{
1070
    19
1005
0
1002
}
  0
LINE
  5
5B6
  8
0
 10
132.22837558813069
 20
67.395176973477106
 30
0.0
 11
131.92837558813071
 21
67.395176973477106
 31
0.0
1001
ACAD
1000
ASC_BOUNDS
1002
{
1070
    19
1002
}
  0
LINE
  5
5B8
  8
0
 10
119.7283755881304
 20
78.895176973477049
 30
0.0
 11
131.3950424681307
 21
78.895176973477106
 31
0.0
1001
ACAD
1000
ASC_BOUNDS
1002
{
1070
    19
1005
0
1002
}
  0
LINE
  5
5B9
  8
2
 10
131.92837558813071
 20
76.395176973477106
 30
0.0
 11
120.2283755881307
 21
76.395176973477106
 31
0.0
  0
LINE
  5
5BA
  8
2
 10
132.22837558813069
 20
74.895176973477106
 30
0.0
 11
122.2283755881307
 21
74.895176973477106
 31
0.0
  0
LINE
  5
5BB
  8
2
 10
131.61494058813071
 20
74.281741973477097
 30
0.0
 11
121.2283755881307
 21
74.281741973477097
 31
0.0
  0
LINE
  5
5BC
  8
2
 10
131.61494058813071
 20
69.508611973477116
 30
0.0
 11
121.2283755881307
 21
69.508611973477116
 31
0.0
  0
LINE
  5
5BD
  8
1
 10
107.7262456681303
 20
71.895176973477106
 30
0.0
 11
134.2283755881306
 21
71.895176973477106
 31
0.0
  0
LINE
  5
5BE
  8
0
 10
119.7283755881304
 20
84.581859640679127
 30
0.0
 11
119.72837558813031
 21
71.895176973477106
 31
0.0
1001
ACAD
1000
ASC_BOUNDS
1002
{
1070
    19
1005
0
1002
}
  0
ARC
  5
5BF
  8
0
 10
126.20238768120539
 20
81.894427995343932
 30
0.0
 40
16.229156419729382
 50
166.0831647064702
 51
193.27515037428921
  0
LINE
  5
5C0
  8
0
 10
111.4879416678048
 20
71.514752077608563
 30
0.0
 11
118.2872907265395
 21
71.514752077608563
 31
0.0
  0
LINE
  5
5C1
  8
0
 10
111.14385101317031
 20
78.343478780803423
 30
0.0
 11
118.5660338577995
 21
78.343478780803423
 31
0.0
  0
ARC
  5
5C2
  8
0
 10
95.697118403293743
 20
73.815376833520673
 30
0.0
 40
15.340172503387359
 50
345.93688149450128
 51
16.482642303707308
  0
LINE
  5
5C3
  8
2
 10
118.2283755881307
 20
74.395176973477106
 30
0.0
 11
120.2283755881307
 21
76.395176973477106
 31
0.0
1001
ACAD
1000
ASC_BOUNDS
1002
{
1070
    19
1002
}
  0
LINE
  5
5C4
  8
2
 10
118.2283755881307
 20
74.395176973477106
 30
0.0
 11
118.2283755881307
 21
71.895176973477106
 31
0.0
1001
ACAD
1000
ASC_BOUNDS
1002
{
1070
    19
1002
}
  0
LINE
  5
5C5
  8
2
 10
121.2283755881307
 20
74.281741973477097
 30
0.0
 11
119.8504916429421
 21
71.895176973477106
 31
0.0
  0
LINE
  5
5C6
  8
2
 10
121.2283755881307
 20
69.508611973477116
 30
0.0
 11
121.2283755881307
 21
74.281741973477097
 31
0.0
  0
LINE
  5
5C7
  8
2
 10
121.2283755881307
 20
69.508611973477116
 30
0.0
 11
119.8504916429421
 21
71.895176973477106
 31
0.0
  0
LINE
  5
5C8
  8
2
 10
122.2283755881307
 20
74.895176973477106
 30
0.0
 11
121.1658750009896
 21
74.281741973477097
 31
0.0
  0
LINE
  5
5C9
  8
0
 10
111.4782275200316
 20
84.227690137940471
 30
0.0
 11
118.2872907265395
 21
84.227690137940471
 31
0.0
  0
LINE
  5
5CA
  8
0
 10
111.76335660462119
 20
87.895170573477145
 30
0.0
 11
118.6617093481303
 21
87.895170573477145
 31
0.0
1001
ACAD
1000
ASC_BOUNDS
1002
{
1070
    19
1005
0
1002
}
  0
ARC
  5
5CB
  8
0
 10
167.47951397391549
 20
71.895176973477191
 30
0.0
 40
58.700000000000003
 50
164.93200114904121
 51
169.69572419750301
1001
ACAD
1000
ASC_BOUNDS
1002
{
1070
    19
1002
}
  0
ARC
  5
5CC
  8
0
 10
111.76335660462119
 20
86.895170573477188
 30
0.0
 40
1.0
 50
90.0
 51
164.93200114904249
1001
ACAD
1000
ASC_BOUNDS
1002
{
1070
    19
1002
}
  0
LINE
  5
5CD
  8
0
 10
119.7283755881304
 20
84.581859640679127
 30
0.0
 11
119.72837558813031
 21
86.828504333477127
 31
0.0
1001
ACAD
1000
ASC_BOUNDS
1002
{
1070
    19
1005
0
1002
}
  0
ARC
  5
5CE
  8
0
 10
118.6617093481303
 20
86.828504333477127
 30
0.0
 40
1.0666662399999991
 50
0.0000000000002544
 51
90.0
1001
ACAD
1000
ASC_BOUNDS
1002
{
1070
    19
1005
0
1002
}
  0
LINE
  5
5CF
  8
0
 10
131.92837558813079
 20
71.895176973477106
 30
0.0
 11
131.92837558813071
 21
78.361843853477041
 31
0.0
1001
ACAD
1000
ASC_BOUNDS
1002
{
1070
    19
1005
0
1002
}
  0
LINE
  5
5D0
  8
0
 10
132.22837558813069
 20
71.895176973477106
 30
0.0
 11
132.22837558813069
 21
76.395176973477106
 31
0.0
1001
ACAD
1000
ASC_BOUNDS
1002
{
1070
    19
1002
}
  0
LINE
  5
5D1
  8
2
 10
131.61494058813071
 20
69.508611973477116
 30
0.0
 11
131.61494058813071
 21
74.281741973477097
 31
0.0
  0
LINE
  5
5D2
  8
2
 10
131.61494058813071
 20
74.281741973477097
 30
0.0
 11
132.22837558813069
 21
74.895176973477106
 31
0.0
  0
LINE
  5
5D3
  8
0
 10
132.22837558813069
 20
76.395176973477106
 30
0.0
 11
131.92837558813071
 21
76.395176973477106
 31
0.0
1001
ACAD
1000
ASC_BOUNDS
1002
{
1070
    19
1002
}
  0
LINE
  5
5D4
  8
0
 10
131.92837558813071
 20
78.361843853477097
 30
0.0
 11
131.3950424681307
 21
78.895176973477106
 31
0.0
1001
ACAD
1000
ASC_BOUNDS
1002
{
1070
    19
1005
0
1002
}
  0
INSERT
  5
613
  8
0
  2
BATU
 10
0.0
 20
0.0
 30
0.0
 41
0.001
 42
0.001
 43
0.001
  0
TEXT
  5
71D
  8
0
 62
     3
 10
0.0
 20
0.0
 30
0.0
 40
10.0
  1
SFK32B
  7
STANDARD1
  0
ENDSEC
  0
EOF
