  0
SECTION
  2
HEADER
  9
$ACADVER
  1
AC1009
  9
$INSBASE
 10
0.0
 20
0.0
 30
0.0
  9
$EXTMIN
 10
0.0
 20
-2.960436562073669
 30
0.0
  9
$EXTMAX
 10
147.22780640831999
 20
56.810057234110559
 30
0.0
  9
$LIMMIN
 10
0.0
 20
0.0
  9
$LIMMAX
 10
375.0
 20
270.0
  9
$ORTHOMODE
 70
     1
  9
$REGENMODE
 70
     1
  9
$FILLMODE
 70
     1
  9
$QTEXTMODE
 70
     0
  9
$MIRRTEXT
 70
     0
  9
$DRAGMODE
 70
     2
  9
$LTSCALE
 40
10.0
  9
$OSMODE
 70
    55
  9
$ATTMODE
 70
     1
  9
$TEXTSIZE
 40
5.0
  9
$TRACEWID
 40
0.05
  9
$TEXTSTYLE
  7
STANDARD
  9
$CLAYER
  8
0
  9
$CELTYPE
  6
BYLAYER
  9
$CECOLOR
 62
   256
  9
$DIMSCALE
 40
1.0
  9
$DIMASZ
 40
3.0
  9
$DIMEXO
 40
2.0
  9
$DIMDLI
 40
0.3799999999999999
  9
$DIMRND
 40
0.0
  9
$DIMDLE
 40
0.0
  9
$DIMEXE
 40
2.0
  9
$DIMTP
 40
0.0
  9
$DIMTM
 40
0.0
  9
$DIMTXT
 40
3.2000000000000002
  9
$DIMCEN
 40
0.09
  9
$DIMTSZ
 40
0.0
  9
$DIMTOL
 70
     0
  9
$DIMLIM
 70
     0
  9
$DIMTIH
 70
     0
  9
$DIMTOH
 70
     0
  9
$DIMSE1
 70
     0
  9
$DIMSE2
 70
     0
  9
$DIMTAD
 70
     1
  9
$DIMZIN
 70
     0
  9
$DIMBLK
  1

  9
$DIMASO
 70
     1
  9
$DIMSHO
 70
     0
  9
$DIMPOST
  1

  9
$DIMAPOST
  1

  9
$DIMALT
 70
     0
  9
$DIMALTD
 70
     2
  9
$DIMALTF
 40
25.399999999999999
  9
$DIMLFAC
 40
1.0
  9
$DIMTOFL
 70
     0
  9
$DIMTVP
 40
1.6000000000000001
  9
$DIMTIX
 70
     1
  9
$DIMSOXD
 70
     0
  9
$DIMSAH
 70
     0
  9
$DIMBLK1
  1

  9
$DIMBLK2
  1

  9
$DIMSTYLE
  2
STANDARD
  9
$DIMCLRD
 70
     0
  9
$DIMCLRE
 70
     0
  9
$DIMCLRT
 70
     0
  9
$DIMTFAC
 40
1.0
  9
$DIMGAP
 40
0.09
  9
$LUNITS
 70
     2
  9
$LUPREC
 70
     4
  9
$SKETCHINC
 40
0.1
  9
$FILLETRAD
 40
0.5
  9
$AUNITS
 70
     0
  9
$AUPREC
 70
     0
  9
$MENU
  1
E:\r13\win\SUPPORT\ACAD
  9
$ELEVATION
 40
0.0
  9
$PELEVATION
 40
0.0
  9
$THICKNESS
 40
0.0
  9
$LIMCHECK
 70
     0
  9
$BLIPMODE
 70
     0
  9
$CHAMFERA
 40
0.0
  9
$CHAMFERB
 40
0.0
  9
$SKPOLY
 70
     0
  9
$TDCREATE
 40
2449840.6274652779
  9
$TDUPDATE
 40
2456598.4912865632
  9
$TDINDWG
 40
0.0338428356
  9
$TDUSRTIMER
 40
0.0338428356
  9
$USRTIMER
 70
     1
  9
$ANGBASE
 50
0.0
  9
$ANGDIR
 70
     0
  9
$PDMODE
 70
     0
  9
$PDSIZE
 40
0.0
  9
$PLINEWID
 40
0.0
  9
$COORDS
 70
     1
  9
$SPLFRAME
 70
     0
  9
$SPLINETYPE
 70
     6
  9
$SPLINESEGS
 70
     8
  9
$ATTDIA
 70
     0
  9
$ATTREQ
 70
     1
  9
$HANDLING
 70
     1
  9
$HANDSEED
  5
45F
  9
$SURFTAB1
 70
     6
  9
$SURFTAB2
 70
     6
  9
$SURFTYPE
 70
     6
  9
$SURFU
 70
     6
  9
$SURFV
 70
     6
  9
$UCSNAME
  2

  9
$UCSORG
 10
0.0
 20
0.0
 30
0.0
  9
$UCSXDIR
 10
1.0
 20
0.0
 30
0.0
  9
$UCSYDIR
 10
0.0
 20
1.0
 30
0.0
  9
$PUCSNAME
  2

  9
$PUCSORG
 10
0.0
 20
0.0
 30
0.0
  9
$PUCSXDIR
 10
1.0
 20
0.0
 30
0.0
  9
$PUCSYDIR
 10
0.0
 20
1.0
 30
0.0
  9
$USERI1
 70
     0
  9
$USERI2
 70
     1
  9
$USERI3
 70
     1
  9
$USERI4
 70
     0
  9
$USERI5
 70
     0
  9
$USERR1
 40
0.0
  9
$USERR2
 40
0.0
  9
$USERR3
 40
0.0
  9
$USERR4
 40
0.0
  9
$USERR5
 40
0.0
  9
$WORLDVIEW
 70
     1
  9
$SHADEDGE
 70
     3
  9
$SHADEDIF
 70
    70
  9
$TILEMODE
 70
     1
  9
$MAXACTVP
 70
    16
  9
$PLIMCHECK
 70
     0
  9
$PEXTMIN
 10
1.0000000000000000E+020
 20
1.0000000000000000E+020
 30
1.0000000000000000E+020
  9
$PEXTMAX
 10
-1.0000000000000000E+020
 20
-1.0000000000000000E+020
 30
-1.0000000000000000E+020
  9
$PLIMMIN
 10
0.0
 20
0.0
  9
$PLIMMAX
 10
12.0
 20
9.0
  9
$UNITMODE
 70
     0
  9
$VISRETAIN
 70
     0
  9
$PLINEGEN
 70
     0
  9
$PSLTSCALE
 70
     0
  0
ENDSEC
  0
SECTION
  2
TABLES
  0
TABLE
  2
VPORT
 70
     1
  0
VPORT
  2
*ACTIVE
 70
     0
 10
0.0
 20
0.0
 11
1.0
 21
1.0
 12
187.49427839065231
 22
174.91677254346851
 13
0.0
 23
0.0
 14
10.0
 24
10.0
 15
10.0
 25
10.0
 16
0.0
 26
0.0
 36
1.0
 17
0.0
 27
0.0
 37
0.0
 40
358.92027899574339
 41
1.7807262569832401
 42
50.0
 43
0.0
 44
0.0
 50
0.0
 51
0.0
 71
     0
 72
   500
 73
     1
 74
     0
 75
     0
 76
     0
 77
     0
 78
     2
  0
ENDTAB
  0
TABLE
  2
LTYPE
 70
     3
  0
LTYPE
  2
CONTINUOUS
 70
     0
  3
Solid Line
 72
    65
 73
     0
 40
0.0
  0
LTYPE
  2
CENTER
 70
     0
  3
____ _ ____ _ ____ _ ____ _ ____ _ ____ _ ____
 72
    65
 73
     4
 40
2.0
 49
1.25
 49
-0.25
 49
0.25
 49
-0.25
  0
LTYPE
  2
PHANTOM2
 70
     0
  3
___ _ _ ___ _ _ ___ _ _ ___ _ _
 72
    65
 73
     6
 40
1.25
 49
0.625
 49
-0.125
 49
0.125
 49
-0.125
 49
0.125
 49
-0.125
  0
ENDTAB
  0
TABLE
  2
LAYER
 70
     3
  0
LAYER
  2
0
 70
     0
 62
     7
  6
CONTINUOUS
  0
LAYER
  2
1
 70
     0
 62
     1
  6
CENTER
  0
LAYER
  2
3
 70
     0
 62
     3
  6
CONTINUOUS
  0
ENDTAB
  0
TABLE
  2
STYLE
 70
     2
  0
STYLE
  2
STANDARD
 70
     0
 40
0.0
 41
1.0
 50
0.0
 71
     0
 42
5.0
  3
TXT
  4
BIGFONT
  0
STYLE
  2
STANDARD1
 70
     0
 40
0.0
 41
1.0
 50
0.0
 71
     0
 42
3.0
  3
txt
  4

  0
ENDTAB
  0
TABLE
  2
VIEW
 70
     2
  0
VIEW
  2
ALL
 70
     0
 40
270.0
 10
213.25689075630251
 20
135.0
 41
0.0
 11
0.0
 21
0.0
 31
1.0
 12
0.0
 22
0.0
 32
0.0
 42
0.0
 43
0.0
 44
0.0
 50
0.0
 71
     0
  0
VIEW
  2
1
 70
     0
 40
190.0
 10
140.0
 20
85.0
 41
280.0
 11
0.0
 21
0.0
 31
1.0
 12
0.0
 22
0.0
 32
0.0
 42
0.0
 43
0.0
 44
0.0
 50
0.0
 71
     0
  0
ENDTAB
  0
TABLE
  2
UCS
 70
     0
  0
ENDTAB
  0
TABLE
  2
APPID
 70
     4
  0
APPID
  2
ACAD
 70
     0
  0
APPID
  2
ACAD_EXEMPT_FROM_CAD_STANDARDS
 70
     0
  0
APPID
  2
ACAD_MLEADERVER
 70
     0
  0
APPID
  2
ACAD_NAV_VCDISPLAY
 70
     0
  0
ENDTAB
  0
TABLE
  2
DIMSTYLE
 70
     1
  0
DIMSTYLE
  2
STANDARD
 70
     0
  3

  4

  5

  6

  7

 40
1.0
 41
0.18
 42
0.0625
 43
0.38
 44
0.18
 45
0.0
 46
0.0
 47
0.0
 48
0.0
140
0.18
141
0.09
142
0.0
143
25.399999999999999
144
1.0
145
0.0
146
1.0
147
0.09
 71
     0
 72
     0
 73
     1
 74
     1
 75
     0
 76
     0
 77
     0
 78
     0
170
     0
171
     2
172
     0
173
     0
174
     0
175
     0
176
     0
177
     0
178
     0
  0
ENDTAB
  0
ENDSEC
  0
SECTION
  2
BLOCKS
  0
BLOCK
  8
0
  2
$MODEL_SPACE
 70
     0
 10
0.0
 20
0.0
 30
0.0
  3
$MODEL_SPACE
  1

  0
ENDBLK
  5
2B9
  8
0
  0
BLOCK
 67
     1
  8
0
  2
$PAPER_SPACE
 70
     0
 10
0.0
 20
0.0
 30
0.0
  3
$PAPER_SPACE
  1

  0
ENDBLK
  5
2B7
 67
     1
  8
0
  0
ENDSEC
  0
SECTION
  2
ENTITIES
  0
LINE
  5
1AF
  8
0
 10
86.22780640831985
 20
21.310057234110559
 30
0.0
 11
73.227806408320021
 21
21.310057234110559
 31
0.0
  0
LINE
  5
1B0
  8
0
 10
73.227806408320021
 20
24.310057234110541
 30
0.0
 11
86.227806408319964
 21
24.310057234110541
 31
0.0
  0
LINE
  5
1B1
  8
1
 10
59.227806408320021
 20
22.810057234110559
 30
0.0
 11
113.22780640832001
 21
22.810057234110559
 31
0.0
  0
LINE
  5
1B2
  8
3
 10
73.477806408319907
 20
20.310057234110669
 30
0.0
 11
85.977806408320021
 21
20.310057234110559
 31
0.0
  0
LINE
  5
1B3
  8
3
 10
73.477806408319907
 20
20.810057234110669
 30
0.0
 11
85.977806408320021
 21
20.810057234110559
 31
0.0
  0
LINE
  5
1B4
  8
3
 10
73.477806408319907
 20
24.810057234110442
 30
0.0
 11
85.977806408320021
 21
24.810057234110559
 31
0.0
  0
LINE
  5
1B5
  8
3
 10
73.477806408319907
 20
25.310057234110449
 30
0.0
 11
85.977806408320021
 21
25.310057234110559
 31
0.0
  0
LINE
  5
1B6
  8
0
 10
74.227806408320049
 20
21.31005723411057
 30
0.0
 11
74.227806408320049
 21
24.310057234110531
 31
0.0
  0
LINE
  5
1B7
  8
3
 10
74.227806408320049
 20
21.580557234109829
 30
0.0
 11
73.227806408320021
 21
21.58055723410985
 31
0.0
  0
LINE
  5
1B8
  8
3
 10
74.227806408320049
 20
21.580557234109818
 30
0.0
 11
74.696326151766158
 21
21.310057234110559
 31
0.0
  0
LINE
  5
1B9
  8
3
 10
74.227806408320049
 20
24.0395572341113
 30
0.0
 11
74.696326151766158
 21
24.310057234110559
 31
0.0
  0
LINE
  5
1BA
  8
3
 10
74.227806408320049
 20
24.039557234111289
 30
0.0
 11
73.227806408320021
 21
24.039557234111271
 31
0.0
  0
LINE
  5
1BB
  8
0
 10
64.227806408320021
 20
19.310057234110559
 30
0.0
 11
64.727806408320021
 21
18.810057234110559
 31
0.0
  0
LINE
  5
1BC
  8
0
 10
64.727806408320021
 20
26.810057234110559
 30
0.0
 11
64.227806408320021
 21
26.310057234110559
 31
0.0
  0
CIRCLE
  5
1BD
  8
0
 10
73.477806408319907
 20
20.560057234110449
 30
0.0
 40
0.25
  0
CIRCLE
  5
1BE
  8
0
 10
73.477806408319907
 20
25.060057234110449
 30
0.0
 40
0.25
  0
LINE
  5
1BF
  8
0
 10
73.227806408320021
 20
18.810057234110559
 30
0.0
 11
73.227806408320021
 21
26.810057234110559
 31
0.0
  0
LINE
  5
1C0
  8
0
 10
73.227806408320021
 20
18.810057234110559
 30
0.0
 11
64.727806408320021
 21
18.810057234110559
 31
0.0
  0
LINE
  5
1C1
  8
0
 10
73.227806408320021
 20
26.810057234110559
 30
0.0
 11
64.727806408320021
 21
26.810057234110559
 31
0.0
  0
LINE
  5
1C2
  8
0
 10
64.227806408320021
 20
19.310057234110559
 30
0.0
 11
64.227806408320021
 21
26.310057234110559
 31
0.0
  0
LINE
  5
1C3
  8
0
 10
73.227806408320021
 20
21.310057234110559
 30
0.0
 11
73.227806408320021
 21
24.310057234110559
 31
0.0
  0
LINE
  5
1C4
  8
0
 10
90.227806408320006
 20
19.310057234110559
 30
0.0
 11
90.227806408320006
 21
18.810057234110559
 31
0.0
  0
LINE
  5
1C5
  8
0
 10
90.227806408320006
 20
26.810057234110559
 30
0.0
 11
90.227806408320134
 21
26.310057234110559
 31
0.0
  0
LINE
  5
1C6
  8
0
 10
108.02780640832
 20
20.060057234110559
 30
0.0
 11
105.22780640832001
 21
20.060057234110559
 31
0.0
  0
LINE
  5
1C8
  8
0
 10
105.22780640832001
 20
25.560057234110559
 30
0.0
 11
108.02780640832
 21
25.560057234110559
 31
0.0
  0
LINE
  5
1C9
  8
0
 10
108.22780640832001
 20
25.213647072596821
 30
0.0
 11
108.22780640832001
 21
20.406467395624361
 31
0.0
  0
LINE
  5
1CA
  8
0
 10
108.02780640832
 20
25.560057234110559
 30
0.0
 11
108.02780640832
 21
20.060057234110559
 31
0.0
  0
LINE
  5
1CB
  8
0
 10
108.02780640832
 20
20.060057234110559
 30
0.0
 11
108.22780640832001
 21
20.406467395624361
 31
0.0
  0
LINE
  5
1CC
  8
0
 10
108.02780640832
 20
25.560057234110541
 30
0.0
 11
108.22780640832011
 21
25.213647072596739
 31
0.0
  0
LINE
  5
1CD
  8
0
 10
105.22780640832011
 20
20.0100572341108
 30
0.0
 11
105.22780640831991
 21
25.61005723411057
 31
0.0
  0
CIRCLE
  5
1CE
  8
0
 10
85.977806408320021
 20
20.560057234110559
 30
0.0
 40
0.25
  0
CIRCLE
  5
1CF
  8
0
 10
85.977806408320021
 20
25.060057234110559
 30
0.0
 40
0.25
  0
LINE
  5
1D0
  8
0
 10
86.927806408320066
 20
19.310057234110559
 30
0.0
 11
90.227806408320006
 21
19.310057234110559
 31
0.0
  0
LINE
  5
1D1
  8
0
 10
86.927806408319967
 20
26.310057234110559
 30
0.0
 11
90.227806408320134
 21
26.310057234110559
 31
0.0
  0
LINE
  5
1D2
  8
0
 10
105.22780640831991
 20
20.010057234110601
 30
0.0
 11
104.0278064083199
 21
18.810057234110559
 31
0.0
  0
LINE
  5
1D3
  8
0
 10
105.22780640831991
 20
25.610057234110631
 30
0.0
 11
104.0278064083199
 21
26.810057234110559
 31
0.0
  0
LINE
  5
1D4
  8
0
 10
86.227806408320035
 20
25.610057234110631
 30
0.0
 11
86.227806408319793
 21
20.010057234110889
 31
0.0
  0
LINE
  5
1D5
  8
3
 10
104.70430640831979
 20
26.13355723411075
 30
0.0
 11
86.751306408320033
 21
26.13355723411075
 31
0.0
  0
LINE
  5
1D6
  8
3
 10
104.70430640831989
 20
19.486557234110482
 30
0.0
 11
86.751306408320033
 21
19.486557234110482
 31
0.0
  0
LINE
  5
1D7
  8
0
 10
104.0278064083199
 20
18.810057234110559
 30
0.0
 11
90.227806408320006
 21
18.810057234110559
 31
0.0
  0
LINE
  5
1D8
  8
0
 10
104.0278064083199
 20
26.810057234110559
 30
0.0
 11
90.227806408320006
 21
26.810057234110559
 31
0.0
  0
LINE
  5
1D9
  8
0
 10
86.927806408320066
 20
19.310057234110559
 30
0.0
 11
86.227806408320035
 21
20.010057234110601
 31
0.0
  0
LINE
  5
1DA
  8
0
 10
86.227806408320035
 20
25.610057234110631
 30
0.0
 11
86.927806408319967
 21
26.310057234110559
 31
0.0
  0
LINE
  5
1DB
  8
1
 10
113.22780640832001
 20
52.810057234110573
 30
0.0
 11
59.227806408319978
 21
52.810057234110552
 31
0.0
  0
LINE
  5
1DC
  8
0
 10
73.227806408319864
 20
54.310057234110559
 30
0.0
 11
86.227806408319964
 21
54.310057234110559
 31
0.0
  0
LINE
  5
1DD
  8
0
 10
86.227806408319964
 20
51.310057234110531
 30
0.0
 11
73.227806408319921
 21
51.310057234110559
 31
0.0
  0
LINE
  5
1DE
  8
3
 10
73.477806408319864
 20
55.310057234110452
 30
0.0
 11
85.977806408319964
 21
55.310057234110552
 31
0.0
  0
LINE
  5
1DF
  8
3
 10
73.477806408319864
 20
54.810057234110438
 30
0.0
 11
85.977806408319964
 21
54.810057234110559
 31
0.0
  0
LINE
  5
1E0
  8
3
 10
73.477806408319864
 20
50.810057234110673
 30
0.0
 11
85.977806408319964
 21
50.810057234110559
 31
0.0
  0
LINE
  5
1E1
  8
3
 10
73.477806408319864
 20
50.310057234110673
 30
0.0
 11
85.977806408319964
 21
50.310057234110552
 31
0.0
  0
LINE
  5
1E2
  8
3
 10
74.227806408320049
 20
54.039557234111307
 30
0.0
 11
74.696326151766158
 21
54.31005723411058
 31
0.0
  0
LINE
  5
1E3
  8
0
 10
74.227806408320049
 20
51.310057234110587
 30
0.0
 11
74.227806408320049
 21
54.310057234110538
 31
0.0
  0
LINE
  5
1E4
  8
3
 10
74.227806408320049
 20
51.580557234109833
 30
0.0
 11
74.696326151766158
 21
51.310057234110573
 31
0.0
  0
LINE
  5
1E5
  8
3
 10
74.227806408320049
 20
51.580557234109847
 30
0.0
 11
73.227806408319935
 21
51.580557234109833
 31
0.0
  0
LINE
  5
1E6
  8
3
 10
74.227806408320049
 20
54.039557234111292
 30
0.0
 11
73.227806408319893
 21
54.039557234111292
 31
0.0
  0
LINE
  5
1E7
  8
0
 10
64.727806408319978
 20
56.810057234110559
 30
0.0
 11
64.727806408319978
 21
48.810057234110559
 31
0.0
  0
LINE
  5
1E8
  8
0
 10
64.227806408319978
 20
49.310057234110559
 30
0.0
 11
64.727806408319978
 21
48.810057234110559
 31
0.0
  0
LINE
  5
1E9
  8
0
 10
64.727806408319978
 20
56.810057234110559
 30
0.0
 11
64.227806408319978
 21
56.310057234110559
 31
0.0
  0
LINE
  5
1EA
  8
0
 10
73.227806408319964
 20
48.810057234110559
 30
0.0
 11
73.227806408319864
 21
56.810057234110559
 31
0.0
  0
CIRCLE
  5
1EB
  8
0
 10
73.477806408319864
 20
55.060057234110438
 30
0.0
 40
0.25
  0
CIRCLE
  5
1EC
  8
0
 10
73.477806408319864
 20
50.560057234110438
 30
0.0
 40
0.25
  0
LINE
  5
1ED
  8
0
 10
64.227806408319978
 20
49.310057234110559
 30
0.0
 11
64.227806408319978
 21
56.310057234110559
 31
0.0
  0
LINE
  5
1EE
  8
0
 10
73.227806408319964
 20
56.810057234110559
 30
0.0
 11
64.727806408319978
 21
56.810057234110559
 31
0.0
  0
LINE
  5
1EF
  8
0
 10
73.227806408319964
 20
48.810057234110559
 30
0.0
 11
64.727806408319978
 21
48.810057234110559
 31
0.0
  0
LINE
  5
1F0
  8
0
 10
87.427806408319952
 20
50.87356556100687
 30
0.0
 11
87.427806408319995
 21
48.810057234110559
 31
0.0
  0
LINE
  5
1F1
  8
0
 10
87.427806408319896
 20
56.810057234110559
 30
0.0
 11
87.427806408319896
 21
54.746548907214283
 31
0.0
  0
LINE
  5
1F2
  8
0
 10
104.0278064083199
 20
56.810057234110559
 30
0.0
 11
104.0278064083199
 21
48.810057234110559
 31
0.0
  0
LINE
  5
1F3
  8
3
 10
86.227806408319964
 20
50.873565561006842
 30
0.0
 11
90.227806408319964
 21
54.746548907214283
 31
0.0
  0
LINE
  5
1F4
  8
3
 10
86.227806408319964
 20
54.746548907214283
 30
0.0
 11
90.227806408319964
 21
50.873565561006842
 31
0.0
  0
LINE
  5
1F5
  8
0
 10
86.227806408319964
 20
50.873565561006842
 30
0.0
 11
90.227806408319964
 21
50.873565561006842
 31
0.0
  0
LINE
  5
1F6
  8
0
 10
86.227806408319964
 20
54.746548907214283
 30
0.0
 11
90.227806408319964
 21
54.746548907214283
 31
0.0
  0
LINE
  5
1F7
  8
0
 10
90.227806408319964
 20
50.873565561006842
 30
0.0
 11
90.227806408319964
 21
54.746548907214283
 31
0.0
  0
LINE
  5
1F8
  8
0
 10
108.0278064083199
 20
55.560057234110559
 30
0.0
 11
108.22780640832001
 21
55.2136470725967
 31
0.0
  0
LINE
  5
1F9
  8
0
 10
108.0278064083199
 20
50.060057234110559
 30
0.0
 11
108.22780640832001
 21
50.406467395624418
 31
0.0
  0
LINE
  5
1FA
  8
0
 10
108.0278064083199
 20
55.560057234110559
 30
0.0
 11
108.0278064083199
 21
50.060057234110559
 31
0.0
  0
LINE
  5
1FB
  8
0
 10
108.22780640832001
 20
55.213647072596821
 30
0.0
 11
108.22780640832001
 21
50.406467395624418
 31
0.0
  0
LINE
  5
1FD
  8
0
 10
105.22780640832001
 20
55.610057234110627
 30
0.0
 11
105.22780640832001
 21
50.010057234110597
 31
0.0
  0
LINE
  5
1FE
  8
0
 10
105.22780640832001
 20
55.610057234110627
 30
0.0
 11
104.0278064083199
 21
56.810057234110559
 31
0.0
  0
LINE
  5
1FF
  8
0
 10
105.22780640832001
 20
50.010057234110597
 30
0.0
 11
104.0278064083199
 21
48.810057234110559
 31
0.0
  0
LINE
  5
200
  8
0
 10
86.227806408319964
 20
55.610057234110627
 30
0.0
 11
87.427806408319896
 21
56.810057234110559
 31
0.0
  0
LINE
  5
201
  8
0
 10
87.427806408319995
 20
48.810057234110559
 30
0.0
 11
86.227806408319964
 21
50.010057234110597
 31
0.0
  0
LINE
  5
202
  8
0
 10
86.227806408319964
 20
55.610057234110627
 30
0.0
 11
86.227806408319964
 21
50.010057234110597
 31
0.0
  0
CIRCLE
  5
203
  8
0
 10
85.977806408319964
 20
55.060057234110559
 30
0.0
 40
0.25
  0
CIRCLE
  5
204
  8
0
 10
85.977806408319964
 20
50.560057234110559
 30
0.0
 40
0.25
  0
LINE
  5
205
  8
0
 10
104.0278064083199
 20
56.810057234110559
 30
0.0
 11
87.427806408319896
 21
56.810057234110559
 31
0.0
  0
LINE
  5
206
  8
0
 10
104.0278064083199
 20
48.810057234110559
 30
0.0
 11
87.427806408319995
 21
48.810057234110559
 31
0.0
  0
LINE
  5
207
  8
3
 10
104.70430640831989
 20
49.486557234110471
 30
0.0
 11
86.751306408319977
 21
49.486557234110471
 31
0.0
  0
LINE
  5
208
  8
3
 10
104.70430640831979
 20
56.133557234110746
 30
0.0
 11
86.751306408319977
 21
56.133557234110746
 31
0.0
  0
LINE
  5
209
  8
0
 10
105.22780640832001
 20
55.560057234110559
 30
0.0
 11
108.0278064083199
 21
55.560057234110559
 31
0.0
  0
LINE
  5
20A
  8
0
 10
108.0278064083199
 20
50.060057234110559
 30
0.0
 11
105.22780640832001
 21
50.060057234110559
 31
0.0
  0
LINE
  5
20B
  8
0
 10
64.727806408320021
 20
26.810057234110559
 30
0.0
 11
64.727806408320021
 21
18.810057234110559
 31
0.0
  0
CIRCLE
  5
20C
  8
0
 10
34.227806408320021
 20
22.810057234110559
 30
0.0
 40
3.5
  0
CIRCLE
  5
20D
  8
0
 10
34.227806408320021
 20
22.810057234110559
 30
0.0
 40
4.0
  0
LINE
  5
20E
  8
1
 10
43.227806408320021
 20
22.810057234110559
 30
0.0
 11
25.227806408320021
 21
22.810057234110559
 31
0.0
  0
LINE
  5
20F
  8
1
 10
34.227806408320021
 20
31.810057234110559
 30
0.0
 11
34.227806408320021
 21
13.810057234110561
 31
0.0
  0
CIRCLE
  5
211
  8
0
 10
138.22780640831999
 20
22.81005723411057
 30
0.0
 40
2.75
  0
CIRCLE
  5
212
  8
0
 10
138.22780640831999
 20
22.81005723411057
 30
0.0
 40
4.0
  0
CIRCLE
  5
213
  8
3
 10
138.22780640831999
 20
22.81005723411057
 30
0.0
 40
3.3235000000001942
  0
LINE
  5
214
  8
1
 10
147.22780640831999
 20
22.81005723411057
 30
0.0
 11
129.22780640831999
 21
22.81005723411057
 31
0.0
  0
LINE
  5
215
  8
1
 10
138.22780640831999
 20
31.81005723411058
 30
0.0
 11
138.22780640831999
 21
13.81005723411057
 31
0.0
  0
LINE
  5
366
  8
0
 10
104.0278064083199
 20
18.810057234110559
 30
0.0
 11
104.0278064083199
 21
26.810057234110559
 31
0.0
  0
TEXT
  5
3F9
  8
0
 62
     3
 10
0.0
 20
0.0
 30
0.0
 40
10.0
  1
SEPS08-08
  7
STANDARD1
  0
ENDSEC
  0
EOF
