  0
SECTION
  2
HEADER
  9
$ACADVER
  1
AC1009
  9
$INSBASE
 10
0.0
 20
0.0
 30
0.0
  9
$EXTMIN
 10
0.0
 20
-1.4802182810368341
 30
0.0
  9
$EXTMAX
 10
271.27633960873197
 20
189.588444691783
 30
0.0
  9
$LIMMIN
 10
0.0
 20
0.0
  9
$LIMMAX
 10
187.5
 20
135.0
  9
$ORTHOMODE
 70
     0
  9
$REGENMODE
 70
     1
  9
$FILLMODE
 70
     1
  9
$QTEXTMODE
 70
     0
  9
$MIRRTEXT
 70
     0
  9
$DRAGMODE
 70
     2
  9
$LTSCALE
 40
5.0
  9
$OSMODE
 70
    55
  9
$ATTMODE
 70
     1
  9
$TEXTSIZE
 40
4.0
  9
$TRACEWID
 40
0.05
  9
$TEXTSTYLE
  7
STANDARD
  9
$CLAYER
  8
0
  9
$CELTYPE
  6
BYLAYER
  9
$CECOLOR
 62
   256
  9
$DIMSCALE
 40
0.5
  9
$DIMASZ
 40
3.0
  9
$DIMEXO
 40
2.0
  9
$DIMDLI
 40
0.38
  9
$DIMRND
 40
0.0
  9
$DIMDLE
 40
0.0
  9
$DIMEXE
 40
2.0
  9
$DIMTP
 40
0.0
  9
$DIMTM
 40
0.0
  9
$DIMTXT
 40
3.0
  9
$DIMCEN
 40
0.0
  9
$DIMTSZ
 40
0.0
  9
$DIMTOL
 70
     0
  9
$DIMLIM
 70
     0
  9
$DIMTIH
 70
     0
  9
$DIMTOH
 70
     0
  9
$DIMSE1
 70
     0
  9
$DIMSE2
 70
     0
  9
$DIMTAD
 70
     1
  9
$DIMZIN
 70
     0
  9
$DIMBLK
  1

  9
$DIMASO
 70
     0
  9
$DIMSHO
 70
     0
  9
$DIMPOST
  1

  9
$DIMAPOST
  1

  9
$DIMALT
 70
     0
  9
$DIMALTD
 70
     2
  9
$DIMALTF
 40
25.399999999999999
  9
$DIMLFAC
 40
1.0
  9
$DIMTOFL
 70
     0
  9
$DIMTVP
 40
1.6000000000000001
  9
$DIMTIX
 70
     1
  9
$DIMSOXD
 70
     0
  9
$DIMSAH
 70
     0
  9
$DIMBLK1
  1

  9
$DIMBLK2
  1

  9
$DIMSTYLE
  2
STANDARD
  9
$DIMCLRD
 70
     0
  9
$DIMCLRE
 70
     0
  9
$DIMCLRT
 70
     0
  9
$DIMTFAC
 40
1.0
  9
$DIMGAP
 40
0.09
  9
$LUNITS
 70
     2
  9
$LUPREC
 70
     4
  9
$SKETCHINC
 40
0.1
  9
$FILLETRAD
 40
1.0
  9
$AUNITS
 70
     0
  9
$AUPREC
 70
     0
  9
$MENU
  1
E:\r13\win\SUPPORT\ACAD
  9
$ELEVATION
 40
0.0
  9
$PELEVATION
 40
0.0
  9
$THICKNESS
 40
0.0
  9
$LIMCHECK
 70
     0
  9
$BLIPMODE
 70
     0
  9
$CHAMFERA
 40
0.0
  9
$CHAMFERB
 40
0.0
  9
$SKPOLY
 70
     0
  9
$TDCREATE
 40
2449840.6143865739
  9
$TDUPDATE
 40
2456598.4905417711
  9
$TDINDWG
 40
0.2406558449
  9
$TDUSRTIMER
 40
0.2406558449
  9
$USRTIMER
 70
     1
  9
$ANGBASE
 50
0.0
  9
$ANGDIR
 70
     0
  9
$PDMODE
 70
     0
  9
$PDSIZE
 40
0.0
  9
$PLINEWID
 40
0.0
  9
$COORDS
 70
     1
  9
$SPLFRAME
 70
     0
  9
$SPLINETYPE
 70
     6
  9
$SPLINESEGS
 70
     8
  9
$ATTDIA
 70
     0
  9
$ATTREQ
 70
     1
  9
$HANDLING
 70
     1
  9
$HANDSEED
  5
166B
  9
$SURFTAB1
 70
     6
  9
$SURFTAB2
 70
     6
  9
$SURFTYPE
 70
     6
  9
$SURFU
 70
     6
  9
$SURFV
 70
     6
  9
$UCSNAME
  2

  9
$UCSORG
 10
0.0
 20
0.0
 30
0.0
  9
$UCSXDIR
 10
1.0
 20
0.0
 30
0.0
  9
$UCSYDIR
 10
0.0
 20
1.0
 30
0.0
  9
$PUCSNAME
  2

  9
$PUCSORG
 10
0.0
 20
0.0
 30
0.0
  9
$PUCSXDIR
 10
1.0
 20
0.0
 30
0.0
  9
$PUCSYDIR
 10
0.0
 20
1.0
 30
0.0
  9
$USERI1
 70
     0
  9
$USERI2
 70
     1
  9
$USERI3
 70
     1
  9
$USERI4
 70
     0
  9
$USERI5
 70
     0
  9
$USERR1
 40
0.0
  9
$USERR2
 40
0.0
  9
$USERR3
 40
0.0
  9
$USERR4
 40
0.0
  9
$USERR5
 40
0.0
  9
$WORLDVIEW
 70
     1
  9
$SHADEDGE
 70
     3
  9
$SHADEDIF
 70
    70
  9
$TILEMODE
 70
     1
  9
$MAXACTVP
 70
    16
  9
$PLIMCHECK
 70
     0
  9
$PEXTMIN
 10
1.0000000000000000E+020
 20
1.0000000000000000E+020
 30
1.0000000000000000E+020
  9
$PEXTMAX
 10
-1.0000000000000000E+020
 20
-1.0000000000000000E+020
 30
-1.0000000000000000E+020
  9
$PLIMMIN
 10
0.0
 20
0.0
  9
$PLIMMAX
 10
12.0
 20
9.0
  9
$UNITMODE
 70
     0
  9
$VISRETAIN
 70
     0
  9
$PLINEGEN
 70
     0
  9
$PSLTSCALE
 70
     0
  0
ENDSEC
  0
SECTION
  2
TABLES
  0
TABLE
  2
VPORT
 70
     1
  0
VPORT
  2
*ACTIVE
 70
     0
 10
0.0
 20
0.0
 11
1.0
 21
1.0
 12
135.63817043598061
 22
123.03833792031951
 13
0.0
 23
0.0
 14
5.0
 24
5.0
 15
5.0
 25
5.0
 16
0.0
 26
0.0
 36
1.0
 17
0.0
 27
0.0
 37
0.0
 40
251.2352632624056
 41
1.7807262569832401
 42
50.0
 43
0.0
 44
0.0
 50
0.0
 51
0.0
 71
     0
 72
   100
 73
     1
 74
     0
 75
     0
 76
     0
 77
     0
 78
     0
  0
ENDTAB
  0
TABLE
  2
LTYPE
 70
     4
  0
LTYPE
  2
CONTINUOUS
 70
     0
  3
Solid Line
 72
    65
 73
     0
 40
0.0
  0
LTYPE
  2
CENTER
 70
     0
  3
____ _ ____ _ ____ _ ____ _ ____ _ ____ _ ____
 72
    65
 73
     4
 40
2.0
 49
1.25
 49
-0.25
 49
0.25
 49
-0.25
  0
LTYPE
  2
HIDDEN
 70
     0
  3
_ _ _ _ _ _ _ _ _ _ _ _ _ _ _ _ _ _ _ _ _ _ _
 72
    65
 73
     2
 40
0.375
 49
0.25
 49
-0.125
  0
LTYPE
  2
PHANTOM2
 70
     0
  3
___ _ _ ___ _ _ ___ _ _ ___ _ _
 72
    65
 73
     6
 40
1.25
 49
0.625
 49
-0.125
 49
0.125
 49
-0.125
 49
0.125
 49
-0.125
  0
ENDTAB
  0
TABLE
  2
LAYER
 70
     4
  0
LAYER
  2
0
 70
     0
 62
     7
  6
CONTINUOUS
  0
LAYER
  2
1
 70
     0
 62
     1
  6
CENTER
  0
LAYER
  2
3
 70
     0
 62
     3
  6
CONTINUOUS
  0
LAYER
  2
2
 70
     0
 62
     2
  6
HIDDEN
  0
ENDTAB
  0
TABLE
  2
STYLE
 70
     2
  0
STYLE
  2
STANDARD
 70
     0
 40
0.0
 41
1.0
 50
0.0
 71
     0
 42
4.0
  3
TXT
  4
BIGFONT
  0
STYLE
  2
STANDARD1
 70
     0
 40
0.0
 41
1.0
 50
0.0
 71
     0
 42
3.0
  3
txt
  4

  0
ENDTAB
  0
TABLE
  2
VIEW
 70
     1
  0
VIEW
  2
ALL
 70
     0
 40
179.66152299999999
 10
141.903918
 20
89.830760999999995
 41
0.0
 11
0.0
 21
0.0
 31
1.0
 12
0.0
 22
0.0
 32
0.0
 42
0.0
 43
0.0
 44
0.0
 50
0.0
 71
     0
  0
ENDTAB
  0
TABLE
  2
UCS
 70
     0
  0
ENDTAB
  0
TABLE
  2
APPID
 70
     4
  0
APPID
  2
ACAD
 70
     0
  0
APPID
  2
DCO15
 70
     0
  0
APPID
  2
ACAD_MLEADERVER
 70
     0
  0
APPID
  2
ACAD_NAV_VCDISPLAY
 70
     0
  0
ENDTAB
  0
TABLE
  2
DIMSTYLE
 70
     1
  0
DIMSTYLE
  2
STANDARD
 70
     0
  3

  4

  5

  6

  7

 40
1.0
 41
0.18
 42
0.0625
 43
0.38
 44
0.18
 45
0.0
 46
0.0
 47
0.0
 48
0.0
140
0.18
141
0.09
142
0.0
143
25.399999999999999
144
1.0
145
0.0
146
1.0
147
0.09
 71
     0
 72
     0
 73
     1
 74
     1
 75
     0
 76
     0
 77
     0
 78
     0
170
     0
171
     2
172
     0
173
     0
174
     0
175
     0
176
     0
177
     0
178
     0
  0
ENDTAB
  0
ENDSEC
  0
SECTION
  2
BLOCKS
  0
BLOCK
  8
0
  2
$MODEL_SPACE
 70
     0
 10
0.0
 20
0.0
 30
0.0
  3
$MODEL_SPACE
  1

  0
ENDBLK
  5
1BD
  8
0
  0
BLOCK
 67
     1
  8
0
  2
$PAPER_SPACE
 70
     0
 10
0.0
 20
0.0
 30
0.0
  3
$PAPER_SPACE
  1

  0
ENDBLK
  5
1BB
 67
     1
  8
0
  0
ENDSEC
  0
SECTION
  2
ENTITIES
  0
LINE
  5
1491
  8
0
 10
155.27633960876
 20
86.518817090195625
 30
0.0
 11
168.35633960873199
 21
86.518817090195625
 31
0.0
  0
LINE
  5
1492
  8
3
 10
155.27633960875869
 20
87.438817090195727
 30
0.0
 11
169.276339608732
 21
87.438817090195698
 31
0.0
  0
LINE
  5
1493
  8
3
 10
155.2763396087349
 20
101.5988170901956
 30
0.0
 11
169.276339608732
 21
101.5988170901956
 31
0.0
  0
LINE
  5
1494
  8
0
 10
147.2763396087218
 20
102.5188170901956
 30
0.0
 11
134.1963396087319
 21
102.5188170901956
 31
0.0
  0
LINE
  5
1495
  8
0
 10
155.27633960870841
 20
160.088444691783
 30
0.0
 11
168.35633960873199
 21
160.088444691783
 31
0.0
  0
LINE
  5
1496
  8
3
 10
155.27633960870841
 20
161.0084446917831
 30
0.0
 11
169.276339608732
 21
161.0084446917831
 31
0.0
  0
LINE
  5
1497
  8
3
 10
155.27633960870841
 20
175.16844469178301
 30
0.0
 11
169.276339608732
 21
175.16844469178301
 31
0.0
  0
LINE
  5
1498
  8
0
 10
147.2763396087085
 20
176.08844469178311
 30
0.0
 11
134.1963396087319
 21
176.088444691783
 31
0.0
  0
ARC
  5
1499
  8
0
 10
164.89514176062579
 20
88.518817090162443
 30
0.0
 40
17.330127017333279
 50
159.74384199764509
 51
200.25615800235491
  0
LINE
  5
149A
  8
0
 10
147.56501474329249
 20
82.518817090147436
 30
0.0
 11
147.27633960868911
 21
83.018817090162457
 31
0.0
  0
LINE
  5
149B
  8
0
 10
154.9876644741625
 20
82.518817090147436
 30
0.0
 11
155.27633960876591
 21
83.018817090162457
 31
0.0
  0
ARC
  5
149C
  8
0
 10
137.6575374568292
 20
88.518817090162443
 30
0.0
 40
17.330127017333279
 50
339.74384199764512
 51
20.256158002354919
  0
LINE
  5
149D
  8
0
 10
147.56501474329249
 20
82.518817090147436
 30
0.0
 11
154.9876644741712
 21
82.518817090162443
 31
0.0
  0
LINE
  5
149E
  8
0
 10
153.91586770433329
 20
94.518817090162457
 30
0.0
 11
148.6368115131217
 21
94.518817090162457
 31
0.0
  0
LINE
  5
149F
  8
0
 10
147.56501474329249
 20
106.51881709017739
 30
0.0
 11
154.9876644741712
 21
106.5188170901624
 31
0.0
  0
ARC
  5
14A0
  8
0
 10
137.6575374568292
 20
100.5188170901624
 30
0.0
 40
17.330127017333279
 50
339.74384199764512
 51
20.256158002354919
  0
LINE
  5
14A1
  8
0
 10
154.9876644741625
 20
106.51881709017739
 30
0.0
 11
155.27633960876591
 21
106.0188170901624
 31
0.0
  0
LINE
  5
14A2
  8
0
 10
147.56501474329249
 20
106.51881709017739
 30
0.0
 11
147.27633960868911
 21
106.0188170901624
 31
0.0
  0
ARC
  5
14A3
  8
0
 10
164.89514176062579
 20
100.5188170901624
 30
0.0
 40
17.330127017333279
 50
159.74384199764509
 51
200.25615800235491
  0
LINE
  5
14A4
  8
0
 10
147.27633960872751
 20
106.01881709022879
 30
0.0
 11
147.27633960868911
 21
83.018817090162457
 31
0.0
  0
LINE
  5
14A5
  8
0
 10
155.27633960876591
 20
83.018817090162457
 30
0.0
 11
155.27633960872751
 21
106.01881709022879
 31
0.0
  0
CIRCLE
  5
14A6
  8
0
 10
68.776339608857143
 20
168.088444691783
 30
0.0
 40
11.5
  0
LINE
  5
14A7
  8
0
 10
68.776339608857143
 20
154.23203823123191
 30
0.0
 11
80.776339608857143
 21
161.16024146150761
 31
0.0
  0
LINE
  5
14A8
  8
0
 10
56.776339608857143
 20
161.16024146150761
 30
0.0
 11
68.776339608857143
 21
154.23203823123191
 31
0.0
  0
LINE
  5
14A9
  8
0
 10
56.776339608857143
 20
175.01664792205861
 30
0.0
 11
56.776339608857143
 21
161.16024146150761
 31
0.0
  0
LINE
  5
14AA
  8
0
 10
68.776339608857143
 20
181.94485115233419
 30
0.0
 11
56.776339608857143
 21
175.01664792205861
 31
0.0
  0
LINE
  5
14AB
  8
0
 10
80.776339608857143
 20
175.01664792205861
 30
0.0
 11
68.776339608857143
 21
181.94485115233419
 31
0.0
  0
LINE
  5
14AC
  8
0
 10
80.776339608857143
 20
161.16024146150761
 30
0.0
 11
80.776339608857143
 21
175.01664792205861
 31
0.0
  0
LINE
  5
14AD
  8
0
 10
155.27633960870841
 20
179.58844469167519
 30
0.0
 11
155.27633960870841
 21
156.5884446918908
 31
0.0
  0
LINE
  5
14AE
  8
0
 10
147.27633960870841
 20
156.588444691783
 30
0.0
 11
147.27633960870841
 21
179.58844469167519
 31
0.0
  0
ARC
  5
14AF
  8
0
 10
153.6989893389941
 20
178.48074953719649
 30
0.0
 40
6.1339745957208214
 50
154.38424746986109
 51
214.38424747120251
  0
LINE
  5
14B0
  8
0
 10
148.6368115131026
 20
181.94485115235599
 30
0.0
 11
147.27633960870841
 21
179.58844469167519
 31
0.0
  0
LINE
  5
14B1
  8
0
 10
153.91586770431419
 20
181.94485115235599
 30
0.0
 11
155.27633960870841
 21
179.58844469167519
 31
0.0
  0
ARC
  5
14B2
  8
0
 10
148.8536898784225
 20
178.48074953719649
 30
0.0
 40
6.1339745957208214
 50
325.61575252879749
 51
25.615752530138849
  0
LINE
  5
14B3
  8
0
 10
148.6368115131026
 20
181.94485115233419
 30
0.0
 11
153.9158677043267
 21
181.94485115233419
 31
0.0
  0
LINE
  5
14B4
  8
0
 10
148.6368115131026
 20
175.01664792205841
 30
0.0
 11
153.91586770431419
 21
175.01664792205841
 31
0.0
  0
LINE
  5
14B5
  8
0
 10
148.6368115131026
 20
161.16024146150761
 30
0.0
 11
153.91586770431419
 21
161.16024146150761
 31
0.0
  0
LINE
  5
14B6
  8
0
 10
148.6368115131026
 20
154.2320382312318
 30
0.0
 11
153.9158677043267
 21
154.2320382312318
 31
0.0
  0
ARC
  5
14B7
  8
0
 10
132.05946124600379
 20
168.088444691783
 30
0.0
 40
22.928203228139491
 50
342.41204622431383
 51
17.587953775686248
  0
ARC
  5
14B8
  8
0
 10
148.8536898784225
 20
157.6961398463695
 30
0.0
 40
6.1339745957208214
 50
334.38424746986112
 51
34.384247471202507
  0
LINE
  5
14B9
  8
0
 10
153.91586770431419
 20
154.23203823121
 30
0.0
 11
155.27633960870841
 21
156.5884446918908
 31
0.0
  0
LINE
  5
14BA
  8
0
 10
148.6368115131026
 20
154.23203823121
 30
0.0
 11
147.27633960870841
 21
156.5884446918908
 31
0.0
  0
ARC
  5
14BB
  8
0
 10
153.6989893389941
 20
157.6961398463695
 30
0.0
 40
6.1339745957208214
 50
145.61575252879749
 51
205.61575253013879
  0
ARC
  5
14BC
  8
0
 10
170.4932179714128
 20
168.088444691783
 30
0.0
 40
22.928203228139491
 50
162.41204622431371
 51
197.5879537756862
  0
LINE
  5
14BD
  8
0
 10
168.35633960873199
 20
160.088444691783
 30
0.0
 11
169.276339608732
 21
161.0084446917831
 31
0.0
  0
LINE
  5
14BE
  8
0
 10
133.27633960873189
 20
161.0084446917831
 30
0.0
 11
134.1963396087319
 21
160.088444691783
 31
0.0
  0
LINE
  5
14BF
  8
0
 10
134.1963396087319
 20
176.088444691783
 30
0.0
 11
133.27633960873189
 21
175.16844469178301
 31
0.0
  0
LINE
  5
14C0
  8
0
 10
134.1963396087319
 20
160.088444691783
 30
0.0
 11
147.2763396087085
 21
160.088444691783
 31
0.0
  0
LINE
  5
14C1
  8
0
 10
168.35633960873199
 20
176.088444691783
 30
0.0
 11
155.27633960870841
 21
176.088444691783
 31
0.0
  0
LINE
  5
14C2
  8
0
 10
169.276339608732
 20
175.16844469178301
 30
0.0
 11
168.35633960873199
 21
176.088444691783
 31
0.0
  0
ARC
  5
14C3
  8
2
 10
215.5763396087317
 20
168.08844469178291
 30
0.0
 40
25.99999999999984
 50
149.0584544146538
 51
210.9415455853462
  0
ARC
  5
14C4
  8
0
 10
191.27633960873189
 20
182.088444691783
 30
0.0
 40
2.5000000000000169
 50
36.869897645845327
 51
90.0
  0
ARC
  5
14C5
  8
0
 10
191.27633960873189
 20
154.088444691783
 30
0.0
 40
2.500000000000028
 50
270.0
 51
323.1301023541547
  0
LINE
  5
14C6
  8
0
 10
190.96565336007481
 20
151.588444691783
 30
0.0
 11
191.276339608732
 21
151.588444691783
 31
0.0
  0
LINE
  5
14C7
  8
0
 10
191.276339608732
 20
184.588444691783
 30
0.0
 11
190.96565336007481
 21
184.588444691783
 31
0.0
  0
LINE
  5
14C8
  8
0
 10
181.67633960873189
 20
158.588444691783
 30
0.0
 11
190.96565336007481
 21
151.588444691783
 31
0.0
  0
LINE
  5
14C9
  8
0
 10
190.96565336007481
 20
184.588444691783
 30
0.0
 11
181.67633960873189
 21
177.588444691783
 31
0.0
  0
LINE
  5
14CA
  8
0
 10
169.84202503368121
 20
158.588444691783
 30
0.0
 11
181.67633960873189
 21
158.588444691783
 31
0.0
  0
LINE
  5
14CB
  8
0
 10
181.67633960873189
 20
177.588444691783
 30
0.0
 11
169.84202503368121
 21
177.588444691783
 31
0.0
  0
LINE
  5
14CC
  8
0
 10
169.276339608732
 20
159.15413011673229
 30
0.0
 11
169.84202503368121
 21
158.588444691783
 31
0.0
  0
LINE
  5
14CD
  8
0
 10
169.84202503368121
 20
177.588444691783
 30
0.0
 11
169.276339608732
 21
177.0227592668337
 31
0.0
  0
LINE
  5
14CE
  8
0
 10
169.276339608732
 20
166.838444691783
 30
0.0
 11
169.276339608732
 21
161.0084446917831
 31
0.0
  0
LINE
  5
14CF
  8
0
 10
133.27633960873189
 20
175.16844469178301
 30
0.0
 11
133.27633960873189
 21
161.0084446917831
 31
0.0
  0
LINE
  5
14D0
  8
0
 10
134.1963396087319
 20
176.088444691783
 30
0.0
 11
134.1963396087319
 21
160.088444691783
 31
0.0
  0
LINE
  5
14D1
  8
0
 10
168.35633960873199
 20
166.838444691783
 30
0.0
 11
168.35633960873199
 21
160.088444691783
 31
0.0
  0
LINE
  5
14D2
  8
0
 10
168.35633960873199
 20
176.088444691783
 30
0.0
 11
168.35633960873199
 21
169.338444691783
 31
0.0
  0
LINE
  5
14D3
  8
0
 10
169.276339608732
 20
175.16844469178301
 30
0.0
 11
169.276339608732
 21
169.338444691783
 31
0.0
  0
POLYLINE
  5
14D4
  8
0
 66
     1
 10
0.0
 20
0.0
 30
0.0
  0
VERTEX
  5
1627
  8
0
 10
169.276339608732
 20
166.838444691783
 30
0.0
  0
VERTEX
  5
1628
  8
0
 10
169.13087060894861
 20
166.838444691783
 30
0.0
  0
VERTEX
  5
1629
  8
0
 10
168.83078338739799
 20
166.838444691783
 30
0.0
  0
VERTEX
  5
162A
  8
0
 10
168.51786409274459
 20
166.838444691783
 30
0.0
  0
VERTEX
  5
162B
  8
0
 10
168.35633960873199
 20
166.838444691783
 30
0.0
  0
SEQEND
  5
162C
  8
0
  0
LINE
  5
14D5
  8
0
 10
168.35633960873199
 20
166.838444691783
 30
0.0
 11
164.77633960873189
 21
166.838444691783
 31
0.0
  0
LINE
  5
14D6
  8
0
 10
164.77633960873189
 20
166.838444691783
 30
0.0
 11
164.77633960873189
 21
169.338444691783
 31
0.0
  0
POLYLINE
  5
14D7
  8
0
 66
     1
 10
0.0
 20
0.0
 30
0.0
  0
VERTEX
  5
162D
  8
0
 10
168.35633960873199
 20
169.338444691783
 30
0.0
  0
VERTEX
  5
162E
  8
0
 10
168.51786409274459
 20
169.338444691783
 30
0.0
  0
VERTEX
  5
162F
  8
0
 10
168.83078338739799
 20
169.338444691783
 30
0.0
  0
VERTEX
  5
1630
  8
0
 10
169.13087060894861
 20
169.338444691783
 30
0.0
  0
VERTEX
  5
1631
  8
0
 10
169.276339608732
 20
169.338444691783
 30
0.0
  0
SEQEND
  5
1632
  8
0
  0
LINE
  5
14D8
  8
0
 10
164.77633960873189
 20
169.338444691783
 30
0.0
 11
168.35633960873199
 21
169.338444691783
 31
0.0
  0
LINE
  5
14D9
  8
0
 10
193.276339608732
 20
183.588444691783
 30
0.0
 11
193.276339608732
 21
152.588444691783
 31
0.0
  0
LINE
  5
14DA
  8
0
 10
191.276339608732
 20
184.588444691783
 30
0.0
 11
191.276339608732
 21
151.588444691783
 31
0.0
  0
LINE
  5
14DB
  8
0
 10
190.96565336007481
 20
184.588444691783
 30
0.0
 11
190.96565336007481
 21
151.588444691783
 31
0.0
  0
LINE
  5
14DC
  8
0
 10
181.67633960873189
 20
177.588444691783
 30
0.0
 11
181.67633960873189
 21
158.588444691783
 31
0.0
  0
LINE
  5
14DD
  8
0
 10
169.84202503368121
 20
177.588444691783
 30
0.0
 11
169.84202503368121
 21
158.588444691783
 31
0.0
  0
LINE
  5
14DE
  8
0
 10
169.276339608732
 20
177.0227592668337
 30
0.0
 11
169.276339608732
 21
159.15413011673229
 31
0.0
  0
LINE
  5
14DF
  8
0
 10
168.35633960873199
 20
169.338444691783
 30
0.0
 11
169.276339608732
 21
169.338444691783
 31
0.0
  0
LINE
  5
14E0
  8
0
 10
169.276339608732
 20
166.838444691783
 30
0.0
 11
168.35633960873199
 21
166.838444691783
 31
0.0
  0
LINE
  5
14E1
  8
3
 10
133.27633960873189
 20
161.0084446917831
 30
0.0
 11
147.27633960870841
 21
161.0084446917831
 31
0.0
  0
LINE
  5
14E2
  8
3
 10
133.27633960873189
 20
175.16844469178301
 30
0.0
 11
147.27633960870841
 21
175.16844469178301
 31
0.0
  0
LINE
  5
14E3
  8
1
 10
198.276339608732
 20
168.08844469178291
 30
0.0
 11
120.276339608857
 21
168.088444691783
 31
0.0
  0
CIRCLE
  5
14E4
  8
0
 10
68.776339608857015
 20
168.088444691783
 30
0.0
 40
16.499999999999989
  0
CIRCLE
  5
14E5
  8
0
 10
68.776339608857015
 20
168.088444691783
 30
0.0
 40
3.999999999999992
  0
LINE
  5
14E6
  8
1
 10
68.776339608857143
 20
189.588444691783
 30
0.0
 11
68.776339608857143
 21
146.588444691783
 31
0.0
  0
LINE
  5
14E7
  8
1
 10
47.276339608857029
 20
168.088444691783
 30
0.0
 11
90.276339608857029
 21
168.088444691783
 31
0.0
  0
CIRCLE
  5
14E8
  8
3
 10
68.776339608857015
 20
168.088444691783
 30
0.0
 40
7.0799999999999956
  0
LINE
  5
14E9
  8
0
 10
125.8649862032957
 20
171.1003943424036
 30
0.0
 11
125.8649862032955
 21
165.0764950411625
 31
0.0
  0
ARC
  5
14EA
  8
0
 10
133.276339608857
 20
168.088444691783
 30
0.0
 40
8.0
 50
157.88333686751491
 51
202.11666313248401
  0
LINE
  5
14EB
  8
0
 10
127.576339608857
 20
172.08844469178311
 30
0.0
 11
125.864986203296
 21
171.10039434240389
 31
0.0
  0
LINE
  5
14EC
  8
0
 10
127.5763396088571
 20
172.088444691783
 30
0.0
 11
127.576339608857
 21
164.08844469178311
 31
0.0
  0
LINE
  5
14ED
  8
0
 10
127.5763396088571
 20
172.08844469178311
 30
0.0
 11
133.27633960873189
 21
172.08844469178311
 31
0.0
  0
LINE
  5
14EE
  8
0
 10
127.576339608857
 20
164.088444691783
 30
0.0
 11
125.8649862032955
 21
165.0764950411625
 31
0.0
  0
LINE
  5
14EF
  8
0
 10
127.5763396088571
 20
164.08844469178311
 30
0.0
 11
133.27633960873189
 21
164.08844469178311
 31
0.0
  0
CIRCLE
  5
14F0
  8
0
 10
68.776339608857015
 20
168.088444691783
 30
0.0
 40
3.0119496506206209
  0
CIRCLE
  5
14F1
  8
0
 10
68.776339608857143
 20
168.088444691783
 30
0.0
 40
8.0000000000000142
  0
LINE
  5
14F2
  8
1
 10
228.276339608732
 20
168.08844469178291
 30
0.0
 11
271.27633960873197
 21
168.08844469178291
 31
0.0
  0
LINE
  5
14F3
  8
1
 10
249.77633960873209
 20
189.58844469178291
 30
0.0
 11
249.77633960873209
 21
146.58844469178291
 31
0.0
  0
CIRCLE
  5
14F4
  8
0
 10
249.776339608732
 20
168.08844469178291
 30
0.0
 40
16.499999999999989
  0
CIRCLE
  5
14F5
  8
0
 10
249.776339608732
 20
168.08844469178291
 30
0.0
 40
15.5
  0
CIRCLE
  5
14F6
  8
0
 10
249.776339608732
 20
168.08844469178291
 30
0.0
 40
13.368245958239999
  0
LINE
  5
14F7
  8
0
 10
127.5763396088571
 20
90.518817090195725
 30
0.0
 11
133.27633960873189
 21
90.518817090195725
 31
0.0
  0
LINE
  5
14F8
  8
0
 10
127.576339608857
 20
90.518817090195625
 30
0.0
 11
125.8649862032955
 21
91.506867439575103
 31
0.0
  0
LINE
  5
14F9
  8
0
 10
127.5763396088571
 20
98.518817090195682
 30
0.0
 11
133.27633960873189
 21
98.518817090195739
 31
0.0
  0
LINE
  5
14FA
  8
0
 10
127.5763396088571
 20
98.518817090195625
 30
0.0
 11
127.576339608857
 21
90.518817090195725
 31
0.0
  0
LINE
  5
14FB
  8
0
 10
127.576339608857
 20
98.518817090195682
 30
0.0
 11
125.864986203296
 21
97.530766740816489
 31
0.0
  0
ARC
  5
14FC
  8
0
 10
133.276339608857
 20
94.518817090195625
 30
0.0
 40
8.0
 50
157.88333686751491
 51
202.11666313248401
  0
LINE
  5
14FD
  8
0
 10
125.8649862032957
 20
97.530766740816262
 30
0.0
 11
125.8649862032955
 21
91.506867439575103
 31
0.0
  0
LINE
  5
14FE
  8
1
 10
198.276339608732
 20
94.518817090195569
 30
0.0
 11
120.276339608857
 21
94.518817090195625
 31
0.0
  0
LINE
  5
14FF
  8
3
 10
133.27633960873189
 20
101.5988170901956
 30
0.0
 11
147.27633960872021
 21
101.5988170901956
 31
0.0
  0
LINE
  5
1500
  8
3
 10
133.27633960873189
 20
87.438817090195698
 30
0.0
 11
147.27633960869659
 21
87.438817090195727
 31
0.0
  0
LINE
  5
1501
  8
0
 10
169.276339608732
 20
103.4531316652463
 30
0.0
 11
169.276339608732
 21
85.584502515144891
 31
0.0
  0
LINE
  5
1502
  8
0
 10
169.84202503368121
 20
104.0188170901956
 30
0.0
 11
169.84202503368121
 21
85.018817090195625
 31
0.0
  0
LINE
  5
1503
  8
0
 10
181.67633960873189
 20
104.0188170901956
 30
0.0
 11
181.67633960873189
 21
85.018817090195625
 31
0.0
  0
LINE
  5
1504
  8
0
 10
190.96565336007481
 20
111.0188170901956
 30
0.0
 11
190.96565336007481
 21
78.018817090195625
 31
0.0
  0
LINE
  5
1505
  8
0
 10
191.276339608732
 20
111.0188170901956
 30
0.0
 11
191.276339608732
 21
78.018817090195625
 31
0.0
  0
LINE
  5
1506
  8
0
 10
193.276339608732
 20
110.0188170901956
 30
0.0
 11
193.276339608732
 21
79.018817090195625
 31
0.0
  0
LINE
  5
1507
  8
0
 10
169.276339608732
 20
101.5988170901956
 30
0.0
 11
169.276339608732
 21
95.768817090195625
 31
0.0
  0
LINE
  5
1508
  8
0
 10
168.35633960873199
 20
102.5188170901957
 30
0.0
 11
168.35633960873199
 21
86.518817090195625
 31
0.0
  0
LINE
  5
1509
  8
0
 10
134.1963396087319
 20
102.5188170901956
 30
0.0
 11
134.1963396087319
 21
86.518817090195625
 31
0.0
  0
LINE
  5
150A
  8
0
 10
133.27633960873189
 20
101.5988170901956
 30
0.0
 11
133.27633960873189
 21
87.438817090195698
 31
0.0
  0
LINE
  5
150B
  8
0
 10
169.276339608732
 20
93.268817090195625
 30
0.0
 11
169.276339608732
 21
87.438817090195698
 31
0.0
  0
LINE
  5
150C
  8
0
 10
169.84202503368121
 20
104.0188170901956
 30
0.0
 11
169.276339608732
 21
103.4531316652463
 31
0.0
  0
LINE
  5
150D
  8
0
 10
169.276339608732
 20
85.584502515144891
 30
0.0
 11
169.84202503368121
 21
85.018817090195625
 31
0.0
  0
LINE
  5
150E
  8
0
 10
181.67633960873189
 20
104.0188170901956
 30
0.0
 11
169.84202503368121
 21
104.0188170901956
 31
0.0
  0
LINE
  5
150F
  8
0
 10
169.84202503368121
 20
85.018817090195625
 30
0.0
 11
181.67633960873189
 21
85.018817090195625
 31
0.0
  0
LINE
  5
1510
  8
0
 10
190.96565336007481
 20
111.0188170901956
 30
0.0
 11
181.67633960873189
 21
104.0188170901956
 31
0.0
  0
LINE
  5
1511
  8
0
 10
181.67633960873189
 20
85.018817090195625
 30
0.0
 11
190.96565336007481
 21
78.018817090195625
 31
0.0
  0
LINE
  5
1512
  8
0
 10
191.276339608732
 20
111.0188170901956
 30
0.0
 11
190.96565336007481
 21
111.0188170901956
 31
0.0
  0
LINE
  5
1513
  8
0
 10
190.96565336007481
 20
78.018817090195625
 30
0.0
 11
191.276339608732
 21
78.018817090195625
 31
0.0
  0
ARC
  5
1514
  8
0
 10
191.27633960873189
 20
80.518817090195625
 30
0.0
 40
2.500000000000028
 50
270.0
 51
323.1301023541547
  0
ARC
  5
1515
  8
0
 10
191.27633960873189
 20
108.5188170901956
 30
0.0
 40
2.5000000000000169
 50
36.869897645845327
 51
90.0
  0
ARC
  5
1516
  8
2
 10
215.5763396087317
 20
94.518817090195498
 30
0.0
 40
25.99999999999984
 50
149.0584544146538
 51
210.9415455853462
  0
LINE
  5
1517
  8
0
 10
169.276339608732
 20
101.5988170901956
 30
0.0
 11
168.35633960873199
 21
102.5188170901956
 31
0.0
  0
LINE
  5
1518
  8
0
 10
168.35633960873199
 20
102.5188170901956
 30
0.0
 11
155.27633960873331
 21
102.5188170901956
 31
0.0
  0
LINE
  5
1519
  8
0
 10
134.1963396087319
 20
86.518817090195625
 30
0.0
 11
147.276339608695
 21
86.518817090195625
 31
0.0
  0
LINE
  5
151A
  8
0
 10
134.1963396087319
 20
102.5188170901956
 30
0.0
 11
133.27633960873189
 21
101.5988170901956
 31
0.0
  0
LINE
  5
151B
  8
0
 10
133.27633960873189
 20
87.438817090195698
 30
0.0
 11
134.1963396087319
 21
86.518817090195625
 31
0.0
  0
LINE
  5
151C
  8
0
 10
168.35633960873199
 20
86.518817090195625
 30
0.0
 11
169.276339608732
 21
87.438817090195698
 31
0.0
  0
TEXT
  5
15C6
  8
0
 62
     3
 10
0.0
 20
0.0
 30
0.0
 40
5.0
  1
SDXN16W
  7
STANDARD1
  0
ENDSEC
  0
EOF
