  0
SECTION
  2
HEADER
  9
$ACADVER
  1
AC1009
  9
$INSBASE
 10
0.0
 20
0.0
 30
0.0
  9
$EXTMIN
 10
0.0
 20
-1.4802182810368341
 30
0.0
  9
$EXTMAX
 10
126.880565226934
 20
97.789733752822045
 30
0.0
  9
$LIMMIN
 10
0.0
 20
0.0
  9
$LIMMAX
 10
385.0
 20
270.0
  9
$ORTHOMODE
 70
     1
  9
$REGENMODE
 70
     1
  9
$FILLMODE
 70
     1
  9
$QTEXTMODE
 70
     0
  9
$MIRRTEXT
 70
     0
  9
$DRAGMODE
 70
     2
  9
$LTSCALE
 40
10.0
  9
$OSMODE
 70
    55
  9
$ATTMODE
 70
     1
  9
$TEXTSIZE
 40
4.000000000000048
  9
$TRACEWID
 40
0.05
  9
$TEXTSTYLE
  7
STANDARD
  9
$CLAYER
  8
0
  9
$CELTYPE
  6
BYLAYER
  9
$CECOLOR
 62
   256
  9
$DIMSCALE
 40
1.0
  9
$DIMASZ
 40
3.0
  9
$DIMEXO
 40
2.0
  9
$DIMDLI
 40
0.38
  9
$DIMRND
 40
0.0
  9
$DIMDLE
 40
0.0
  9
$DIMEXE
 40
2.0
  9
$DIMTP
 40
0.0
  9
$DIMTM
 40
0.0
  9
$DIMTXT
 40
3.0
  9
$DIMCEN
 40
0.0
  9
$DIMTSZ
 40
0.0
  9
$DIMTOL
 70
     0
  9
$DIMLIM
 70
     0
  9
$DIMTIH
 70
     0
  9
$DIMTOH
 70
     0
  9
$DIMSE1
 70
     0
  9
$DIMSE2
 70
     0
  9
$DIMTAD
 70
     1
  9
$DIMZIN
 70
     0
  9
$DIMBLK
  1

  9
$DIMASO
 70
     1
  9
$DIMSHO
 70
     0
  9
$DIMPOST
  1

  9
$DIMAPOST
  1

  9
$DIMALT
 70
     0
  9
$DIMALTD
 70
     2
  9
$DIMALTF
 40
25.399999999999999
  9
$DIMLFAC
 40
1.0
  9
$DIMTOFL
 70
     1
  9
$DIMTVP
 40
1.6000000000000001
  9
$DIMTIX
 70
     1
  9
$DIMSOXD
 70
     0
  9
$DIMSAH
 70
     0
  9
$DIMBLK1
  1

  9
$DIMBLK2
  1

  9
$DIMSTYLE
  2
STANDARD
  9
$DIMCLRD
 70
     0
  9
$DIMCLRE
 70
     0
  9
$DIMCLRT
 70
     0
  9
$DIMTFAC
 40
1.0
  9
$DIMGAP
 40
1.0
  9
$LUNITS
 70
     2
  9
$LUPREC
 70
     4
  9
$SKETCHINC
 40
0.1
  9
$FILLETRAD
 40
0.0
  9
$AUNITS
 70
     0
  9
$AUPREC
 70
     4
  9
$MENU
  1
E:\r13\win\SUPPORT\ACAD
  9
$ELEVATION
 40
0.0
  9
$PELEVATION
 40
0.0
  9
$THICKNESS
 40
0.0
  9
$LIMCHECK
 70
     0
  9
$BLIPMODE
 70
     0
  9
$CHAMFERA
 40
0.0
  9
$CHAMFERB
 40
0.0
  9
$SKPOLY
 70
     0
  9
$TDCREATE
 40
2450280.598206134
  9
$TDUPDATE
 40
2456598.489976991
  9
$TDINDWG
 40
0.1483089005
  9
$TDUSRTIMER
 40
0.1483089005
  9
$USRTIMER
 70
     1
  9
$ANGBASE
 50
0.0
  9
$ANGDIR
 70
     0
  9
$PDMODE
 70
     0
  9
$PDSIZE
 40
0.0
  9
$PLINEWID
 40
0.0
  9
$COORDS
 70
     1
  9
$SPLFRAME
 70
     0
  9
$SPLINETYPE
 70
     6
  9
$SPLINESEGS
 70
     8
  9
$ATTDIA
 70
     0
  9
$ATTREQ
 70
     1
  9
$HANDLING
 70
     1
  9
$HANDSEED
  5
3405
  9
$SURFTAB1
 70
     6
  9
$SURFTAB2
 70
     6
  9
$SURFTYPE
 70
     6
  9
$SURFU
 70
     6
  9
$SURFV
 70
     6
  9
$UCSNAME
  2

  9
$UCSORG
 10
0.0
 20
0.0
 30
0.0
  9
$UCSXDIR
 10
1.0
 20
0.0
 30
0.0
  9
$UCSYDIR
 10
0.0
 20
1.0
 30
0.0
  9
$PUCSNAME
  2

  9
$PUCSORG
 10
0.0
 20
0.0
 30
0.0
  9
$PUCSXDIR
 10
1.0
 20
0.0
 30
0.0
  9
$PUCSYDIR
 10
0.0
 20
1.0
 30
0.0
  9
$USERI1
 70
     3
  9
$USERI2
 70
     1
  9
$USERI3
 70
     1
  9
$USERI4
 70
     0
  9
$USERI5
 70
     0
  9
$USERR1
 40
1.0
  9
$USERR2
 40
3.0
  9
$USERR3
 40
3.0
  9
$USERR4
 40
3.0
  9
$USERR5
 40
10.0
  9
$WORLDVIEW
 70
     1
  9
$SHADEDGE
 70
     3
  9
$SHADEDIF
 70
    70
  9
$TILEMODE
 70
     1
  9
$MAXACTVP
 70
    16
  9
$PLIMCHECK
 70
     0
  9
$PEXTMIN
 10
1.0000000000000000E+020
 20
1.0000000000000000E+020
 30
1.0000000000000000E+020
  9
$PEXTMAX
 10
-1.0000000000000000E+020
 20
-1.0000000000000000E+020
 30
-1.0000000000000000E+020
  9
$PLIMMIN
 10
0.0
 20
0.0
  9
$PLIMMAX
 10
12.0
 20
9.0
  9
$UNITMODE
 70
     0
  9
$VISRETAIN
 70
     0
  9
$PLINEGEN
 70
     0
  9
$PSLTSCALE
 70
     0
  0
ENDSEC
  0
SECTION
  2
TABLES
  0
TABLE
  2
VPORT
 70
     1
  0
VPORT
  2
*ACTIVE
 70
     0
 10
0.0
 20
0.0
 11
1.0
 21
1.0
 12
192.49412581440311
 22
175.433388831352
 13
0.0
 23
0.0
 14
5.0
 24
5.0
 15
10.0
 25
10.0
 16
0.0
 26
0.0
 36
1.0
 17
0.0
 27
0.0
 37
0.0
 40
356.9701552237488
 41
1.7807262569832401
 42
50.0
 43
0.0
 44
0.0
 50
0.0
 51
0.0
 71
     0
 72
   500
 73
     1
 74
     0
 75
     0
 76
     0
 77
     0
 78
     2
  0
ENDTAB
  0
TABLE
  2
LTYPE
 70
     3
  0
LTYPE
  2
CONTINUOUS
 70
     0
  3
Solid Line
 72
    65
 73
     0
 40
0.0
  0
LTYPE
  2
CENTER
 70
     0
  3
____ _ ____ _ ____ _ ____ _ ____ _ ____ _ ____
 72
    65
 73
     4
 40
2.0
 49
1.25
 49
-0.25
 49
0.25
 49
-0.25
  0
LTYPE
  2
PHANTOM2
 70
     0
  3
___ _ _ ___ _ _ ___ _ _ ___ _ _
 72
    65
 73
     6
 40
1.25
 49
0.625
 49
-0.125
 49
0.125
 49
-0.125
 49
0.125
 49
-0.125
  0
ENDTAB
  0
TABLE
  2
LAYER
 70
     4
  0
LAYER
  2
0
 70
     0
 62
     7
  6
CONTINUOUS
  0
LAYER
  2
1
 70
     0
 62
     1
  6
CENTER
  0
LAYER
  2
3
 70
     0
 62
     3
  6
CONTINUOUS
  0
LAYER
  2
DEFPOINTS
 70
     0
 62
     7
  6
CONTINUOUS
  0
ENDTAB
  0
TABLE
  2
STYLE
 70
     2
  0
STYLE
  2
STANDARD
 70
     0
 40
0.0
 41
1.0
 50
0.0
 71
     0
 42
4.000000000000048
  3
SIMPLEX
  4
BIGFONT
  0
STYLE
  2
STANDARD1
 70
     0
 40
0.0
 41
1.0
 50
0.0
 71
     0
 42
3.0
  3
txt
  4

  0
ENDTAB
  0
TABLE
  2
VIEW
 70
     0
  0
ENDTAB
  0
TABLE
  2
UCS
 70
     0
  0
ENDTAB
  0
TABLE
  2
APPID
 70
     3
  0
APPID
  2
ACAD
 70
     0
  0
APPID
  2
ACAD_MLEADERVER
 70
     0
  0
APPID
  2
ACAD_NAV_VCDISPLAY
 70
     0
  0
ENDTAB
  0
TABLE
  2
DIMSTYLE
 70
     1
  0
DIMSTYLE
  2
STANDARD
 70
     0
  3

  4

  5

  6

  7

 40
1.0
 41
0.18
 42
0.0625
 43
0.38
 44
0.18
 45
0.0
 46
0.0
 47
0.0
 48
0.0
140
0.18
141
0.09
142
0.0
143
25.399999999999999
144
1.0
145
0.0
146
1.0
147
0.09
 71
     0
 72
     0
 73
     1
 74
     1
 75
     0
 76
     0
 77
     0
 78
     0
170
     0
171
     2
172
     0
173
     0
174
     0
175
     0
176
     0
177
     0
178
     0
  0
ENDTAB
  0
ENDSEC
  0
SECTION
  2
BLOCKS
  0
BLOCK
  8
0
  2
$MODEL_SPACE
 70
     0
 10
0.0
 20
0.0
 30
0.0
  3
$MODEL_SPACE
  1

  0
ENDBLK
  5
2CA7
  8
0
  0
BLOCK
 67
     1
  8
0
  2
$PAPER_SPACE
 70
     0
 10
0.0
 20
0.0
 30
0.0
  3
$PAPER_SPACE
  1

  0
ENDBLK
  5
2CA5
 67
     1
  8
0
  0
ENDSEC
  0
SECTION
  2
ENTITIES
  0
CIRCLE
  5
2D23
  8
0
 10
17.1197909666713
 20
54.302382964702161
 30
0.0
 40
6.5
  0
CIRCLE
  5
2D24
  8
0
 10
17.1197909666713
 20
54.302382964702161
 30
0.0
 40
3.999999999999968
  0
LINE
  5
2D25
  8
1
 10
7.6197909666713306
 20
54.302382964702161
 30
0.0
 11
26.619790966671331
 21
54.302382964702161
 31
0.0
  0
LINE
  5
2D26
  8
1
 10
17.119790966671289
 20
64.807936464167284
 30
0.0
 11
17.11979096667131
 21
43.796829465237032
 31
0.0
  0
CIRCLE
  5
2D41
  8
0
 10
17.1197909666713
 20
54.302382964702161
 30
0.0
 40
1.620707976076573
  0
LINE
  5
2DA9
  8
1
 10
84.953332140224688
 20
91.289733752822031
 30
0.0
 11
46.359058907212237
 21
91.289733752822031
 31
0.0
  0
LINE
  5
2DAB
  8
3
 10
81.953332140224674
 20
92.483233752822002
 30
0.0
 11
75.553332140224711
 21
92.483233752822002
 31
0.0
  0
LINE
  5
2DAE
  8
3
 10
81.953332140224674
 20
90.096233752822059
 30
0.0
 11
75.553332140224711
 21
90.096233752822073
 31
0.0
  0
LINE
  5
2DAF
  8
3
 10
74.953332140224674
 20
94.676233752822043
 30
0.0
 11
70.751386743199333
 21
94.676233752822043
 31
0.0
  0
LINE
  5
2DB0
  8
3
 10
74.953332140224674
 20
87.903233752822018
 30
0.0
 11
70.753332140224686
 21
87.903233752822018
 31
0.0
  0
LINE
  5
2DB6
  8
0
 10
81.646832140224717
 20
92.789733752822045
 30
0.0
 11
81.646832140224717
 21
89.789733752822031
 31
0.0
  0
LINE
  5
2DB8
  8
0
 10
66.7533321402247
 20
84.789733752822045
 30
0.0
 11
70.753332140224686
 21
84.789733752822031
 31
0.0
  0
POLYLINE
  5
2DBA
  8
0
 66
     1
 10
0.0
 20
0.0
 30
0.0
  0
VERTEX
  5
3325
  8
0
 10
70.483894892096728
 20
91.289733752822045
 30
0.0
  0
VERTEX
  5
3326
  8
0
 10
70.568172825053409
 20
91.875973380468196
 30
0.0
  0
VERTEX
  5
3327
  8
0
 10
70.687224988892382
 20
92.974126850276903
 30
0.0
  0
VERTEX
  5
3328
  8
0
 10
70.745925421931148
 20
94.020036727538425
 30
0.0
  0
VERTEX
  5
3329
  8
0
 10
70.753332140224686
 20
94.539733752822045
 30
0.0
  0
SEQEND
  5
332A
  8
0
  0
POLYLINE
  5
2DBB
  8
0
 66
     1
 10
0.0
 20
0.0
 30
0.0
  0
VERTEX
  5
332B
  8
0
 10
66.7533321402247
 20
94.539733752822045
 30
0.0
  0
VERTEX
  5
332C
  8
0
 10
66.760738858518238
 20
94.020036727538425
 30
0.0
  0
VERTEX
  5
332D
  8
0
 10
66.819439291557018
 20
92.974126850276903
 30
0.0
  0
VERTEX
  5
332E
  8
0
 10
66.93849145539599
 20
91.875973380468196
 30
0.0
  0
VERTEX
  5
332F
  8
0
 10
67.022769388352657
 20
91.289733752822045
 30
0.0
  0
SEQEND
  5
3330
  8
0
  0
POLYLINE
  5
2DBC
  8
0
 66
     1
 10
0.0
 20
0.0
 30
0.0
  0
VERTEX
  5
3331
  8
0
 10
67.022769388352657
 20
97.789733752822045
 30
0.0
  0
VERTEX
  5
3332
  8
0
 10
66.938491455395976
 20
97.203494125175922
 30
0.0
  0
VERTEX
  5
3333
  8
0
 10
66.819439291557003
 20
96.105340655367186
 30
0.0
  0
VERTEX
  5
3334
  8
0
 10
66.760738858518252
 20
95.059430778105664
 30
0.0
  0
VERTEX
  5
3335
  8
0
 10
66.7533321402247
 20
94.539733752822045
 30
0.0
  0
SEQEND
  5
3336
  8
0
  0
POLYLINE
  5
2DBD
  8
0
 66
     1
 10
0.0
 20
0.0
 30
0.0
  0
VERTEX
  5
3337
  8
0
 10
70.753332140224686
 20
94.539733752822045
 30
0.0
  0
VERTEX
  5
3338
  8
0
 10
70.745925421931148
 20
95.059430778105664
 30
0.0
  0
VERTEX
  5
3339
  8
0
 10
70.687224988892382
 20
96.105340655367186
 30
0.0
  0
VERTEX
  5
333A
  8
0
 10
70.568172825053409
 20
97.203494125175922
 30
0.0
  0
VERTEX
  5
333B
  8
0
 10
70.483894892096728
 20
97.789733752822045
 30
0.0
  0
SEQEND
  5
333C
  8
0
  0
POLYLINE
  5
2DBE
  8
0
 66
     1
 10
0.0
 20
0.0
 30
0.0
  0
VERTEX
  5
333D
  8
0
 10
70.483894892096728
 20
84.789733752822045
 30
0.0
  0
VERTEX
  5
333E
  8
0
 10
70.568172825053409
 20
85.375973380468182
 30
0.0
  0
VERTEX
  5
333F
  8
0
 10
70.687224988892382
 20
86.474126850276903
 30
0.0
  0
VERTEX
  5
3340
  8
0
 10
70.745925421931148
 20
87.520036727538425
 30
0.0
  0
VERTEX
  5
3341
  8
0
 10
70.753332140224686
 20
88.039733752822045
 30
0.0
  0
SEQEND
  5
3342
  8
0
  0
POLYLINE
  5
2DBF
  8
0
 66
     1
 10
0.0
 20
0.0
 30
0.0
  0
VERTEX
  5
3343
  8
0
 10
66.7533321402247
 20
88.039733752822045
 30
0.0
  0
VERTEX
  5
3344
  8
0
 10
66.760738858518252
 20
87.520036727538425
 30
0.0
  0
VERTEX
  5
3345
  8
0
 10
66.819439291557003
 20
86.474126850276903
 30
0.0
  0
VERTEX
  5
3346
  8
0
 10
66.938491455395976
 20
85.375973380468182
 30
0.0
  0
VERTEX
  5
3347
  8
0
 10
67.022769388352657
 20
84.789733752822045
 30
0.0
  0
SEQEND
  5
3348
  8
0
  0
POLYLINE
  5
2DC0
  8
0
 66
     1
 10
0.0
 20
0.0
 30
0.0
  0
VERTEX
  5
3349
  8
0
 10
67.022769388352657
 20
91.289733752822045
 30
0.0
  0
VERTEX
  5
334A
  8
0
 10
66.938491455395976
 20
90.703494125175908
 30
0.0
  0
VERTEX
  5
334B
  8
0
 10
66.819439291557003
 20
89.605340655367186
 30
0.0
  0
VERTEX
  5
334C
  8
0
 10
66.760738858518252
 20
88.559430778105664
 30
0.0
  0
VERTEX
  5
334D
  8
0
 10
66.7533321402247
 20
88.039733752822045
 30
0.0
  0
SEQEND
  5
334E
  8
0
  0
POLYLINE
  5
2DC1
  8
0
 66
     1
 10
0.0
 20
0.0
 30
0.0
  0
VERTEX
  5
334F
  8
0
 10
70.753332140224686
 20
88.039733752822045
 30
0.0
  0
VERTEX
  5
3350
  8
0
 10
70.745925421931148
 20
88.559430778105664
 30
0.0
  0
VERTEX
  5
3351
  8
0
 10
70.687224988892382
 20
89.605340655367186
 30
0.0
  0
VERTEX
  5
3352
  8
0
 10
70.568172825053409
 20
90.703494125175908
 30
0.0
  0
VERTEX
  5
3353
  8
0
 10
70.483894892096728
 20
91.289733752822045
 30
0.0
  0
SEQEND
  5
3354
  8
0
  0
LINE
  5
2DC4
  8
0
 10
66.7533321402247
 20
97.789733752822045
 30
0.0
 11
70.753332140224686
 21
97.789733752822045
 31
0.0
  0
LINE
  5
2DC9
  8
0
 10
67.022769388352671
 20
91.289733752822031
 30
0.0
 11
70.483894892096714
 21
91.289733752822031
 31
0.0
  0
LINE
  5
2DCE
  8
0
 10
70.7533321402247
 20
97.789733752822045
 30
0.0
 11
70.7533321402247
 21
84.789733752822045
 31
0.0
  0
LINE
  5
2DCF
  8
0
 10
66.753332140224686
 20
97.789733752822045
 30
0.0
 11
66.753332140224686
 21
84.789733752822045
 31
0.0
  0
LINE
  5
2DDD
  8
0
 10
81.953332140224674
 20
92.483233752822002
 30
0.0
 11
81.953332140224674
 21
90.096233752822059
 31
0.0
  0
LINE
  5
2DE5
  8
0
 10
54.566832140224683
 20
95.289733752822045
 30
0.0
 11
54.566832140224683
 21
87.289733752822031
 31
0.0
  0
LINE
  5
2DE6
  8
0
 10
53.953332140224688
 20
94.676233752822043
 30
0.0
 11
53.953332140224688
 21
87.903233752822018
 31
0.0
  0
LINE
  5
2DEC
  8
0
 10
81.646832140224717
 20
92.789733752822045
 30
0.0
 11
75.553332140224711
 21
92.789733752822016
 31
0.0
  0
LINE
  5
2DED
  8
0
 10
75.553332140224711
 20
89.789733752822031
 30
0.0
 11
81.646832140224717
 21
89.789733752822031
 31
0.0
  0
LINE
  5
2DF1
  8
0
 10
74.349832140224692
 20
95.289733752822045
 30
0.0
 11
70.7533321402247
 21
95.289733752822045
 31
0.0
  0
LINE
  5
2DF2
  8
0
 10
70.7533321402247
 20
87.289733752822031
 30
0.0
 11
74.349832140224692
 21
87.289733752822031
 31
0.0
  0
LINE
  5
2DF7
  8
0
 10
81.953332140224674
 20
92.483233752822002
 30
0.0
 11
81.646832140224717
 21
92.789733752822045
 31
0.0
  0
LINE
  5
2DF8
  8
0
 10
81.646832140224717
 20
89.789733752822031
 30
0.0
 11
81.953332140224674
 21
90.096233752822059
 31
0.0
  0
LINE
  5
2DF9
  8
0
 10
54.566832140224683
 20
95.289733752822045
 30
0.0
 11
53.953332140224688
 21
94.676233752822043
 31
0.0
  0
LINE
  5
2DFA
  8
0
 10
53.953332140224688
 20
87.903233752822018
 30
0.0
 11
54.566832140224683
 21
87.289733752822031
 31
0.0
  0
LINE
  5
2DFB
  8
0
 10
66.753332140224686
 20
95.289733752822045
 30
0.0
 11
54.566832140224683
 21
95.289733752822045
 31
0.0
  0
LINE
  5
2DFC
  8
0
 10
54.566832140224683
 20
87.289733752822031
 30
0.0
 11
66.753332140224686
 21
87.289733752822031
 31
0.0
  0
LINE
  5
2E60
  8
1
 10
84.953332140224674
 20
54.302382964702161
 30
0.0
 11
46.359058907212237
 21
54.302382964702161
 31
0.0
  0
LINE
  5
2E62
  8
3
 10
81.953332140224674
 20
55.495882964702162
 30
0.0
 11
74.953332140224688
 21
55.495882964702162
 31
0.0
  0
LINE
  5
2E65
  8
3
 10
81.953332140224674
 20
53.108882964702161
 30
0.0
 11
74.953332140224688
 21
53.108882964702161
 31
0.0
  0
LINE
  5
2E66
  8
3
 10
74.953332140224688
 20
57.688882964702167
 30
0.0
 11
70.753332140224671
 21
57.688882964702167
 31
0.0
  0
LINE
  5
2E67
  8
3
 10
74.953332140224688
 20
50.915882964702149
 30
0.0
 11
70.753332140224671
 21
50.915882964702149
 31
0.0
  0
LINE
  5
2E6C
  8
0
 10
81.646832140224689
 20
55.802382964702161
 30
0.0
 11
81.646832140224689
 21
52.802382964702161
 31
0.0
  0
POLYLINE
  5
2E6D
  8
0
 66
     1
 10
0.0
 20
0.0
 30
0.0
  0
VERTEX
  5
3355
  8
0
 10
70.483894892096714
 20
50.5496062149696
 30
0.0
  0
VERTEX
  5
3356
  8
0
 10
70.568172825053409
 20
51.226537428631822
 30
0.0
  0
VERTEX
  5
3357
  8
0
 10
70.687224988892382
 20
52.494575831443001
 30
0.0
  0
VERTEX
  5
3358
  8
0
 10
70.745925421931133
 20
53.702288529813067
 30
0.0
  0
VERTEX
  5
3359
  8
0
 10
70.753332140224671
 20
54.302382964702161
 30
0.0
  0
SEQEND
  5
335A
  8
0
  0
POLYLINE
  5
2E6E
  8
0
 66
     1
 10
0.0
 20
0.0
 30
0.0
  0
VERTEX
  5
335B
  8
0
 10
66.753332140224686
 20
54.302382964702161
 30
0.0
  0
VERTEX
  5
335C
  8
0
 10
66.760738858518238
 20
53.702288529813053
 30
0.0
  0
VERTEX
  5
335D
  8
0
 10
66.819439291556989
 20
52.494575831443001
 30
0.0
  0
VERTEX
  5
335E
  8
0
 10
66.938491455395962
 20
51.226537428631822
 30
0.0
  0
VERTEX
  5
335F
  8
0
 10
67.022769388352643
 20
50.5496062149696
 30
0.0
  0
SEQEND
  5
3360
  8
0
  0
POLYLINE
  5
2E6F
  8
0
 66
     1
 10
0.0
 20
0.0
 30
0.0
  0
VERTEX
  5
3361
  8
0
 10
67.022769388352643
 20
58.055159714434723
 30
0.0
  0
VERTEX
  5
3362
  8
0
 10
66.938491455395962
 20
57.378228500772501
 30
0.0
  0
VERTEX
  5
3363
  8
0
 10
66.819439291556989
 20
56.110190097961322
 30
0.0
  0
VERTEX
  5
3364
  8
0
 10
66.760738858518238
 20
54.90247739959127
 30
0.0
  0
VERTEX
  5
3365
  8
0
 10
66.753332140224686
 20
54.302382964702161
 30
0.0
  0
SEQEND
  5
3366
  8
0
  0
POLYLINE
  5
2E70
  8
0
 66
     1
 10
0.0
 20
0.0
 30
0.0
  0
VERTEX
  5
3367
  8
0
 10
70.753332140224671
 20
54.302382964702161
 30
0.0
  0
VERTEX
  5
3368
  8
0
 10
70.745925421931133
 20
54.902477399591248
 30
0.0
  0
VERTEX
  5
3369
  8
0
 10
70.687224988892382
 20
56.110190097961322
 30
0.0
  0
VERTEX
  5
336A
  8
0
 10
70.568172825053409
 20
57.378228500772501
 30
0.0
  0
VERTEX
  5
336B
  8
0
 10
70.483894892096714
 20
58.055159714434723
 30
0.0
  0
SEQEND
  5
336C
  8
0
  0
POLYLINE
  5
2E71
  8
0
 66
     1
 10
0.0
 20
0.0
 30
0.0
  0
VERTEX
  5
336D
  8
0
 10
70.483894892096714
 20
61.807936464167277
 30
0.0
  0
VERTEX
  5
336E
  8
0
 10
70.568172825053409
 20
61.469470857336177
 30
0.0
  0
VERTEX
  5
336F
  8
0
 10
70.687224988892382
 20
60.835451655930598
 30
0.0
  0
VERTEX
  5
3370
  8
0
 10
70.745925421931133
 20
60.231595306745561
 30
0.0
  0
VERTEX
  5
3371
  8
0
 10
70.753332140224671
 20
59.931548089301003
 30
0.0
  0
SEQEND
  5
3372
  8
0
  0
LINE
  5
2E72
  8
0
 10
67.022769388352643
 20
61.807936464167277
 30
0.0
 11
70.483894892096714
 21
61.807936464167277
 31
0.0
  0
POLYLINE
  5
2E73
  8
0
 66
     1
 10
0.0
 20
0.0
 30
0.0
  0
VERTEX
  5
3373
  8
0
 10
66.753332140224686
 20
59.931548089301003
 30
0.0
  0
VERTEX
  5
3374
  8
0
 10
66.760738858518224
 20
60.231595306745561
 30
0.0
  0
VERTEX
  5
3375
  8
0
 10
66.819439291557003
 20
60.835451655930598
 30
0.0
  0
VERTEX
  5
3376
  8
0
 10
66.938491455395976
 20
61.469470857336177
 30
0.0
  0
VERTEX
  5
3377
  8
0
 10
67.022769388352643
 20
61.807936464167277
 30
0.0
  0
SEQEND
  5
3378
  8
0
  0
POLYLINE
  5
2E74
  8
0
 66
     1
 10
0.0
 20
0.0
 30
0.0
  0
VERTEX
  5
3379
  8
0
 10
67.022769388352643
 20
58.055159714434723
 30
0.0
  0
VERTEX
  5
337A
  8
0
 10
66.938491455395962
 20
58.39362532126583
 30
0.0
  0
VERTEX
  5
337B
  8
0
 10
66.819439291556989
 20
59.027644522671437
 30
0.0
  0
VERTEX
  5
337C
  8
0
 10
66.760738858518238
 20
59.631500871856467
 30
0.0
  0
VERTEX
  5
337D
  8
0
 10
66.753332140224686
 20
59.931548089301003
 30
0.0
  0
SEQEND
  5
337E
  8
0
  0
LINE
  5
2E75
  8
0
 10
67.022769388352643
 20
58.055159714434723
 30
0.0
 11
70.483894892096714
 21
58.055159714434723
 31
0.0
  0
POLYLINE
  5
2E76
  8
0
 66
     1
 10
0.0
 20
0.0
 30
0.0
  0
VERTEX
  5
337F
  8
0
 10
70.753332140224671
 20
59.931548089301003
 30
0.0
  0
VERTEX
  5
3380
  8
0
 10
70.745925421931133
 20
59.631500871856467
 30
0.0
  0
VERTEX
  5
3381
  8
0
 10
70.687224988892382
 20
59.027644522671437
 30
0.0
  0
VERTEX
  5
3382
  8
0
 10
70.568172825053409
 20
58.39362532126583
 30
0.0
  0
VERTEX
  5
3383
  8
0
 10
70.483894892096714
 20
58.055159714434723
 30
0.0
  0
SEQEND
  5
3384
  8
0
  0
LINE
  5
2E7F
  8
0
 10
67.022769388352643
 20
50.5496062149696
 30
0.0
 11
70.483894892096714
 21
50.5496062149696
 31
0.0
  0
POLYLINE
  5
2E80
  8
0
 66
     1
 10
0.0
 20
0.0
 30
0.0
  0
VERTEX
  5
3385
  8
0
 10
70.753332140224671
 20
48.67321784010332
 30
0.0
  0
VERTEX
  5
3386
  8
0
 10
70.745925421931133
 20
48.373170622658762
 30
0.0
  0
VERTEX
  5
3387
  8
0
 10
70.687224988892382
 20
47.769314273473753
 30
0.0
  0
VERTEX
  5
3388
  8
0
 10
70.568172825053409
 20
47.135295072068139
 30
0.0
  0
VERTEX
  5
3389
  8
0
 10
70.483894892096714
 20
46.796829465237039
 30
0.0
  0
SEQEND
  5
338A
  8
0
  0
POLYLINE
  5
2E81
  8
0
 66
     1
 10
0.0
 20
0.0
 30
0.0
  0
VERTEX
  5
338B
  8
0
 10
70.483894892096714
 20
50.5496062149696
 30
0.0
  0
VERTEX
  5
338C
  8
0
 10
70.568172825053409
 20
50.211140608138493
 30
0.0
  0
VERTEX
  5
338D
  8
0
 10
70.687224988892382
 20
49.577121406732878
 30
0.0
  0
VERTEX
  5
338E
  8
0
 10
70.745925421931133
 20
48.973265057547849
 30
0.0
  0
VERTEX
  5
338F
  8
0
 10
70.753332140224671
 20
48.67321784010332
 30
0.0
  0
SEQEND
  5
3390
  8
0
  0
POLYLINE
  5
2E82
  8
0
 66
     1
 10
0.0
 20
0.0
 30
0.0
  0
VERTEX
  5
3391
  8
0
 10
66.753332140224686
 20
48.67321784010332
 30
0.0
  0
VERTEX
  5
3392
  8
0
 10
66.760738858518238
 20
48.97326505754787
 30
0.0
  0
VERTEX
  5
3393
  8
0
 10
66.819439291556989
 20
49.577121406732878
 30
0.0
  0
VERTEX
  5
3394
  8
0
 10
66.938491455395962
 20
50.211140608138493
 30
0.0
  0
VERTEX
  5
3395
  8
0
 10
67.022769388352643
 20
50.5496062149696
 30
0.0
  0
SEQEND
  5
3396
  8
0
  0
POLYLINE
  5
2E83
  8
0
 66
     1
 10
0.0
 20
0.0
 30
0.0
  0
VERTEX
  5
3397
  8
0
 10
67.022769388352643
 20
46.796829465237039
 30
0.0
  0
VERTEX
  5
3398
  8
0
 10
66.938491455395962
 20
47.135295072068139
 30
0.0
  0
VERTEX
  5
3399
  8
0
 10
66.819439291556989
 20
47.769314273473718
 30
0.0
  0
VERTEX
  5
339A
  8
0
 10
66.760738858518238
 20
48.373170622658762
 30
0.0
  0
VERTEX
  5
339B
  8
0
 10
66.753332140224686
 20
48.67321784010332
 30
0.0
  0
SEQEND
  5
339C
  8
0
  0
LINE
  5
2E84
  8
0
 10
67.022769388352643
 20
46.796829465237039
 30
0.0
 11
70.483894892096714
 21
46.796829465237039
 31
0.0
  0
LINE
  5
2E89
  8
0
 10
70.753332140224671
 20
60.802382964702161
 30
0.0
 11
70.753332140224671
 21
47.802382964702161
 31
0.0
  0
LINE
  5
2E8A
  8
0
 10
66.753332140224686
 20
60.802382964702161
 30
0.0
 11
66.753332140224686
 21
47.802382964702161
 31
0.0
  0
LINE
  5
2E8D
  8
0
 10
74.349832140224692
 20
53.812382964702152
 30
0.0
 11
74.349832140224692
 21
50.302382964702161
 31
0.0
  0
LINE
  5
2E8E
  8
0
 10
74.953332140224688
 20
53.812382964702152
 30
0.0
 11
73.943332140224697
 21
53.812382964702152
 31
0.0
  0
LINE
  5
2E8F
  8
0
 10
73.943332140224697
 20
53.812382964702152
 30
0.0
 11
73.943332140224697
 21
54.812382964702152
 31
0.0
  0
LINE
  5
2E90
  8
0
 10
73.943332140224697
 20
54.812382964702152
 30
0.0
 11
74.953332140224688
 21
54.812382964702138
 31
0.0
  0
LINE
  5
2E91
  8
0
 10
74.349832140224692
 20
58.302382964702161
 30
0.0
 11
74.349832140224692
 21
54.812382964702152
 31
0.0
  0
LINE
  5
2E92
  8
0
 10
50.953332140224688
 20
56.302382964702161
 30
0.0
 11
50.953332140224688
 21
52.302382964702161
 31
0.0
  0
LINE
  5
2E94
  8
0
 10
81.953332140224674
 20
55.495882964702162
 30
0.0
 11
81.953332140224674
 21
53.108882964702161
 31
0.0
  0
LINE
  5
2E97
  8
0
 10
54.566832140224683
 20
58.302382964702161
 30
0.0
 11
54.566832140224683
 21
50.302382964702161
 31
0.0
  0
LINE
  5
2E98
  8
0
 10
53.953332140224688
 20
57.688882964702167
 30
0.0
 11
53.953332140224688
 21
50.915882964702149
 31
0.0
  0
LINE
  5
2E9C
  8
0
 10
81.646832140224689
 20
55.802382964702161
 30
0.0
 11
75.553332140224711
 21
55.802382964702147
 31
0.0
  0
LINE
  5
2E9F
  8
0
 10
75.553332140224725
 20
52.802382964702169
 30
0.0
 11
81.646832140224689
 21
52.802382964702161
 31
0.0
  0
LINE
  5
2EA0
  8
0
 10
70.483894892096714
 20
46.796829465237039
 30
0.0
 11
70.753332140224671
 21
47.802382964702161
 31
0.0
  0
LINE
  5
2EA1
  8
0
 10
70.753332140224671
 20
60.802382964702161
 30
0.0
 11
70.483894892096714
 21
61.807936464167277
 31
0.0
  0
LINE
  5
2EA2
  8
0
 10
66.753332140224686
 20
47.802382964702161
 30
0.0
 11
67.022769388352643
 21
46.796829465237039
 31
0.0
  0
LINE
  5
2EA3
  8
0
 10
67.022769388352643
 20
61.807936464167277
 30
0.0
 11
66.753332140224686
 21
60.802382964702161
 31
0.0
  0
LINE
  5
2EA6
  8
0
 10
74.349832140224692
 20
58.302382964702161
 30
0.0
 11
70.753332140224671
 21
58.302382964702161
 31
0.0
  0
LINE
  5
2EA7
  8
0
 10
70.753332140224671
 20
50.302382964702161
 30
0.0
 11
74.349832140224692
 21
50.302382964702161
 31
0.0
  0
LINE
  5
2EA8
  8
0
 10
53.953332140224688
 20
56.302382964702161
 30
0.0
 11
50.953332140224688
 21
56.302382964702161
 31
0.0
  0
LINE
  5
2EA9
  8
0
 10
50.953332140224688
 20
52.302382964702161
 30
0.0
 11
53.953332140224688
 21
52.302382964702161
 31
0.0
  0
LINE
  5
2EAA
  8
0
 10
50.953332140224688
 20
56.302382964702161
 30
0.0
 11
50.296379083883693
 21
55.923090940778742
 31
0.0
  0
LINE
  5
2EAB
  8
0
 10
50.296379083883693
 20
52.681674988625588
 30
0.0
 11
50.953332140224688
 21
52.302382964702161
 31
0.0
  0
LINE
  5
2EAC
  8
0
 10
81.953332140224674
 20
55.495882964702162
 30
0.0
 11
81.646832140224689
 21
55.802382964702161
 31
0.0
  0
LINE
  5
2EAD
  8
0
 10
81.646832140224689
 20
52.802382964702161
 30
0.0
 11
81.953332140224674
 21
53.108882964702161
 31
0.0
  0
LINE
  5
2EAE
  8
0
 10
74.953332140224674
 20
57.689896247307821
 30
0.0
 11
74.349832140224692
 21
58.302382964702161
 31
0.0
  0
LINE
  5
2EAF
  8
0
 10
54.566832140224683
 20
58.302382964702161
 30
0.0
 11
53.953332140224688
 21
57.688882964702167
 31
0.0
  0
LINE
  5
2EB0
  8
0
 10
53.953332140224688
 20
50.915882964702149
 30
0.0
 11
54.566832140224683
 21
50.302382964702161
 31
0.0
  0
LINE
  5
2EB1
  8
0
 10
66.753332140224686
 20
58.302382964702161
 30
0.0
 11
54.566832140224683
 21
58.302382964702161
 31
0.0
  0
LINE
  5
2EB2
  8
0
 10
54.566832140224683
 20
50.302382964702161
 30
0.0
 11
66.753332140224686
 21
50.302382964702161
 31
0.0
  0
LINE
  5
2EB3
  8
0
 10
74.349832140224692
 20
50.302382964702161
 30
0.0
 11
74.953332140224688
 21
50.915882964702149
 31
0.0
  0
LINE
  5
2EC3
  8
0
 10
121.35043928035169
 20
53.812382964702152
 30
0.0
 11
120.84609548939019
 21
53.812382964702152
 31
0.0
  0
LINE
  5
2EC4
  8
0
 10
120.84320872576539
 20
54.812382964702159
 30
0.0
 11
121.3479195090721
 21
54.812382964702152
 31
0.0
  0
CIRCLE
  5
2EDA
  8
0
 10
117.380565226934
 20
54.302382964702161
 30
0.0
 40
1.5
  0
LINE
  5
2EDF
  8
0
 10
113.41321094479579
 20
54.812382964702152
 30
0.0
 11
115.9699270734729
 21
54.812382964702152
 31
0.0
  0
LINE
  5
2EE5
  8
1
 10
117.380565226934
 20
64.807936464167284
 30
0.0
 11
117.380565226934
 21
43.796829465237032
 31
0.0
  0
LINE
  5
2EE6
  8
1
 10
107.880565226934
 20
54.302382964702161
 30
0.0
 11
126.880565226934
 21
54.302382964702161
 31
0.0
  0
CIRCLE
  5
2EE7
  8
0
 10
117.380565226934
 20
54.302382964702161
 30
0.0
 40
3.999999999999968
  0
CIRCLE
  5
2EE8
  8
0
 10
117.380565226934
 20
54.302382964702161
 30
0.0
 40
6.5
  0
LINE
  5
2F49
  8
0
 10
74.953332140224688
 20
94.676233752822043
 30
0.0
 11
74.349832140224692
 21
95.289733752822045
 31
0.0
  0
LINE
  5
2F4A
  8
0
 10
74.349832140224692
 20
87.289733752822031
 30
0.0
 11
74.953332140224688
 21
87.903233752822018
 31
0.0
  0
LINE
  5
2F4B
  8
0
 10
74.953332140224688
 20
87.903233752822018
 30
0.0
 11
74.953332140224688
 21
94.789733752822073
 31
0.0
  0
LINE
  5
2F4C
  8
0
 10
74.349832140224692
 20
87.289733752822031
 30
0.0
 11
74.349832140224692
 21
95.289733752822045
 31
0.0
  0
LINE
  5
2F4E
  8
3
 10
66.755277537250052
 20
94.676233752822043
 30
0.0
 11
53.953332140224688
 21
94.676233752822043
 31
0.0
  0
LINE
  5
2F4F
  8
3
 10
66.753332140224671
 20
87.903233752822018
 30
0.0
 11
53.953332140224688
 21
87.903233752822018
 31
0.0
  0
LINE
  5
2F56
  8
3
 10
66.753332140224671
 20
13.92853217658225
 30
0.0
 11
53.953332140224688
 21
13.92853217658225
 31
0.0
  0
LINE
  5
2F57
  8
3
 10
66.755277537250052
 20
20.70153217658228
 30
0.0
 11
53.953332140224688
 21
20.70153217658228
 31
0.0
  0
LINE
  5
2F59
  8
0
 10
74.339832140224701
 20
13.31503217658226
 30
0.0
 11
74.339832140224701
 21
21.31503217658226
 31
0.0
  0
LINE
  5
2F5A
  8
0
 10
74.953332140224688
 20
13.81503217665321
 30
0.0
 11
74.953332140224688
 21
20.70153217658228
 31
0.0
  0
LINE
  5
2F5B
  8
0
 10
74.339832140224701
 20
13.31503217658226
 30
0.0
 11
74.953332140224688
 21
13.92853217658225
 31
0.0
  0
LINE
  5
2F5C
  8
0
 10
74.953332140224688
 20
20.70153217658228
 30
0.0
 11
74.339832140224701
 21
21.31503217658226
 31
0.0
  0
LINE
  5
2F5D
  8
0
 10
54.566832140224683
 20
13.31503217658226
 30
0.0
 11
66.753332140224686
 21
13.31503217658226
 31
0.0
  0
LINE
  5
2F5E
  8
0
 10
66.753332140224686
 20
21.31503217658226
 30
0.0
 11
54.566832140224683
 21
21.31503217658226
 31
0.0
  0
LINE
  5
2F5F
  8
0
 10
53.953332140224688
 20
13.92853217658225
 30
0.0
 11
54.566832140224683
 21
13.31503217658226
 31
0.0
  0
LINE
  5
2F60
  8
0
 10
54.566832140224683
 20
21.31503217658226
 30
0.0
 11
53.953332140224688
 21
20.70153217658228
 31
0.0
  0
LINE
  5
2F61
  8
0
 10
81.646832140224717
 20
15.81503217658226
 30
0.0
 11
81.953332140224674
 21
16.121532176582289
 31
0.0
  0
LINE
  5
2F62
  8
0
 10
81.953332140224674
 20
18.508532176582229
 30
0.0
 11
81.646832140224717
 21
18.81503217658226
 31
0.0
  0
LINE
  5
2F67
  8
0
 10
70.7533321402247
 20
13.31503217658226
 30
0.0
 11
74.339832140224715
 21
13.31503217658226
 31
0.0
  0
LINE
  5
2F68
  8
0
 10
74.339832140224715
 20
21.31503217658226
 30
0.0
 11
70.7533321402247
 21
21.31503217658226
 31
0.0
  0
LINE
  5
2F69
  8
0
 10
75.553332140224768
 20
15.81503217658226
 30
0.0
 11
81.646832140224717
 21
15.81503217658226
 31
0.0
  0
LINE
  5
2F6A
  8
0
 10
81.646832140224717
 20
18.81503217658226
 30
0.0
 11
75.553332140224768
 21
18.81503217658226
 31
0.0
  0
LINE
  5
2F6B
  8
0
 10
53.953332140224688
 20
20.70153217658228
 30
0.0
 11
53.953332140224688
 21
13.92853217658225
 31
0.0
  0
LINE
  5
2F6C
  8
0
 10
54.566832140224683
 20
21.31503217658226
 30
0.0
 11
54.566832140224683
 21
13.31503217658226
 31
0.0
  0
LINE
  5
2F6D
  8
0
 10
81.953332140224674
 20
18.508532176582229
 30
0.0
 11
81.953332140224674
 21
16.121532176582289
 31
0.0
  0
LINE
  5
2F70
  8
0
 10
66.753332140224686
 20
23.81503217658226
 30
0.0
 11
66.753332140224686
 21
10.815032176582269
 31
0.0
  0
LINE
  5
2F71
  8
0
 10
70.7533321402247
 20
23.81503217658226
 30
0.0
 11
70.7533321402247
 21
10.815032176582269
 31
0.0
  0
POLYLINE
  5
2F72
  8
0
 66
     1
 10
0.0
 20
0.0
 30
0.0
  0
VERTEX
  5
339D
  8
0
 10
67.022769388352657
 20
10.815032176582269
 30
0.0
  0
VERTEX
  5
339E
  8
0
 10
66.938491455395976
 20
11.40127180422841
 30
0.0
  0
VERTEX
  5
339F
  8
0
 10
66.819439291557003
 20
12.499425274037129
 30
0.0
  0
VERTEX
  5
33A0
  8
0
 10
66.760738858518252
 20
13.54533515129866
 30
0.0
  0
VERTEX
  5
33A1
  8
0
 10
66.7533321402247
 20
14.06503217658228
 30
0.0
  0
SEQEND
  5
33A2
  8
0
  0
POLYLINE
  5
2F73
  8
0
 66
     1
 10
0.0
 20
0.0
 30
0.0
  0
VERTEX
  5
33A3
  8
0
 10
66.7533321402247
 20
14.06503217658228
 30
0.0
  0
VERTEX
  5
33A4
  8
0
 10
66.760738858518238
 20
14.584729201865899
 30
0.0
  0
VERTEX
  5
33A5
  8
0
 10
66.819439291557018
 20
15.63063907912742
 30
0.0
  0
VERTEX
  5
33A6
  8
0
 10
66.93849145539599
 20
16.728792548936141
 30
0.0
  0
VERTEX
  5
33A7
  8
0
 10
67.022769388352657
 20
17.315032176582282
 30
0.0
  0
SEQEND
  5
33A8
  8
0
  0
POLYLINE
  5
2F74
  8
0
 66
     1
 10
0.0
 20
0.0
 30
0.0
  0
VERTEX
  5
33A9
  8
0
 10
70.483894892096728
 20
17.315032176582282
 30
0.0
  0
VERTEX
  5
33AA
  8
0
 10
70.568172825053409
 20
16.728792548936141
 30
0.0
  0
VERTEX
  5
33AB
  8
0
 10
70.687224988892382
 20
15.63063907912742
 30
0.0
  0
VERTEX
  5
33AC
  8
0
 10
70.745925421931148
 20
14.584729201865899
 30
0.0
  0
VERTEX
  5
33AD
  8
0
 10
70.753332140224686
 20
14.06503217658228
 30
0.0
  0
SEQEND
  5
33AE
  8
0
  0
POLYLINE
  5
2F75
  8
0
 66
     1
 10
0.0
 20
0.0
 30
0.0
  0
VERTEX
  5
33AF
  8
0
 10
70.753332140224686
 20
14.06503217658228
 30
0.0
  0
VERTEX
  5
33B0
  8
0
 10
70.745925421931148
 20
13.54533515129866
 30
0.0
  0
VERTEX
  5
33B1
  8
0
 10
70.687224988892382
 20
12.499425274037129
 30
0.0
  0
VERTEX
  5
33B2
  8
0
 10
70.568172825053409
 20
11.40127180422841
 30
0.0
  0
VERTEX
  5
33B3
  8
0
 10
70.483894892096728
 20
10.815032176582269
 30
0.0
  0
SEQEND
  5
33B4
  8
0
  0
LINE
  5
2F76
  8
0
 10
67.022769388352671
 20
17.31503217658226
 30
0.0
 11
70.483894892096714
 21
17.31503217658226
 31
0.0
  0
POLYLINE
  5
2F77
  8
0
 66
     1
 10
0.0
 20
0.0
 30
0.0
  0
VERTEX
  5
33B5
  8
0
 10
67.022769388352657
 20
17.315032176582282
 30
0.0
  0
VERTEX
  5
33B6
  8
0
 10
66.938491455395976
 20
17.901271804228411
 30
0.0
  0
VERTEX
  5
33B7
  8
0
 10
66.819439291557003
 20
18.99942527403714
 30
0.0
  0
VERTEX
  5
33B8
  8
0
 10
66.760738858518252
 20
20.045335151298659
 30
0.0
  0
VERTEX
  5
33B9
  8
0
 10
66.7533321402247
 20
20.565032176582282
 30
0.0
  0
SEQEND
  5
33BA
  8
0
  0
POLYLINE
  5
2F78
  8
0
 66
     1
 10
0.0
 20
0.0
 30
0.0
  0
VERTEX
  5
33BB
  8
0
 10
66.7533321402247
 20
20.565032176582282
 30
0.0
  0
VERTEX
  5
33BC
  8
0
 10
66.760738858518252
 20
21.084729201865901
 30
0.0
  0
VERTEX
  5
33BD
  8
0
 10
66.819439291557003
 20
22.13063907912742
 30
0.0
  0
VERTEX
  5
33BE
  8
0
 10
66.938491455395976
 20
23.228792548936141
 30
0.0
  0
VERTEX
  5
33BF
  8
0
 10
67.022769388352657
 20
23.815032176582282
 30
0.0
  0
SEQEND
  5
33C0
  8
0
  0
POLYLINE
  5
2F79
  8
0
 66
     1
 10
0.0
 20
0.0
 30
0.0
  0
VERTEX
  5
33C1
  8
0
 10
70.483894892096728
 20
23.815032176582282
 30
0.0
  0
VERTEX
  5
33C2
  8
0
 10
70.568172825053409
 20
23.228792548936141
 30
0.0
  0
VERTEX
  5
33C3
  8
0
 10
70.687224988892382
 20
22.13063907912742
 30
0.0
  0
VERTEX
  5
33C4
  8
0
 10
70.745925421931148
 20
21.084729201865901
 30
0.0
  0
VERTEX
  5
33C5
  8
0
 10
70.753332140224686
 20
20.565032176582282
 30
0.0
  0
SEQEND
  5
33C6
  8
0
  0
POLYLINE
  5
2F7A
  8
0
 66
     1
 10
0.0
 20
0.0
 30
0.0
  0
VERTEX
  5
33C7
  8
0
 10
70.753332140224686
 20
20.565032176582282
 30
0.0
  0
VERTEX
  5
33C8
  8
0
 10
70.745925421931148
 20
20.045335151298659
 30
0.0
  0
VERTEX
  5
33C9
  8
0
 10
70.687224988892382
 20
18.99942527403714
 30
0.0
  0
VERTEX
  5
33CA
  8
0
 10
70.568172825053409
 20
17.901271804228411
 30
0.0
  0
VERTEX
  5
33CB
  8
0
 10
70.483894892096728
 20
17.315032176582282
 30
0.0
  0
SEQEND
  5
33CC
  8
0
  0
LINE
  5
2F7B
  8
0
 10
66.7533321402247
 20
23.81503217658226
 30
0.0
 11
70.753332140224686
 21
23.81503217658226
 31
0.0
  0
LINE
  5
2F87
  8
0
 10
66.7533321402247
 20
10.815032176582269
 30
0.0
 11
70.753332140224686
 21
10.815032176582269
 31
0.0
  0
LINE
  5
2F89
  8
0
 10
81.646832140224717
 20
18.81503217658226
 30
0.0
 11
81.646832140224717
 21
15.81503217658226
 31
0.0
  0
LINE
  5
2F8A
  8
3
 10
74.953332140224674
 20
13.92853217658225
 30
0.0
 11
70.753332140224686
 21
13.92853217658225
 31
0.0
  0
LINE
  5
2F8B
  8
3
 10
74.953332140224674
 20
20.70153217658228
 30
0.0
 11
70.751386743199333
 21
20.70153217658228
 31
0.0
  0
LINE
  5
2F8C
  8
3
 10
81.953332140224674
 20
16.121532176582289
 30
0.0
 11
75.553332140224782
 21
16.121532176582289
 31
0.0
  0
LINE
  5
2F8E
  8
3
 10
81.953332140224674
 20
18.508532176582229
 30
0.0
 11
75.553332140224782
 21
18.508532176582229
 31
0.0
  0
LINE
  5
2F8F
  8
1
 10
84.953332140224688
 20
17.31503217658226
 30
0.0
 11
46.359058907212237
 21
17.31503217658226
 31
0.0
  0
LINE
  5
2F94
  8
3
 10
66.753332140224671
 20
57.688882964702167
 30
0.0
 11
53.953332140224688
 21
57.688882964702167
 31
0.0
  0
LINE
  5
2F95
  8
3
 10
66.753332140224671
 20
50.915882964702149
 30
0.0
 11
53.953332140224688
 21
50.915882964702149
 31
0.0
  0
LINE
  5
2F96
  8
0
 10
74.953332140224688
 20
57.802382964702169
 30
0.0
 11
74.953332140224688
 21
50.802382964702161
 31
0.0
  0
CIRCLE
  5
2F9D
  8
3
 10
17.119790966671339
 20
54.302382964702161
 30
0.0
 40
3.3865000000000118
  0
ARC
  5
2FA8
  8
3
 10
117.380565226934
 20
54.302382964702161
 30
0.0
 40
3.3864999999999981
 50
145.60670463996451
 51
214.39329536003649
  0
CIRCLE
  5
2FA9
  8
3
 10
117.380565226934
 20
54.302382964702161
 30
0.0
 40
1.1935
  0
ARC
  5
3040
  8
0
 10
53.953332140224688
 20
54.302382964702161
 30
0.0
 40
4.0
 50
156.0977810292508
 51
203.9022189707492
  0
LINE
  5
3041
  8
0
 10
50.296379083883693
 20
55.923090940778742
 30
0.0
 11
50.296379083883693
 21
52.681674988625581
 31
0.0
  0
LINE
  5
3042
  8
0
 10
50.296379083883693
 20
92.910441728898633
 30
0.0
 11
50.296379083883693
 21
89.669025776745457
 31
0.0
  0
ARC
  5
3043
  8
0
 10
53.953332140224688
 20
91.289733752822045
 30
0.0
 40
4.0
 50
156.0977810292508
 51
203.9022189707492
  0
LINE
  5
3044
  8
0
 10
50.296379083883693
 20
89.669025776745471
 30
0.0
 11
50.953332140224688
 21
89.289733752822045
 31
0.0
  0
LINE
  5
3045
  8
0
 10
50.953332140224688
 20
93.289733752822045
 30
0.0
 11
50.296379083883693
 21
92.910441728898633
 31
0.0
  0
LINE
  5
3046
  8
0
 10
50.953332140224688
 20
89.289733752822045
 30
0.0
 11
53.953332140224688
 21
89.289733752822045
 31
0.0
  0
LINE
  5
3047
  8
0
 10
53.953332140224688
 20
93.289733752822045
 30
0.0
 11
50.953332140224688
 21
93.289733752822045
 31
0.0
  0
LINE
  5
3048
  8
0
 10
50.953332140224688
 20
93.289733752822045
 30
0.0
 11
50.953332140224688
 21
89.289733752822045
 31
0.0
  0
LINE
  5
304A
  8
0
 10
50.296379083883693
 20
18.935740152658841
 30
0.0
 11
50.296379083883693
 21
15.69432420050568
 31
0.0
  0
ARC
  5
304B
  8
0
 10
53.953332140224688
 20
17.31503217658226
 30
0.0
 40
4.0
 50
156.0977810292508
 51
203.9022189707492
  0
LINE
  5
304C
  8
0
 10
50.296379083883693
 20
15.69432420050569
 30
0.0
 11
50.953332140224688
 21
15.31503217658226
 31
0.0
  0
LINE
  5
304D
  8
0
 10
50.953332140224688
 20
19.31503217658226
 30
0.0
 11
50.296379083883693
 21
18.935740152658841
 31
0.0
  0
LINE
  5
304E
  8
0
 10
50.953332140224688
 20
15.31503217658226
 30
0.0
 11
53.953332140224688
 21
15.31503217658226
 31
0.0
  0
LINE
  5
304F
  8
0
 10
53.953332140224688
 20
19.31503217658226
 30
0.0
 11
50.953332140224688
 21
19.31503217658226
 31
0.0
  0
LINE
  5
3050
  8
0
 10
50.953332140224688
 20
19.31503217658226
 30
0.0
 11
50.953332140224688
 21
15.31503217658226
 31
0.0
  0
LINE
  5
31EB
  8
0
 10
74.953332140224802
 20
20.13364773447833
 30
0.0
 11
75.553332140224768
 21
20.13364773447833
 31
0.0
  0
LINE
  5
31EC
  8
0
 10
75.553332140224768
 20
13.815032176653199
 30
0.0
 11
74.953332140224802
 21
13.815032176653199
 31
0.0
  0
LINE
  5
31ED
  8
0
 10
75.553332140224768
 20
13.815032176653199
 30
0.0
 11
75.553332140224768
 21
20.13364773447833
 31
0.0
  0
ARC
  5
31EE
  8
0
 10
114.7619496691088
 20
52.294186619641259
 30
0.0
 40
0.2
 50
104.9999999999944
 51
217.4843240361501
  0
ARC
  5
31EF
  8
0
 10
114.7619496691088
 20
56.310579309762943
 30
0.0
 40
0.2
 50
142.5156759638499
 51
254.9999999999954
  0
ARC
  5
31F0
  8
0
 10
117.380565226934
 20
54.302382964702133
 30
0.0
 40
3.5
 50
217.48432403614831
 51
142.51567596385169
  0
LINE
  5
31F1
  8
0
 10
75.553332140224711
 20
55.602382964702102
 30
0.0
 11
75.553332140224711
 21
57.802382964702169
 31
0.0
  0
LINE
  5
31F2
  8
0
 10
74.953332140224688
 20
50.802382964702169
 30
0.0
 11
75.553332140224654
 21
50.802382964702169
 31
0.0
  0
LINE
  5
31F3
  8
0
 10
75.553332140224654
 20
57.802382964702169
 30
0.0
 11
74.953332140224688
 21
57.802382964702169
 31
0.0
  0
LINE
  5
31F4
  8
0
 10
75.553332140224711
 20
50.802382964702169
 30
0.0
 11
75.553332140224711
 21
53.002382964702107
 31
0.0
  0
LINE
  5
31F5
  8
0
 10
116.6322337495792
 20
55.602382964702109
 30
0.0
 11
114.7101858600883
 21
56.117394144505141
 31
0.0
  0
LINE
  5
31F6
  8
0
 10
116.6322337495792
 20
53.002382964702122
 30
0.0
 11
114.7101858600883
 21
52.487371784899103
 31
0.0
  0
LINE
  5
31F7
  8
0
 10
74.953332140224688
 20
55.602382964702102
 30
0.0
 11
75.553332140224711
 21
55.602382964702102
 31
0.0
  0
LINE
  5
31F8
  8
0
 10
74.953332140224688
 20
53.002382964702107
 30
0.0
 11
75.553332140224711
 21
53.002382964702107
 31
0.0
  0
LINE
  5
31F9
  8
0
 10
74.953332140224688
 20
56.191373703792621
 30
0.0
 11
75.553332140224711
 21
56.191373703792621
 31
0.0
  0
LINE
  5
31FA
  8
0
 10
74.953332140224688
 20
52.413392225612377
 30
0.0
 11
75.553332140224711
 21
52.413392225612377
 31
0.0
  0
LINE
  5
31FB
  8
0
 10
75.553332140224711
 20
94.789733752822073
 30
0.0
 11
75.553332140224711
 21
88.471118194996961
 31
0.0
  0
LINE
  5
31FC
  8
0
 10
74.953332140224745
 20
88.471118194996961
 30
0.0
 11
75.553332140224711
 21
88.471118194996961
 31
0.0
  0
LINE
  5
31FD
  8
0
 10
75.553332140224711
 20
94.789733752822073
 30
0.0
 11
74.953332140224745
 21
94.789733752822073
 31
0.0
  0
LINE
  5
3202
  8
0
 10
17.119790966671331
 20
61.807936464167277
 30
0.0
 11
23.619790966671331
 21
58.055159714434723
 31
0.0
  0
LINE
  5
3203
  8
0
 10
23.619790966671331
 20
50.5496062149696
 30
0.0
 11
17.119790966671331
 21
46.796829465237039
 31
0.0
  0
LINE
  5
3204
  8
0
 10
10.61979096667133
 20
50.5496062149696
 30
0.0
 11
10.61979096667133
 21
58.055159714434723
 31
0.0
  0
LINE
  5
3205
  8
0
 10
17.119790966671271
 20
61.807936464167277
 30
0.0
 11
10.619790966671269
 21
58.055159714434723
 31
0.0
  0
LINE
  5
3206
  8
0
 10
10.619790966671269
 20
50.5496062149696
 30
0.0
 11
17.119790966671271
 21
46.796829465237039
 31
0.0
  0
LINE
  5
3207
  8
0
 10
23.619790966671271
 20
50.5496062149696
 30
0.0
 11
23.619790966671271
 21
58.055159714434723
 31
0.0
  0
CIRCLE
  5
3208
  8
0
 10
17.119790966671331
 20
54.302382964702161
 30
0.0
 40
2.0
  0
LINE
  5
3209
  8
0
 10
115.9628558067776
 20
53.812382964702152
 30
0.0
 11
113.4106911735162
 21
53.812382964702152
 31
0.0
  0
LINE
  5
320A
  8
0
 10
117.3805652269339
 20
61.807936464167412
 30
0.0
 11
110.8805652269339
 21
58.055159714434858
 31
0.0
  0
LINE
  5
320B
  8
0
 10
117.380565226934
 20
61.807936464167412
 30
0.0
 11
123.880565226934
 21
58.055159714434858
 31
0.0
  0
LINE
  5
320C
  8
0
 10
110.8805652269339
 20
50.549606214969742
 30
0.0
 11
117.3805652269339
 21
46.796829465237167
 31
0.0
  0
LINE
  5
320D
  8
0
 10
110.880565226934
 20
50.549606214969742
 30
0.0
 11
110.880565226934
 21
58.055159714434858
 31
0.0
  0
LINE
  5
320E
  8
0
 10
123.8805652269339
 20
50.549606214969742
 30
0.0
 11
123.8805652269339
 21
58.055159714434858
 31
0.0
  0
LINE
  5
320F
  8
0
 10
123.880565226934
 20
50.549606214969742
 30
0.0
 11
117.380565226934
 21
46.796829465237167
 31
0.0
  0
TEXT
  5
32CB
  8
0
 62
     3
 10
0.0
 20
0.0
 30
0.0
 40
5.0
  1
SDX8WN
  7
STANDARD1
  0
ENDSEC
  0
EOF
