  0
SECTION
  2
HEADER
  9
$ACADVER
  1
AC1009
  9
$INSBASE
 10
0.0
 20
0.0
 30
0.0
  9
$EXTMIN
 10
0.0
 20
-1.4802182810368341
 30
0.0
  9
$EXTMAX
 10
206.7905761198835
 20
162.09736779788449
 30
0.0
  9
$LIMMIN
 10
0.0
 20
0.0
  9
$LIMMAX
 10
385.0
 20
270.0
  9
$ORTHOMODE
 70
     1
  9
$REGENMODE
 70
     1
  9
$FILLMODE
 70
     1
  9
$QTEXTMODE
 70
     0
  9
$MIRRTEXT
 70
     0
  9
$DRAGMODE
 70
     2
  9
$LTSCALE
 40
10.0
  9
$OSMODE
 70
    55
  9
$ATTMODE
 70
     1
  9
$TEXTSIZE
 40
4.000000000000048
  9
$TRACEWID
 40
0.05
  9
$TEXTSTYLE
  7
STANDARD
  9
$CLAYER
  8
0
  9
$CELTYPE
  6
BYLAYER
  9
$CECOLOR
 62
   256
  9
$DIMSCALE
 40
1.0
  9
$DIMASZ
 40
3.0
  9
$DIMEXO
 40
2.0
  9
$DIMDLI
 40
0.38
  9
$DIMRND
 40
0.0
  9
$DIMDLE
 40
0.0
  9
$DIMEXE
 40
2.0
  9
$DIMTP
 40
0.0
  9
$DIMTM
 40
0.0
  9
$DIMTXT
 40
3.0
  9
$DIMCEN
 40
0.0
  9
$DIMTSZ
 40
0.0
  9
$DIMTOL
 70
     0
  9
$DIMLIM
 70
     0
  9
$DIMTIH
 70
     0
  9
$DIMTOH
 70
     0
  9
$DIMSE1
 70
     0
  9
$DIMSE2
 70
     0
  9
$DIMTAD
 70
     1
  9
$DIMZIN
 70
     0
  9
$DIMBLK
  1

  9
$DIMASO
 70
     1
  9
$DIMSHO
 70
     0
  9
$DIMPOST
  1

  9
$DIMAPOST
  1

  9
$DIMALT
 70
     0
  9
$DIMALTD
 70
     2
  9
$DIMALTF
 40
25.399999999999999
  9
$DIMLFAC
 40
1.0
  9
$DIMTOFL
 70
     1
  9
$DIMTVP
 40
1.6000000000000001
  9
$DIMTIX
 70
     1
  9
$DIMSOXD
 70
     0
  9
$DIMSAH
 70
     0
  9
$DIMBLK1
  1

  9
$DIMBLK2
  1

  9
$DIMSTYLE
  2
STANDARD
  9
$DIMCLRD
 70
     0
  9
$DIMCLRE
 70
     0
  9
$DIMCLRT
 70
     0
  9
$DIMTFAC
 40
1.0
  9
$DIMGAP
 40
1.0
  9
$LUNITS
 70
     2
  9
$LUPREC
 70
     4
  9
$SKETCHINC
 40
0.1
  9
$FILLETRAD
 40
0.0
  9
$AUNITS
 70
     0
  9
$AUPREC
 70
     4
  9
$MENU
  1
E:\r13\win\SUPPORT\ACAD
  9
$ELEVATION
 40
0.0
  9
$PELEVATION
 40
0.0
  9
$THICKNESS
 40
0.0
  9
$LIMCHECK
 70
     0
  9
$BLIPMODE
 70
     0
  9
$CHAMFERA
 40
0.0
  9
$CHAMFERB
 40
0.0
  9
$SKPOLY
 70
     0
  9
$TDCREATE
 40
2450280.598206134
  9
$TDUPDATE
 40
2456598.4896922451
  9
$TDINDWG
 40
0.1420330671
  9
$TDUSRTIMER
 40
0.1420330671
  9
$USRTIMER
 70
     1
  9
$ANGBASE
 50
0.0
  9
$ANGDIR
 70
     0
  9
$PDMODE
 70
     0
  9
$PDSIZE
 40
0.0
  9
$PLINEWID
 40
0.0
  9
$COORDS
 70
     1
  9
$SPLFRAME
 70
     0
  9
$SPLINETYPE
 70
     6
  9
$SPLINESEGS
 70
     8
  9
$ATTDIA
 70
     0
  9
$ATTREQ
 70
     1
  9
$HANDLING
 70
     1
  9
$HANDSEED
  5
2B86
  9
$SURFTAB1
 70
     6
  9
$SURFTAB2
 70
     6
  9
$SURFTYPE
 70
     6
  9
$SURFU
 70
     6
  9
$SURFV
 70
     6
  9
$UCSNAME
  2

  9
$UCSORG
 10
0.0
 20
0.0
 30
0.0
  9
$UCSXDIR
 10
1.0
 20
0.0
 30
0.0
  9
$UCSYDIR
 10
0.0
 20
1.0
 30
0.0
  9
$PUCSNAME
  2

  9
$PUCSORG
 10
0.0
 20
0.0
 30
0.0
  9
$PUCSXDIR
 10
1.0
 20
0.0
 30
0.0
  9
$PUCSYDIR
 10
0.0
 20
1.0
 30
0.0
  9
$USERI1
 70
     3
  9
$USERI2
 70
     1
  9
$USERI3
 70
     1
  9
$USERI4
 70
     0
  9
$USERI5
 70
     0
  9
$USERR1
 40
1.0
  9
$USERR2
 40
3.0
  9
$USERR3
 40
3.0
  9
$USERR4
 40
3.0
  9
$USERR5
 40
10.0
  9
$WORLDVIEW
 70
     1
  9
$SHADEDGE
 70
     3
  9
$SHADEDIF
 70
    70
  9
$TILEMODE
 70
     1
  9
$MAXACTVP
 70
    16
  9
$PLIMCHECK
 70
     0
  9
$PEXTMIN
 10
1.0000000000000000E+020
 20
1.0000000000000000E+020
 30
1.0000000000000000E+020
  9
$PEXTMAX
 10
-1.0000000000000000E+020
 20
-1.0000000000000000E+020
 30
-1.0000000000000000E+020
  9
$PLIMMIN
 10
0.0
 20
0.0
  9
$PLIMMAX
 10
12.0
 20
9.0
  9
$UNITMODE
 70
     0
  9
$VISRETAIN
 70
     0
  9
$PLINEGEN
 70
     0
  9
$PSLTSCALE
 70
     0
  0
ENDSEC
  0
SECTION
  2
TABLES
  0
TABLE
  2
VPORT
 70
     1
  0
VPORT
  2
*ACTIVE
 70
     0
 10
0.0
 20
0.0
 11
1.0
 21
1.0
 12
192.49412581440311
 22
175.433388831352
 13
0.0
 23
0.0
 14
5.0
 24
5.0
 15
10.0
 25
10.0
 16
0.0
 26
0.0
 36
1.0
 17
0.0
 27
0.0
 37
0.0
 40
356.9701552237488
 41
1.7807262569832401
 42
50.0
 43
0.0
 44
0.0
 50
0.0
 51
0.0
 71
     0
 72
   500
 73
     1
 74
     0
 75
     0
 76
     0
 77
     0
 78
     2
  0
ENDTAB
  0
TABLE
  2
LTYPE
 70
     3
  0
LTYPE
  2
CONTINUOUS
 70
     0
  3
Solid Line
 72
    65
 73
     0
 40
0.0
  0
LTYPE
  2
CENTER
 70
     0
  3
____ _ ____ _ ____ _ ____ _ ____ _ ____ _ ____
 72
    65
 73
     4
 40
2.0
 49
1.25
 49
-0.25
 49
0.25
 49
-0.25
  0
LTYPE
  2
PHANTOM2
 70
     0
  3
___ _ _ ___ _ _ ___ _ _ ___ _ _
 72
    65
 73
     6
 40
1.25
 49
0.625
 49
-0.125
 49
0.125
 49
-0.125
 49
0.125
 49
-0.125
  0
ENDTAB
  0
TABLE
  2
LAYER
 70
     3
  0
LAYER
  2
0
 70
     0
 62
     7
  6
CONTINUOUS
  0
LAYER
  2
1
 70
     0
 62
     1
  6
CENTER
  0
LAYER
  2
3
 70
     0
 62
     3
  6
CONTINUOUS
  0
ENDTAB
  0
TABLE
  2
STYLE
 70
     2
  0
STYLE
  2
STANDARD
 70
     0
 40
0.0
 41
1.0
 50
0.0
 71
     0
 42
4.000000000000048
  3
SIMPLEX
  4
BIGFONT
  0
STYLE
  2
STANDARD1
 70
     0
 40
0.0
 41
1.0
 50
0.0
 71
     0
 42
3.0
  3
txt
  4

  0
ENDTAB
  0
TABLE
  2
VIEW
 70
     0
  0
ENDTAB
  0
TABLE
  2
UCS
 70
     0
  0
ENDTAB
  0
TABLE
  2
APPID
 70
     3
  0
APPID
  2
ACAD
 70
     0
  0
APPID
  2
ACAD_MLEADERVER
 70
     0
  0
APPID
  2
ACAD_NAV_VCDISPLAY
 70
     0
  0
ENDTAB
  0
TABLE
  2
DIMSTYLE
 70
     1
  0
DIMSTYLE
  2
STANDARD
 70
     0
  3

  4

  5

  6

  7

 40
1.0
 41
0.18
 42
0.0625
 43
0.38
 44
0.18
 45
0.0
 46
0.0
 47
0.0
 48
0.0
140
0.18
141
0.09
142
0.0
143
25.399999999999999
144
1.0
145
0.0
146
1.0
147
0.09
 71
     0
 72
     0
 73
     1
 74
     1
 75
     0
 76
     0
 77
     0
 78
     0
170
     0
171
     2
172
     0
173
     0
174
     0
175
     0
176
     0
177
     0
178
     0
  0
ENDTAB
  0
ENDSEC
  0
SECTION
  2
BLOCKS
  0
BLOCK
  8
0
  2
$MODEL_SPACE
 70
     0
 10
0.0
 20
0.0
 30
0.0
  3
$MODEL_SPACE
  1

  0
ENDBLK
  5
2989
  8
0
  0
BLOCK
 67
     1
  8
0
  2
$PAPER_SPACE
 70
     0
 10
0.0
 20
0.0
 30
0.0
  3
$PAPER_SPACE
  1

  0
ENDBLK
  5
2987
 67
     1
  8
0
  0
ENDSEC
  0
SECTION
  2
ENTITIES
  0
LINE
  5
280C
  8
0
 10
143.14264128461679
 20
93.497697534095593
 30
0.0
 11
143.1426412846167
 21
85.497697534095579
 31
0.0
  0
LINE
  5
280D
  8
0
 10
144.34264128461669
 20
86.697697534095596
 30
0.0
 11
143.1426412846167
 21
85.497697534095607
 31
0.0
  0
LINE
  5
280E
  8
0
 10
143.14264128461679
 20
93.497697534095593
 30
0.0
 11
144.3426412846168
 21
92.29769753409559
 31
0.0
  0
LINE
  5
280F
  8
0
 10
133.3426412846168
 20
93.497697534095593
 30
0.0
 11
143.14264128461679
 21
93.497697534095593
 31
0.0
  0
LINE
  5
2810
  8
3
 10
132.34264128449169
 20
92.821197534095717
 30
0.0
 11
143.81914128461659
 21
92.821197534095688
 31
0.0
  0
LINE
  5
2811
  8
3
 10
132.34264128449169
 20
86.174197534095484
 30
0.0
 11
143.81914128461659
 21
86.174197534095484
 31
0.0
  0
LINE
  5
2812
  8
0
 10
133.3426412846168
 20
85.497697534095607
 30
0.0
 11
143.1426412846167
 21
85.497697534095607
 31
0.0
  0
LINE
  5
2813
  8
0
 10
144.3426412846168
 20
92.29769753409559
 30
0.0
 11
144.34264128461669
 21
86.697697534095596
 31
0.0
  0
CIRCLE
  5
281A
  8
0
 10
191.7905761198835
 20
89.497697534095593
 30
0.0
 40
4.0
  0
CIRCLE
  5
281B
  8
3
 10
191.7905761198835
 20
89.497697534095593
 30
0.0
 40
3.3235000000000001
  0
LINE
  5
2866
  8
0
 10
83.101706842520898
 20
93.319363484553151
 30
0.0
 11
83.101706842521025
 21
85.67603158363795
 31
0.0
  0
ARC
  5
2867
  8
0
 10
92.342641284616775
 20
89.497697534095593
 30
0.0
 40
10.0
 50
157.53204873306441
 51
202.46795126693621
  0
LINE
  5
2868
  8
0
 10
85.142641284616744
 20
84.497697534095593
 30
0.0
 11
83.101706842521082
 21
85.676031583637894
 31
0.0
  0
LINE
  5
2869
  8
0
 10
85.142641284616744
 20
94.497697534095551
 30
0.0
 11
83.101706842521082
 21
93.319363484553264
 31
0.0
  0
LINE
  5
286A
  8
0
 10
132.34264128461689
 20
98.497697534095494
 30
0.0
 11
132.34264128461669
 21
80.497697534095607
 31
0.0
  0
LINE
  5
286B
  8
0
 10
93.342641284616676
 20
79.497697534095664
 30
0.0
 11
93.342641284616676
 21
99.497697534095551
 31
0.0
  0
LINE
  5
286C
  8
0
 10
92.342641284616874
 20
98.497697534095551
 30
0.0
 11
93.342641284616874
 21
99.497697534095551
 31
0.0
  0
LINE
  5
286D
  8
0
 10
93.342641284616676
 20
79.497697534095664
 30
0.0
 11
92.342641284616647
 21
80.497697534095664
 31
0.0
  0
LINE
  5
286E
  8
0
 10
131.34264128461669
 20
79.497697534095622
 30
0.0
 11
93.342641284616676
 21
79.497697534095664
 31
0.0
  0
LINE
  5
286F
  8
3
 10
132.34264128461669
 20
80.850697534095616
 30
0.0
 11
92.342641284616647
 21
80.850697534095616
 31
0.0
  0
LINE
  5
2870
  8
3
 10
132.34264128461689
 20
98.144697534095542
 30
0.0
 11
92.342641284616874
 21
98.144697534095485
 31
0.0
  0
LINE
  5
2871
  8
0
 10
131.34264128461689
 20
99.497697534095494
 30
0.0
 11
93.342641284616874
 21
99.497697534095551
 31
0.0
  0
LINE
  5
2872
  8
0
 10
92.342641284616647
 20
80.497697534095664
 30
0.0
 11
92.342641284616874
 21
98.497697534095551
 31
0.0
  0
LINE
  5
2873
  8
0
 10
85.142641284616744
 20
94.497697534095551
 30
0.0
 11
85.142641284616744
 21
84.497697534095593
 31
0.0
  0
LINE
  5
2874
  8
0
 10
92.342641284616647
 20
84.497697534095593
 30
0.0
 11
85.142641284616744
 21
84.497697534095593
 31
0.0
  0
LINE
  5
2875
  8
0
 10
92.342641284616775
 20
94.497697534095551
 30
0.0
 11
85.142641284616744
 21
94.497697534095551
 31
0.0
  0
LINE
  5
2876
  8
0
 10
131.34264128461689
 20
99.497697534095494
 30
0.0
 11
132.34264128461689
 21
98.497697534095494
 31
0.0
  0
LINE
  5
2877
  8
0
 10
132.34264128461669
 20
80.497697534095607
 30
0.0
 11
131.34264128461669
 21
79.497697534095622
 31
0.0
  0
LINE
  5
2878
  8
0
 10
131.34264128461689
 20
99.497697534095551
 30
0.0
 11
131.3426412846168
 21
90.747697534095593
 31
0.0
  0
LINE
  5
2879
  8
0
 10
126.8426412846168
 20
90.747697534095593
 30
0.0
 11
126.8426412846168
 21
88.247697534095593
 31
0.0
  0
LINE
  5
287A
  8
0
 10
132.3426412846168
 20
90.747697534095593
 30
0.0
 11
126.8426412846168
 21
90.747697534095593
 31
0.0
  0
LINE
  5
287B
  8
0
 10
132.34264128461669
 20
88.247697534095593
 30
0.0
 11
126.8426412846168
 21
88.247697534095593
 31
0.0
  0
LINE
  5
287C
  8
0
 10
131.3426412846168
 20
88.247697534095593
 30
0.0
 11
131.34264128461669
 21
79.497697534095622
 31
0.0
  0
CIRCLE
  5
287D
  8
3
 10
28.83454688892726
 20
89.497697534095593
 30
0.0
 40
8.6470000000000002
  0
CIRCLE
  5
287E
  8
0
 10
28.83454688892726
 20
89.497697534095593
 30
0.0
 40
10.0
  0
CIRCLE
  5
287F
  8
0
 10
28.83454688892726
 20
89.497697534095593
 30
0.0
 40
5.0
  0
CIRCLE
  5
2880
  8
0
 10
28.83454688892726
 20
89.497697534095593
 30
0.0
 40
3.8216659504575001
  0
LINE
  5
2881
  8
1
 10
77.342641284616775
 20
89.497697534095593
 30
0.0
 11
149.3426412846168
 21
89.497697534095593
 31
0.0
  0
LINE
  5
288A
  8
1
 10
43.834546888927257
 20
89.497697534095593
 30
0.0
 11
13.83454688892726
 21
89.497697534095593
 31
0.0
  0
LINE
  5
288B
  8
1
 10
28.83454688892726
 20
104.49769753409559
 30
0.0
 11
28.83454688892726
 21
74.497697534095593
 31
0.0
  0
LINE
  5
288C
  8
1
 10
191.7905761198835
 20
104.49769753409559
 30
0.0
 11
191.7905761198835
 21
74.497697534095593
 31
0.0
  0
LINE
  5
288D
  8
1
 10
206.7905761198835
 20
89.497697534095593
 30
0.0
 11
176.7905761198835
 21
89.497697534095593
 31
0.0
  0
CIRCLE
  5
288E
  8
0
 10
191.7905761198835
 20
89.497697534095593
 30
0.0
 40
10.0
  0
CIRCLE
  5
288F
  8
3
 10
191.7905761198835
 20
89.497697534095593
 30
0.0
 40
8.6470000000000002
  0
LINE
  5
2892
  8
0
 10
181.8690087033909
 20
90.747697534095593
 30
0.0
 11
187.99090508149081
 21
90.747697534095593
 31
0.0
  0
LINE
  5
2893
  8
0
 10
181.8690087033909
 20
88.247697534095593
 30
0.0
 11
187.99090508149081
 21
88.247697534095593
 31
0.0
  0
LINE
  5
2894
  8
0
 10
199.69231643452301
 20
88.247697534095593
 30
0.0
 11
201.71214353637581
 21
88.247697534095593
 31
0.0
  0
LINE
  5
2895
  8
0
 10
199.69231643452309
 20
90.747697534095593
 30
0.0
 11
201.71214353637581
 21
90.747697534095593
 31
0.0
  0
LINE
  5
28A4
  8
0
 10
83.101706842520898
 20
155.91903374834209
 30
0.0
 11
83.101706842521025
 21
148.27570184742689
 31
0.0
  0
ARC
  5
28A5
  8
0
 10
92.342641284616775
 20
152.0973677978846
 30
0.0
 40
10.0
 50
157.53204873306441
 51
202.46795126693621
  0
LINE
  5
28A6
  8
0
 10
85.142641284616744
 20
147.0973677978846
 30
0.0
 11
83.101706842521082
 21
148.27570184742689
 31
0.0
  0
LINE
  5
28A7
  8
0
 10
85.142641284616744
 20
157.09736779788449
 30
0.0
 11
83.101706842521082
 21
155.9190337483422
 31
0.0
  0
LINE
  5
28A8
  8
0
 10
93.342641284616676
 20
142.0973677978846
 30
0.0
 11
93.342641284616676
 21
162.09736779788449
 31
0.0
  0
LINE
  5
28A9
  8
0
 10
92.342641284616874
 20
161.09736779788449
 30
0.0
 11
93.342641284616874
 21
162.09736779788449
 31
0.0
  0
LINE
  5
28AA
  8
0
 10
93.342641284616676
 20
142.0973677978846
 30
0.0
 11
92.342641284616647
 21
143.0973677978846
 31
0.0
  0
LINE
  5
28AB
  8
0
 10
131.34264128461669
 20
142.0973677978846
 30
0.0
 11
93.342641284616676
 21
142.0973677978846
 31
0.0
  0
LINE
  5
28AC
  8
3
 10
132.34264128461669
 20
143.45036779788461
 30
0.0
 11
92.342641284616647
 21
143.45036779788461
 31
0.0
  0
LINE
  5
28AD
  8
3
 10
132.34264128461689
 20
160.74436779788451
 30
0.0
 11
92.342641284616874
 21
160.74436779788439
 31
0.0
  0
LINE
  5
28AE
  8
0
 10
131.34264128461689
 20
162.09736779788449
 30
0.0
 11
93.342641284616874
 21
162.09736779788449
 31
0.0
  0
LINE
  5
28AF
  8
0
 10
92.342641284616647
 20
143.0973677978846
 30
0.0
 11
92.342641284616874
 21
161.09736779788449
 31
0.0
  0
LINE
  5
28B0
  8
0
 10
85.142641284616744
 20
157.09736779788449
 30
0.0
 11
85.142641284616744
 21
147.0973677978846
 31
0.0
  0
LINE
  5
28B1
  8
0
 10
92.342641284616647
 20
147.0973677978846
 30
0.0
 11
85.142641284616744
 21
147.0973677978846
 31
0.0
  0
LINE
  5
28B2
  8
0
 10
92.342641284616775
 20
157.09736779788449
 30
0.0
 11
85.142641284616744
 21
157.09736779788449
 31
0.0
  0
LINE
  5
28B3
  8
0
 10
131.34264128461689
 20
162.09736779788449
 30
0.0
 11
132.34264128461689
 21
161.09736779788449
 31
0.0
  0
LINE
  5
28B4
  8
0
 10
132.34264128461669
 20
143.0973677978846
 30
0.0
 11
131.34264128461669
 21
142.0973677978846
 31
0.0
  0
LINE
  5
28B5
  8
0
 10
131.34264128461689
 20
162.09736779788449
 30
0.0
 11
131.34264128461669
 21
142.0973677978846
 31
0.0
  0
LINE
  5
28B6
  8
0
 10
144.3426412846168
 20
155.5973677978846
 30
0.0
 11
144.34264128461669
 21
148.59736779788449
 31
0.0
  0
LINE
  5
28B7
  8
0
 10
133.3426412846168
 20
147.09736779788449
 30
0.0
 11
142.84264128461669
 21
147.0973677978846
 31
0.0
  0
LINE
  5
28B8
  8
3
 10
133.3426412846168
 20
147.9093677978845
 30
0.0
 11
143.65464128461659
 21
147.9093677978845
 31
0.0
  0
LINE
  5
28B9
  8
3
 10
133.3426412846168
 20
156.2853677978847
 30
0.0
 11
143.6546412846167
 21
156.2853677978847
 31
0.0
  0
LINE
  5
28BA
  8
0
 10
133.3426412846168
 20
157.09736779788449
 30
0.0
 11
142.8426412846168
 21
157.09736779788449
 31
0.0
  0
LINE
  5
28BB
  8
0
 10
142.8426412846168
 20
157.09736779788449
 30
0.0
 11
144.3426412846168
 21
155.5973677978846
 31
0.0
  0
LINE
  5
28BC
  8
0
 10
144.34264128461669
 20
148.59736779788449
 30
0.0
 11
142.84264128461669
 21
147.0973677978846
 31
0.0
  0
LINE
  5
28BD
  8
0
 10
142.8426412846168
 20
157.09736779788449
 30
0.0
 11
142.84264128461669
 21
147.0973677978846
 31
0.0
  0
LINE
  5
28BE
  8
0
 10
132.34264128461689
 20
161.0973677978844
 30
0.0
 11
132.3426412846166
 21
143.0973677978846
 31
0.0
  0
LINE
  5
28BF
  8
1
 10
77.342641284616775
 20
152.0973677978846
 30
0.0
 11
149.34264128461669
 21
152.09736779788369
 31
0.0
  0
LINE
  5
28C0
  8
1
 10
77.342641284616775
 20
26.898027270306638
 30
0.0
 11
149.34264128461669
 21
26.898027270307502
 31
0.0
  0
LINE
  5
28C1
  8
0
 10
132.34264128461689
 20
17.898027270306748
 30
0.0
 11
132.3426412846166
 21
35.898027270306621
 31
0.0
  0
LINE
  5
28C2
  8
0
 10
142.8426412846168
 20
21.898027270306638
 30
0.0
 11
142.84264128461669
 21
31.898027270306638
 31
0.0
  0
LINE
  5
28C3
  8
0
 10
144.34264128461669
 20
30.398027270306638
 30
0.0
 11
142.84264128461669
 21
31.898027270306638
 31
0.0
  0
LINE
  5
28C4
  8
0
 10
142.8426412846168
 20
21.898027270306638
 30
0.0
 11
144.3426412846168
 21
23.398027270306638
 31
0.0
  0
LINE
  5
28C5
  8
0
 10
133.3426412846168
 20
21.898027270306638
 30
0.0
 11
142.8426412846168
 21
21.898027270306638
 31
0.0
  0
LINE
  5
28C6
  8
3
 10
133.3426412846168
 20
22.71002727030654
 30
0.0
 11
143.6546412846167
 21
22.71002727030654
 31
0.0
  0
LINE
  5
28C7
  8
3
 10
133.3426412846168
 20
31.086027270306751
 30
0.0
 11
143.65464128461659
 21
31.086027270306751
 31
0.0
  0
LINE
  5
28C8
  8
0
 10
133.3426412846168
 20
31.89802727030666
 30
0.0
 11
142.84264128461669
 21
31.898027270306638
 31
0.0
  0
LINE
  5
28C9
  8
0
 10
144.3426412846168
 20
23.398027270306638
 30
0.0
 11
144.34264128461669
 21
30.398027270306638
 31
0.0
  0
LINE
  5
28CA
  8
0
 10
131.34264128461689
 20
16.898027270306699
 30
0.0
 11
131.34264128461669
 21
36.898027270306592
 31
0.0
  0
LINE
  5
28CB
  8
0
 10
132.34264128461669
 20
35.898027270306578
 30
0.0
 11
131.34264128461669
 21
36.898027270306592
 31
0.0
  0
LINE
  5
28CC
  8
0
 10
131.34264128461689
 20
16.898027270306699
 30
0.0
 11
132.34264128461689
 21
17.898027270306699
 31
0.0
  0
LINE
  5
28CD
  8
0
 10
92.342641284616775
 20
21.898027270306699
 30
0.0
 11
85.142641284616744
 21
21.898027270306699
 31
0.0
  0
LINE
  5
28CE
  8
0
 10
92.342641284616647
 20
31.898027270306621
 30
0.0
 11
85.142641284616744
 21
31.898027270306621
 31
0.0
  0
LINE
  5
28CF
  8
0
 10
85.142641284616744
 20
21.898027270306699
 30
0.0
 11
85.142641284616744
 21
31.898027270306621
 31
0.0
  0
LINE
  5
28D0
  8
0
 10
92.342641284616647
 20
35.898027270306557
 30
0.0
 11
92.342641284616874
 21
17.898027270306699
 31
0.0
  0
LINE
  5
28D1
  8
0
 10
131.34264128461689
 20
16.898027270306699
 30
0.0
 11
93.342641284616874
 21
16.898027270306699
 31
0.0
  0
LINE
  5
28D2
  8
3
 10
132.34264128461689
 20
18.251027270306711
 30
0.0
 11
92.342641284616874
 21
18.251027270306761
 31
0.0
  0
LINE
  5
28D3
  8
3
 10
132.34264128461669
 20
35.545027270306612
 30
0.0
 11
92.342641284616647
 21
35.545027270306612
 31
0.0
  0
LINE
  5
28D4
  8
0
 10
131.34264128461669
 20
36.898027270306592
 30
0.0
 11
93.342641284616676
 21
36.898027270306557
 31
0.0
  0
LINE
  5
28D5
  8
0
 10
93.342641284616676
 20
36.898027270306557
 30
0.0
 11
92.342641284616647
 21
35.898027270306557
 31
0.0
  0
LINE
  5
28D6
  8
0
 10
92.342641284616874
 20
17.898027270306699
 30
0.0
 11
93.342641284616874
 21
16.898027270306699
 31
0.0
  0
LINE
  5
28D7
  8
0
 10
93.342641284616676
 20
36.898027270306557
 30
0.0
 11
93.342641284616676
 21
16.898027270306699
 31
0.0
  0
LINE
  5
28D8
  8
0
 10
85.142641284616744
 20
21.898027270306699
 30
0.0
 11
83.101706842521082
 21
23.076361319848989
 31
0.0
  0
LINE
  5
28D9
  8
0
 10
85.142641284616744
 20
31.898027270306621
 30
0.0
 11
83.101706842521082
 21
30.719693220764331
 31
0.0
  0
ARC
  5
28DA
  8
0
 10
92.342641284616775
 20
26.898027270306638
 30
0.0
 40
10.0
 50
157.5320487330637
 51
202.46795126693559
  0
LINE
  5
28DB
  8
0
 10
83.101706842520898
 20
23.076361319849099
 30
0.0
 11
83.101706842521025
 21
30.71969322076427
 31
0.0
  0
ARC
  5
29F4
  8
0
 10
191.7905761198835
 20
89.497697534095693
 30
0.0
 40
8.0
 50
217.68780333488391
 51
142.31219666511609
  0
LINE
  5
29F5
  8
0
 10
189.7663478718838
 20
92.947697534095681
 30
0.0
 11
185.56625351325019
 21
94.073109425626015
 31
0.0
  0
LINE
  5
29F6
  8
0
 10
189.7663478718838
 20
86.047697534095704
 30
0.0
 11
185.56625351325019
 21
84.922285642565356
 31
0.0
  0
ARC
  5
29F7
  8
0
 10
185.6180173222707
 20
84.729100477307469
 30
0.0
 40
0.2
 50
104.99999999998769
 51
217.68780333488391
  0
ARC
  5
29F8
  8
0
 10
185.61801732227059
 20
94.266294590883874
 30
0.0
 40
0.2
 50
142.31219666511609
 51
255.0000000000056
  0
LINE
  5
29FA
  8
0
 10
133.34264128461669
 20
97.497697534095494
 30
0.0
 11
132.3426412846168
 21
97.497697534095551
 31
0.0
  0
LINE
  5
29FB
  8
0
 10
132.3426412846168
 20
81.497697534095565
 30
0.0
 11
133.34264128461669
 21
81.497697534095565
 31
0.0
  0
LINE
  5
29FC
  8
0
 10
133.3426412846168
 20
97.497697534095551
 30
0.0
 11
133.3426412846168
 21
92.947697534094885
 31
0.0
  0
LINE
  5
29FD
  8
0
 10
132.3426412846168
 20
94.149296773215639
 30
0.0
 11
133.3426412846168
 21
94.149296773215639
 31
0.0
  0
LINE
  5
29FE
  8
0
 10
132.3426412846168
 20
84.846098294974041
 30
0.0
 11
133.3426412846168
 21
84.846098294974041
 31
0.0
  0
LINE
  5
29FF
  8
0
 10
132.3426412846168
 20
92.947697534094885
 30
0.0
 11
133.3426412846168
 21
92.947697534094885
 31
0.0
  0
LINE
  5
2A00
  8
0
 10
132.3426412846168
 20
86.047697534094894
 30
0.0
 11
133.3426412846168
 21
86.047697534094894
 31
0.0
  0
LINE
  5
2A31
  8
0
 10
133.3426412846168
 20
86.047697534094894
 30
0.0
 11
133.3426412846168
 21
81.497697534095565
 31
0.0
  0
LINE
  5
2A34
  8
0
 10
133.3426412846168
 20
160.09736779788449
 30
0.0
 11
133.3426412846168
 21
145.7248090002717
 31
0.0
  0
LINE
  5
2A44
  8
0
 10
133.3426412846168
 20
160.09736779788449
 30
0.0
 11
132.34264128461689
 21
160.09736779788449
 31
0.0
  0
LINE
  5
2A45
  8
0
 10
133.3426412846168
 20
145.7248090002717
 30
0.0
 11
132.34264128461669
 21
145.7248090002717
 31
0.0
  0
LINE
  5
2A55
  8
0
 10
132.34264128461689
 20
18.89802727030748
 30
0.0
 11
133.3426412846168
 21
18.89802727030748
 31
0.0
  0
LINE
  5
2A56
  8
0
 10
132.34264128461669
 20
33.270586067920313
 30
0.0
 11
133.3426412846168
 21
33.270586067920313
 31
0.0
  0
LINE
  5
2A57
  8
0
 10
133.3426412846168
 20
33.270586067920313
 30
0.0
 11
133.3426412846168
 21
18.89802727030748
 31
0.0
  0
TEXT
  5
2AF4
  8
0
 62
     3
 10
0.0
 20
0.0
 30
0.0
 40
5.0
  1
SDX20N-M8
  7
STANDARD1
  0
ENDSEC
  0
EOF
