  0
SECTION
  2
HEADER
  9
$ACADVER
  1
AC1009
  9
$INSBASE
 10
0.0
 20
0.0
 30
0.0
  9
$EXTMIN
 10
0.0
 20
-1.4802182810368341
 30
0.0
  9
$EXTMAX
 10
164.11892364298421
 20
117.13037070343719
 30
0.0
  9
$LIMMIN
 10
0.0
 20
0.0
  9
$LIMMAX
 10
385.0
 20
270.0
  9
$ORTHOMODE
 70
     1
  9
$REGENMODE
 70
     1
  9
$FILLMODE
 70
     1
  9
$QTEXTMODE
 70
     0
  9
$MIRRTEXT
 70
     0
  9
$DRAGMODE
 70
     2
  9
$LTSCALE
 40
10.0
  9
$OSMODE
 70
    55
  9
$ATTMODE
 70
     1
  9
$TEXTSIZE
 40
4.000000000000048
  9
$TRACEWID
 40
0.05
  9
$TEXTSTYLE
  7
STANDARD
  9
$CLAYER
  8
0
  9
$CELTYPE
  6
BYLAYER
  9
$CECOLOR
 62
   256
  9
$DIMSCALE
 40
1.0
  9
$DIMASZ
 40
3.0
  9
$DIMEXO
 40
2.0
  9
$DIMDLI
 40
0.38
  9
$DIMRND
 40
0.0
  9
$DIMDLE
 40
0.0
  9
$DIMEXE
 40
2.0
  9
$DIMTP
 40
0.0
  9
$DIMTM
 40
0.0
  9
$DIMTXT
 40
3.0
  9
$DIMCEN
 40
0.0
  9
$DIMTSZ
 40
0.0
  9
$DIMTOL
 70
     0
  9
$DIMLIM
 70
     0
  9
$DIMTIH
 70
     0
  9
$DIMTOH
 70
     0
  9
$DIMSE1
 70
     0
  9
$DIMSE2
 70
     0
  9
$DIMTAD
 70
     1
  9
$DIMZIN
 70
     0
  9
$DIMBLK
  1

  9
$DIMASO
 70
     1
  9
$DIMSHO
 70
     0
  9
$DIMPOST
  1

  9
$DIMAPOST
  1

  9
$DIMALT
 70
     0
  9
$DIMALTD
 70
     2
  9
$DIMALTF
 40
25.399999999999999
  9
$DIMLFAC
 40
1.0
  9
$DIMTOFL
 70
     1
  9
$DIMTVP
 40
1.6000000000000001
  9
$DIMTIX
 70
     1
  9
$DIMSOXD
 70
     0
  9
$DIMSAH
 70
     0
  9
$DIMBLK1
  1

  9
$DIMBLK2
  1

  9
$DIMSTYLE
  2
STANDARD
  9
$DIMCLRD
 70
     0
  9
$DIMCLRE
 70
     0
  9
$DIMCLRT
 70
     0
  9
$DIMTFAC
 40
1.0
  9
$DIMGAP
 40
1.0
  9
$LUNITS
 70
     2
  9
$LUPREC
 70
     4
  9
$SKETCHINC
 40
0.1
  9
$FILLETRAD
 40
0.0
  9
$AUNITS
 70
     0
  9
$AUPREC
 70
     4
  9
$MENU
  1
E:\r13\win\SUPPORT\ACAD
  9
$ELEVATION
 40
0.0
  9
$PELEVATION
 40
0.0
  9
$THICKNESS
 40
0.0
  9
$LIMCHECK
 70
     0
  9
$BLIPMODE
 70
     0
  9
$CHAMFERA
 40
0.0
  9
$CHAMFERB
 40
0.0
  9
$SKPOLY
 70
     0
  9
$TDCREATE
 40
2450280.598206134
  9
$TDUPDATE
 40
2456598.4891424542
  9
$TDINDWG
 40
0.097872338
  9
$TDUSRTIMER
 40
0.097872338
  9
$USRTIMER
 70
     1
  9
$ANGBASE
 50
0.0
  9
$ANGDIR
 70
     0
  9
$PDMODE
 70
     0
  9
$PDSIZE
 40
0.0
  9
$PLINEWID
 40
0.0
  9
$COORDS
 70
     1
  9
$SPLFRAME
 70
     0
  9
$SPLINETYPE
 70
     6
  9
$SPLINESEGS
 70
     8
  9
$ATTDIA
 70
     0
  9
$ATTREQ
 70
     1
  9
$HANDLING
 70
     1
  9
$HANDSEED
  5
301D
  9
$SURFTAB1
 70
     6
  9
$SURFTAB2
 70
     6
  9
$SURFTYPE
 70
     6
  9
$SURFU
 70
     6
  9
$SURFV
 70
     6
  9
$UCSNAME
  2

  9
$UCSORG
 10
0.0
 20
0.0
 30
0.0
  9
$UCSXDIR
 10
1.0
 20
0.0
 30
0.0
  9
$UCSYDIR
 10
0.0
 20
1.0
 30
0.0
  9
$PUCSNAME
  2

  9
$PUCSORG
 10
0.0
 20
0.0
 30
0.0
  9
$PUCSXDIR
 10
1.0
 20
0.0
 30
0.0
  9
$PUCSYDIR
 10
0.0
 20
1.0
 30
0.0
  9
$USERI1
 70
     3
  9
$USERI2
 70
     1
  9
$USERI3
 70
     1
  9
$USERI4
 70
     0
  9
$USERI5
 70
     0
  9
$USERR1
 40
1.0
  9
$USERR2
 40
3.0
  9
$USERR3
 40
3.0
  9
$USERR4
 40
3.0
  9
$USERR5
 40
10.0
  9
$WORLDVIEW
 70
     1
  9
$SHADEDGE
 70
     3
  9
$SHADEDIF
 70
    70
  9
$TILEMODE
 70
     1
  9
$MAXACTVP
 70
    16
  9
$PLIMCHECK
 70
     0
  9
$PEXTMIN
 10
1.0000000000000000E+020
 20
1.0000000000000000E+020
 30
1.0000000000000000E+020
  9
$PEXTMAX
 10
-1.0000000000000000E+020
 20
-1.0000000000000000E+020
 30
-1.0000000000000000E+020
  9
$PLIMMIN
 10
0.0
 20
0.0
  9
$PLIMMAX
 10
12.0
 20
9.0
  9
$UNITMODE
 70
     0
  9
$VISRETAIN
 70
     0
  9
$PLINEGEN
 70
     0
  9
$PSLTSCALE
 70
     0
  0
ENDSEC
  0
SECTION
  2
TABLES
  0
TABLE
  2
VPORT
 70
     1
  0
VPORT
  2
*ACTIVE
 70
     0
 10
0.0
 20
0.0
 11
1.0
 21
1.0
 12
192.49412581440311
 22
175.433388831352
 13
0.0
 23
0.0
 14
5.0
 24
5.0
 15
10.0
 25
10.0
 16
0.0
 26
0.0
 36
1.0
 17
0.0
 27
0.0
 37
0.0
 40
356.9701552237488
 41
1.7807262569832401
 42
50.0
 43
0.0
 44
0.0
 50
0.0
 51
0.0
 71
     0
 72
   500
 73
     1
 74
     0
 75
     0
 76
     0
 77
     0
 78
     2
  0
ENDTAB
  0
TABLE
  2
LTYPE
 70
     3
  0
LTYPE
  2
CONTINUOUS
 70
     0
  3
Solid Line
 72
    65
 73
     0
 40
0.0
  0
LTYPE
  2
CENTER
 70
     0
  3
____ _ ____ _ ____ _ ____ _ ____ _ ____ _ ____
 72
    65
 73
     4
 40
2.0
 49
1.25
 49
-0.25
 49
0.25
 49
-0.25
  0
LTYPE
  2
PHANTOM2
 70
     0
  3
___ _ _ ___ _ _ ___ _ _ ___ _ _
 72
    65
 73
     6
 40
1.25
 49
0.625
 49
-0.125
 49
0.125
 49
-0.125
 49
0.125
 49
-0.125
  0
ENDTAB
  0
TABLE
  2
LAYER
 70
     3
  0
LAYER
  2
0
 70
     0
 62
     7
  6
CONTINUOUS
  0
LAYER
  2
1
 70
     0
 62
     1
  6
CENTER
  0
LAYER
  2
3
 70
     0
 62
     3
  6
CONTINUOUS
  0
ENDTAB
  0
TABLE
  2
STYLE
 70
     2
  0
STYLE
  2
STANDARD
 70
     0
 40
0.0
 41
1.0
 50
0.0
 71
     0
 42
4.000000000000048
  3
SIMPLEX
  4
BIGFONT
  0
STYLE
  2
STANDARD1
 70
     0
 40
0.0
 41
1.0
 50
0.0
 71
     0
 42
3.0
  3
txt
  4

  0
ENDTAB
  0
TABLE
  2
VIEW
 70
     0
  0
ENDTAB
  0
TABLE
  2
UCS
 70
     0
  0
ENDTAB
  0
TABLE
  2
APPID
 70
     3
  0
APPID
  2
ACAD
 70
     0
  0
APPID
  2
ACAD_MLEADERVER
 70
     0
  0
APPID
  2
ACAD_NAV_VCDISPLAY
 70
     0
  0
ENDTAB
  0
TABLE
  2
DIMSTYLE
 70
     1
  0
DIMSTYLE
  2
STANDARD
 70
     0
  3

  4

  5

  6

  7

 40
1.0
 41
0.18
 42
0.0625
 43
0.38
 44
0.18
 45
0.0
 46
0.0
 47
0.0
 48
0.0
140
0.18
141
0.09
142
0.0
143
25.399999999999999
144
1.0
145
0.0
146
1.0
147
0.09
 71
     0
 72
     0
 73
     1
 74
     1
 75
     0
 76
     0
 77
     0
 78
     0
170
     0
171
     2
172
     0
173
     0
174
     0
175
     0
176
     0
177
     0
178
     0
  0
ENDTAB
  0
ENDSEC
  0
SECTION
  2
BLOCKS
  0
BLOCK
  8
0
  2
$MODEL_SPACE
 70
     0
 10
0.0
 20
0.0
 30
0.0
  3
$MODEL_SPACE
  1

  0
ENDBLK
  5
2CA7
  8
0
  0
BLOCK
 67
     1
  8
0
  2
$PAPER_SPACE
 70
     0
 10
0.0
 20
0.0
 30
0.0
  3
$PAPER_SPACE
  1

  0
ENDBLK
  5
2CA5
 67
     1
  8
0
  0
ENDSEC
  0
SECTION
  2
ENTITIES
  0
LINE
  5
2B6C
  8
0
 10
106.2727651614731
 20
76.643019915317481
 30
0.0
 11
106.2727651614731
 21
64.643019915317481
 31
0.0
  0
LINE
  5
2B6D
  8
0
 10
74.072765161473185
 20
73.643019915317467
 30
0.0
 11
78.272765161472947
 21
73.643019915317467
 31
0.0
  0
LINE
  5
2B6E
  8
0
 10
78.272765161472947
 20
75.593019915329165
 30
0.0
 11
79.272765161472947
 21
76.643019915365102
 31
0.0
  0
LINE
  5
2B6F
  8
0
 10
78.272765161472947
 20
65.693019915305811
 30
0.0
 11
79.272765161472947
 21
64.643019915269875
 31
0.0
  0
LINE
  5
2B70
  8
0
 10
74.072765161473185
 20
67.643019915317453
 30
0.0
 11
78.272765161472947
 21
67.643019915317453
 31
0.0
  0
LINE
  5
2B71
  8
0
 10
78.272765161472947
 20
75.593019915329165
 30
0.0
 11
78.272765161472947
 21
65.693019915305811
 31
0.0
  0
LINE
  5
2B72
  8
0
 10
79.272765161472947
 20
76.643019915365102
 30
0.0
 11
79.272765161472947
 21
64.643019915269875
 31
0.0
  0
LINE
  5
2B73
  8
3
 10
78.370806737646802
 20
75.695963570315229
 30
0.0
 11
84.259114224948959
 21
75.695963570315229
 31
0.0
  0
LINE
  5
2B74
  8
0
 10
79.272765161473288
 20
76.643019915365443
 30
0.0
 11
84.259114224948959
 21
76.643019915356376
 31
0.0
  0
LINE
  5
2B75
  8
3
 10
78.370806737646859
 20
65.590076260319663
 30
0.0
 11
84.259114224948959
 21
65.590076260319648
 31
0.0
  0
LINE
  5
2B76
  8
0
 10
79.272765161472947
 20
64.643019915269875
 30
0.0
 11
84.259114224948959
 21
64.643019915278856
 31
0.0
  0
LINE
  5
2B77
  8
0
 10
105.272765161473
 20
64.643019915316756
 30
0.0
 11
106.272765161473
 21
65.643019915318561
 31
0.0
  0
LINE
  5
2B78
  8
0
 10
105.272765161473
 20
76.643019915318177
 30
0.0
 11
106.272765161473
 21
75.643019915316344
 31
0.0
  0
LINE
  5
2B79
  8
0
 10
102.772765161473
 20
71.443019915317421
 30
0.0
 11
102.772765161473
 21
69.843019915317427
 31
0.0
  0
LINE
  5
2B7A
  8
0
 10
102.772765161473
 20
71.443019915317436
 30
0.0
 11
106.272765161473
 21
71.443019915317436
 31
0.0
  0
LINE
  5
2B7B
  8
0
 10
102.772765161473
 20
69.843019915317441
 30
0.0
 11
106.272765161473
 21
69.843019915317427
 31
0.0
  0
LINE
  5
2B7C
  8
0
 10
105.272765161473
 20
64.643019915316756
 30
0.0
 11
105.2727651614731
 21
69.843019915317427
 31
0.0
  0
LINE
  5
2B7D
  8
0
 10
105.2727651614731
 20
71.44301991531745
 30
0.0
 11
105.272765161473
 21
76.643019915318135
 31
0.0
  0
LINE
  5
2B7E
  8
0
 10
74.072765161473185
 20
67.643019915317439
 30
0.0
 11
74.072765161473185
 21
73.643019915317481
 31
0.0
  0
LINE
  5
2B7F
  8
0
 10
74.072765161473185
 20
67.643019915317439
 30
0.0
 11
72.691690556275546
 21
68.44038371039926
 31
0.0
  0
LINE
  5
2B80
  8
0
 10
74.072765161473185
 20
73.643019915317467
 30
0.0
 11
72.691690556275844
 21
72.84565612023583
 31
0.0
  0
ARC
  5
2B81
  8
0
 10
78.272765161473174
 20
70.643019915317453
 30
0.0
 40
6.0
 50
158.46275075361859
 51
201.53724924637871
  0
LINE
  5
2B82
  8
0
 10
72.691690556274906
 20
68.44038371039963
 30
0.0
 11
72.691690556274921
 21
72.845656120235304
 31
0.0
  0
CIRCLE
  5
2B83
  8
0
 10
38.858149382721557
 20
70.643019915317439
 30
0.0
 40
6.0
  0
CIRCLE
  5
2B84
  8
3
 10
38.858149382721557
 20
70.643019915317439
 30
0.0
 40
5.052999999999999
  0
CIRCLE
  5
2B85
  8
0
 10
38.858149382721557
 20
70.643019915317439
 30
0.0
 40
3.0
  0
CIRCLE
  5
2B86
  8
0
 10
38.858149382721557
 20
70.643019915317439
 30
0.0
 40
2.2026362049170838
  0
LINE
  5
2B87
  8
1
 10
67.272765161473174
 20
70.643019915317595
 30
0.0
 11
119.27276516147261
 21
70.643019915317595
 31
0.0
  0
LINE
  5
2B88
  8
0
 10
113.2727651614731
 20
67.643019915317609
 30
0.0
 11
113.2727651614732
 21
73.643019915317595
 31
0.0
  0
LINE
  5
2B89
  8
0
 10
114.2727651614731
 20
68.643019915317595
 30
0.0
 11
113.2727651614731
 21
67.643019915317609
 31
0.0
  0
LINE
  5
2B8A
  8
0
 10
113.2727651614732
 20
73.643019915317595
 30
0.0
 11
114.2727651614732
 21
72.643019915317595
 31
0.0
  0
LINE
  5
2B8B
  8
0
 10
106.97276516147321
 20
73.643019915317595
 30
0.0
 11
113.2727651614732
 21
73.643019915317595
 31
0.0
  0
LINE
  5
2B8C
  8
3
 10
106.272765161473
 20
73.101519915317709
 30
0.0
 11
113.8142651614731
 21
73.101519915317695
 31
0.0
  0
LINE
  5
2B8D
  8
3
 10
106.272765161473
 20
68.184519915317537
 30
0.0
 11
113.814265161473
 21
68.184519915317509
 31
0.0
  0
LINE
  5
2B8E
  8
0
 10
106.97276516147321
 20
67.643019915317595
 30
0.0
 11
113.2727651614731
 21
67.643019915317609
 31
0.0
  0
LINE
  5
2B8F
  8
0
 10
114.2727651614732
 20
72.643019915317595
 30
0.0
 11
114.2727651614731
 21
68.643019915317595
 31
0.0
  0
ARC
  5
2B90
  8
3
 10
149.61892364298421
 20
70.643019915317439
 30
0.0
 40
5.052999999999999
 50
140.14314210504719
 51
219.8568578949513
  0
CIRCLE
  5
2B91
  8
0
 10
149.61892364298421
 20
70.643019915317439
 30
0.0
 40
6.0
  0
CIRCLE
  5
2B92
  8
0
 10
149.61892364298421
 20
70.643019915317439
 30
0.0
 40
3.0
  0
CIRCLE
  5
2B93
  8
3
 10
149.61892364298421
 20
70.643019915317439
 30
0.0
 40
2.458499999999999
  0
LINE
  5
2B94
  8
0
 10
143.67249614405671
 20
71.44301991531745
 30
0.0
 11
146.72755718402391
 21
71.44301991531745
 31
0.0
  0
LINE
  5
2B95
  8
0
 10
143.67249614405671
 20
69.843019915317456
 30
0.0
 11
146.72755718402391
 21
69.84301991531747
 31
0.0
  0
LINE
  5
2B98
  8
0
 10
85.396295135574775
 20
59.673364800714559
 30
0.0
 11
84.259114224948959
 21
61.643019915316231
 31
0.0
  0
ARC
  5
2B99
  8
0
 10
89.403852581552243
 20
62.41577857936521
 30
0.0
 40
4.8560632220084576
 50
145.6157525319928
 51
205.6157525319164
  0
ARC
  5
2B9A
  8
0
 10
102.69928358352919
 20
70.643019915317581
 30
0.0
 40
18.15149422398537
 50
162.41204622602379
 51
197.58795377397621
  0
ARC
  5
2B9B
  8
0
 10
89.403852581552243
 20
78.87026125126998
 30
0.0
 40
4.8560632220084576
 50
154.3842474680836
 51
214.3842474680072
  0
LINE
  5
2B9C
  8
0
 10
85.396295135574775
 20
81.612675029920624
 30
0.0
 11
84.259114224948959
 21
79.643019915318959
 31
0.0
  0
LINE
  5
2B9D
  8
0
 10
84.259114224948959
 20
61.643019915316231
 30
0.0
 11
84.259114224948959
 21
79.643019915318959
 31
0.0
  0
LINE
  5
2B9E
  8
0
 10
90.259114224948959
 20
61.643019915316231
 30
0.0
 11
90.259114224948959
 21
79.643019915318959
 31
0.0
  0
LINE
  5
2B9F
  8
0
 10
89.121933314323115
 20
81.612675029920624
 30
0.0
 11
90.259114224948959
 21
79.643019915318959
 31
0.0
  0
ARC
  5
2BA0
  8
0
 10
85.114375868345675
 20
78.87026125126998
 30
0.0
 40
4.8560632220084576
 50
325.61575253199288
 51
25.615752531916399
  0
ARC
  5
2BA1
  8
0
 10
71.818944866368653
 20
70.643019915317595
 30
0.0
 40
18.15149422398537
 50
342.41204622602379
 51
17.58795377397621
  0
ARC
  5
2BA2
  8
0
 10
85.114375868345675
 20
62.41577857936521
 30
0.0
 40
4.8560632220084576
 50
334.38424746808357
 51
34.384247468007182
  0
LINE
  5
2BA3
  8
0
 10
89.121933314323115
 20
59.673364800714559
 30
0.0
 11
90.259114224948959
 21
61.643019915316231
 31
0.0
  0
LINE
  5
2BA4
  8
0
 10
85.396295135574775
 20
59.673364800714559
 30
0.0
 11
89.121933314323243
 21
59.673364800714559
 31
0.0
  0
LINE
  5
2BA5
  8
0
 10
85.396295135574775
 20
65.158192358020401
 30
0.0
 11
89.121933314323456
 21
65.158192358016308
 31
0.0
  0
LINE
  5
2BA6
  8
0
 10
85.396295135574775
 20
81.612675029920624
 30
0.0
 11
89.121933314323243
 21
81.612675029920624
 31
0.0
  0
LINE
  5
2BA7
  8
0
 10
85.396295135574775
 20
76.127847472614775
 30
0.0
 11
89.121933314323456
 21
76.127847472618882
 31
0.0
  0
LINE
  5
2BA8
  8
3
 10
90.259114224948959
 20
75.695963570315229
 30
0.0
 11
106.2198215064742
 21
75.695963570315229
 31
0.0
  0
LINE
  5
2BA9
  8
0
 10
90.259114224948959
 20
76.643019915345462
 30
0.0
 11
105.272765161473
 21
76.643019915318177
 31
0.0
  0
LINE
  5
2BAA
  8
3
 10
90.259114224948959
 20
65.590076260319634
 30
0.0
 11
106.2198215064742
 21
65.590076260319606
 31
0.0
  0
LINE
  5
2BAB
  8
0
 10
90.259114224948959
 20
64.643019915289685
 30
0.0
 11
105.272765161473
 21
64.643019915316756
 31
0.0
  0
LINE
  5
2BAC
  8
0
 10
29.35814938272156
 20
76.127847472618825
 30
0.0
 11
29.35814938272156
 21
65.158192358016152
 31
0.0
  0
CIRCLE
  5
2BAD
  8
0
 10
38.858149382721557
 20
70.643019915317439
 30
0.0
 40
9.0
  0
LINE
  5
2BAE
  8
0
 10
29.35814938272156
 20
65.158192358016152
 30
0.0
 11
38.858149382721557
 21
59.67336480071463
 31
0.0
  0
LINE
  5
2BAF
  8
0
 10
38.858149382721557
 20
59.67336480071463
 30
0.0
 11
48.358149382721557
 21
65.158192358015924
 31
0.0
  0
LINE
  5
2BB0
  8
0
 10
48.358149382721557
 20
65.158192358015924
 30
0.0
 11
48.358149382721557
 21
76.127847472618726
 31
0.0
  0
LINE
  5
2BB1
  8
0
 10
48.358149382721557
 20
76.127847472618726
 30
0.0
 11
38.858149382721557
 21
81.612675029920354
 31
0.0
  0
LINE
  5
2BB2
  8
0
 10
38.858149382721557
 20
81.612675029920354
 30
0.0
 11
29.35814938272156
 21
76.127847472618825
 31
0.0
  0
LINE
  5
2BB3
  8
1
 10
38.85814938272155
 20
54.67336480071463
 30
0.0
 11
38.858149382721557
 21
86.612675029920354
 31
0.0
  0
LINE
  5
2BB4
  8
1
 10
24.35814938272156
 20
70.643019915317495
 30
0.0
 11
53.358149382721557
 21
70.643019915317495
 31
0.0
  0
LINE
  5
2BB5
  8
0
 10
159.11892364298421
 20
65.158192358015924
 30
0.0
 11
159.11892364298421
 21
76.127847472618726
 31
0.0
  0
LINE
  5
2BB6
  8
0
 10
149.61892364298421
 20
59.67336480071463
 30
0.0
 11
159.11892364298421
 21
65.158192358015924
 31
0.0
  0
CIRCLE
  5
2BB7
  8
0
 10
149.61892364298421
 20
70.643019915317439
 30
0.0
 40
9.0
  0
LINE
  5
2BB8
  8
0
 10
140.11892364298421
 20
65.158192358016152
 30
0.0
 11
149.61892364298421
 21
59.67336480071463
 31
0.0
  0
LINE
  5
2BB9
  8
1
 10
149.61892364298421
 20
54.67336480071463
 30
0.0
 11
149.61892364298421
 21
86.612675029920354
 31
0.0
  0
LINE
  5
2BBA
  8
1
 10
135.11892364298421
 20
70.643019915317495
 30
0.0
 11
164.11892364298421
 21
70.643019915317495
 31
0.0
  0
LINE
  5
2BBB
  8
0
 10
140.11892364298421
 20
76.127847472618825
 30
0.0
 11
140.11892364298421
 21
65.158192358016152
 31
0.0
  0
LINE
  5
2BBC
  8
0
 10
149.61892364298421
 20
81.612675029920354
 30
0.0
 11
140.11892364298421
 21
76.127847472618825
 31
0.0
  0
LINE
  5
2BBD
  8
0
 10
159.11892364298421
 20
76.127847472618726
 30
0.0
 11
149.61892364298421
 21
81.612675029920354
 31
0.0
  0
LINE
  5
2BCC
  8
0
 10
74.072765161473185
 20
110.63037070343729
 30
0.0
 11
78.272765161472947
 21
110.63037070343729
 31
0.0
  0
LINE
  5
2BCD
  8
0
 10
78.272765161472947
 20
112.58037070344901
 30
0.0
 11
79.272765161472947
 21
113.6303707034849
 31
0.0
  0
LINE
  5
2BCE
  8
0
 10
78.272765161472947
 20
102.6803707034256
 30
0.0
 11
79.272765161472947
 21
101.6303707033897
 31
0.0
  0
LINE
  5
2BCF
  8
0
 10
74.072765161473185
 20
104.63037070343729
 30
0.0
 11
78.272765161472947
 21
104.63037070343729
 31
0.0
  0
LINE
  5
2BD0
  8
0
 10
78.272765161472947
 20
112.58037070344901
 30
0.0
 11
78.272765161472947
 21
102.6803707034256
 31
0.0
  0
LINE
  5
2BD1
  8
0
 10
79.272765161472947
 20
113.6303707034849
 30
0.0
 11
79.272765161472947
 21
101.6303707033897
 31
0.0
  0
LINE
  5
2BD3
  8
0
 10
79.272765161473288
 20
113.6303707034853
 30
0.0
 11
84.259114224948959
 21
113.6303707034762
 31
0.0
  0
LINE
  5
2BD5
  8
0
 10
79.272765161472947
 20
101.6303707033897
 30
0.0
 11
84.259114224948959
 21
101.6303707033986
 31
0.0
  0
LINE
  5
2BD6
  8
0
 10
105.272765161473
 20
101.6303707034365
 30
0.0
 11
106.272765161473
 21
102.6303707034384
 31
0.0
  0
LINE
  5
2BD7
  8
0
 10
105.272765161473
 20
113.630370703438
 30
0.0
 11
106.272765161473
 21
112.6303707034362
 31
0.0
  0
LINE
  5
2BD8
  8
0
 10
105.272765161473
 20
101.6303707034365
 30
0.0
 11
105.2727651614731
 21
113.630370703438
 31
0.0
  0
LINE
  5
2BD9
  8
0
 10
74.072765161473185
 20
104.63037070343719
 30
0.0
 11
74.072765161473185
 21
110.63037070343729
 31
0.0
  0
LINE
  5
2BDA
  8
0
 10
74.072765161473185
 20
104.63037070343719
 30
0.0
 11
72.69169055627556
 21
105.427734498519
 31
0.0
  0
LINE
  5
2BDB
  8
0
 10
74.072765161473185
 20
110.63037070343729
 30
0.0
 11
72.691690556275844
 21
109.8330069083556
 31
0.0
  0
ARC
  5
2BDC
  8
0
 10
78.272765161473174
 20
107.63037070343729
 30
0.0
 40
6.0
 50
158.46275075361859
 51
201.53724924637871
  0
LINE
  5
2BDD
  8
0
 10
72.691690556274906
 20
105.4277344985194
 30
0.0
 11
72.691690556274935
 21
109.8330069083551
 31
0.0
  0
LINE
  5
2BDE
  8
0
 10
114.2727651614732
 20
109.63037070343729
 30
0.0
 11
114.2727651614731
 21
105.63037070343729
 31
0.0
  0
LINE
  5
2BDF
  8
0
 10
106.97276516147311
 20
104.63037070343729
 30
0.0
 11
113.2727651614731
 21
104.63037070343729
 31
0.0
  0
LINE
  5
2BE0
  8
3
 10
106.97276516147301
 20
105.17187070343719
 30
0.0
 11
113.814265161473
 21
105.17187070343719
 31
0.0
  0
LINE
  5
2BE1
  8
3
 10
106.97276516147301
 20
110.08887070343739
 30
0.0
 11
113.8142651614731
 21
110.08887070343739
 31
0.0
  0
LINE
  5
2BE2
  8
0
 10
106.97276516147311
 20
110.63037070343729
 30
0.0
 11
113.2727651614732
 21
110.63037070343729
 31
0.0
  0
LINE
  5
2BE3
  8
0
 10
113.2727651614732
 20
110.63037070343729
 30
0.0
 11
114.2727651614732
 21
109.63037070343729
 31
0.0
  0
LINE
  5
2BE4
  8
0
 10
114.2727651614731
 20
105.63037070343729
 30
0.0
 11
113.2727651614731
 21
104.63037070343729
 31
0.0
  0
LINE
  5
2BE5
  8
0
 10
113.2727651614731
 20
104.63037070343729
 30
0.0
 11
113.2727651614732
 21
110.63037070343729
 31
0.0
  0
LINE
  5
2BE6
  8
0
 10
106.2727651614731
 20
113.63037070347281
 30
0.0
 11
106.272765161473
 21
102.6303707034383
 31
0.0
  0
LINE
  5
2BE7
  8
1
 10
67.272765161473174
 20
107.63037070343751
 30
0.0
 11
119.2727651614731
 21
107.6303707034367
 31
0.0
  0
LINE
  5
2BE8
  8
0
 10
84.547789359543856
 20
117.13037070343719
 30
0.0
 11
84.259114224948959
 21
116.63037070343719
 31
0.0
  0
ARC
  5
2BE9
  8
0
 10
98.267473249536962
 20
112.38037070343719
 30
0.0
 40
13.719683889993171
 50
159.743841999604
 51
200.2561580003962
  0
LINE
  5
2BEA
  8
0
 10
90.259114224948959
 20
116.63037070343719
 30
0.0
 11
89.898642320628866
 21
117.13037070343719
 31
0.0
  0
LINE
  5
2BEB
  8
0
 10
89.898642320628866
 20
117.13037070343719
 30
0.0
 11
84.547789359543856
 21
117.13037070343719
 31
0.0
  0
ARC
  5
2BEC
  8
0
 10
76.250755200360956
 20
112.38037070343719
 30
0.0
 40
13.719683889993171
 50
339.74384199960389
 51
20.256158000395988
  0
ARC
  5
2BED
  8
0
 10
76.250755200360956
 20
102.88037070343719
 30
0.0
 40
13.719683889993171
 50
339.743841999604
 51
20.256158000396152
  0
LINE
  5
2BEE
  8
0
 10
89.898642320628866
 20
98.130370703437265
 30
0.0
 11
84.547789359543856
 21
98.130370703437265
 31
0.0
  0
LINE
  5
2BEF
  8
0
 10
90.259114224948959
 20
98.630370703437265
 30
0.0
 11
89.898642320628866
 21
98.130370703437265
 31
0.0
  0
ARC
  5
2BF0
  8
0
 10
98.267473249536962
 20
102.88037070343719
 30
0.0
 40
13.719683889993171
 50
159.7438419996038
 51
200.25615800039591
  0
LINE
  5
2BF1
  8
0
 10
84.547789359543856
 20
98.130370703437265
 30
0.0
 11
84.259114224948959
 21
98.630370703437265
 31
0.0
  0
LINE
  5
2BF2
  8
0
 10
84.259114224948959
 20
98.630370703437265
 30
0.0
 11
84.259114224948959
 21
116.63037070343719
 31
0.0
  0
LINE
  5
2BF3
  8
0
 10
90.259114224948959
 20
116.63037070343719
 30
0.0
 11
90.259114224948959
 21
98.630370703437265
 31
0.0
  0
LINE
  5
2BF4
  8
0
 10
85.396295135574775
 20
107.6303707034341
 30
0.0
 11
89.121933314323115
 21
107.63037070343719
 31
0.0
  0
LINE
  5
2BF6
  8
0
 10
90.259114224948959
 20
113.6303707034653
 30
0.0
 11
105.272765161473
 21
113.630370703438
 31
0.0
  0
LINE
  5
2BF8
  8
0
 10
90.259114224948959
 20
101.6303707034095
 30
0.0
 11
105.272765161473
 21
101.6303707034365
 31
0.0
  0
LINE
  5
2BF9
  8
0
 10
90.259114224948959
 20
39.655669127225693
 30
0.0
 11
105.272765161473
 21
39.655669127198621
 31
0.0
  0
LINE
  5
2BFB
  8
0
 10
90.259114224948959
 20
27.65566912716989
 30
0.0
 11
105.272765161473
 21
27.6556691271972
 31
0.0
  0
LINE
  5
2BFD
  8
0
 10
85.396295135574775
 20
33.655669127201108
 30
0.0
 11
89.121933314323115
 21
33.655669127197918
 31
0.0
  0
LINE
  5
2BFE
  8
0
 10
90.259114224948959
 20
24.655669127197928
 30
0.0
 11
90.259114224948959
 21
42.655669127197918
 31
0.0
  0
LINE
  5
2BFF
  8
0
 10
84.259114224948959
 20
42.655669127197918
 30
0.0
 11
84.259114224948959
 21
24.655669127197928
 31
0.0
  0
LINE
  5
2C00
  8
0
 10
84.547789359543856
 20
43.155669127197918
 30
0.0
 11
84.259114224948959
 21
42.655669127197918
 31
0.0
  0
ARC
  5
2C01
  8
0
 10
98.267473249536962
 20
38.405669127197932
 30
0.0
 40
13.719683889993171
 50
159.743841999604
 51
200.2561580003962
  0
LINE
  5
2C02
  8
0
 10
90.259114224948959
 20
42.655669127197918
 30
0.0
 11
89.898642320628866
 21
43.155669127197918
 31
0.0
  0
LINE
  5
2C03
  8
0
 10
89.898642320628866
 20
43.155669127197918
 30
0.0
 11
84.547789359543856
 21
43.155669127197918
 31
0.0
  0
ARC
  5
2C04
  8
0
 10
76.250755200360956
 20
38.405669127197932
 30
0.0
 40
13.719683889993171
 50
339.74384199960389
 51
20.256158000395999
  0
ARC
  5
2C05
  8
0
 10
76.250755200360956
 20
28.905669127197928
 30
0.0
 40
13.719683889993171
 50
339.743841999604
 51
20.256158000396159
  0
LINE
  5
2C06
  8
0
 10
89.898642320628866
 20
24.155669127197928
 30
0.0
 11
84.547789359543856
 21
24.155669127197928
 31
0.0
  0
LINE
  5
2C07
  8
0
 10
90.259114224948959
 20
24.655669127197928
 30
0.0
 11
89.898642320628866
 21
24.155669127197928
 31
0.0
  0
ARC
  5
2C08
  8
0
 10
98.267473249536962
 20
28.905669127197928
 30
0.0
 40
13.719683889993171
 50
159.7438419996038
 51
200.25615800039591
  0
LINE
  5
2C09
  8
0
 10
84.547789359543856
 20
24.155669127197928
 30
0.0
 11
84.259114224948959
 21
24.655669127197928
 31
0.0
  0
LINE
  5
2C0A
  8
1
 10
67.272765161473174
 20
33.655669127197697
 30
0.0
 11
119.27276516147209
 21
33.655669127198443
 31
0.0
  0
LINE
  5
2C0B
  8
0
 10
106.2727651614731
 20
27.65566912716244
 30
0.0
 11
106.272765161473
 21
38.655669127196902
 31
0.0
  0
LINE
  5
2C0C
  8
0
 10
113.2727651614731
 20
36.655669127197903
 30
0.0
 11
113.2727651614732
 21
30.65566912719791
 31
0.0
  0
LINE
  5
2C0D
  8
0
 10
114.2727651614731
 20
35.655669127197903
 30
0.0
 11
113.2727651614731
 21
36.655669127197903
 31
0.0
  0
LINE
  5
2C0E
  8
0
 10
113.2727651614732
 20
30.65566912719791
 30
0.0
 11
114.2727651614732
 21
31.65566912719791
 31
0.0
  0
LINE
  5
2C0F
  8
0
 10
106.97276516147249
 20
30.6556691271979
 30
0.0
 11
113.2727651614732
 21
30.65566912719791
 31
0.0
  0
LINE
  5
2C10
  8
3
 10
106.97276516147259
 20
31.197169127197789
 30
0.0
 11
113.8142651614731
 21
31.19716912719781
 31
0.0
  0
LINE
  5
2C11
  8
3
 10
106.97276516147259
 20
36.114169127197968
 30
0.0
 11
113.814265161473
 21
36.114169127197982
 31
0.0
  0
LINE
  5
2C12
  8
0
 10
106.97276516147259
 20
36.655669127197903
 30
0.0
 11
113.2727651614731
 21
36.655669127197903
 31
0.0
  0
LINE
  5
2C13
  8
0
 10
114.2727651614732
 20
31.65566912719791
 30
0.0
 11
114.2727651614731
 21
35.655669127197903
 31
0.0
  0
LINE
  5
2C14
  8
0
 10
72.691690556274906
 20
35.858305332115719
 30
0.0
 11
72.691690556274935
 21
31.453032922280052
 31
0.0
  0
ARC
  5
2C15
  8
0
 10
78.272765161473174
 20
33.65566912719791
 30
0.0
 40
6.0
 50
158.46275075362129
 51
201.53724924638141
  0
LINE
  5
2C16
  8
0
 10
74.072765161473185
 20
30.655669127197879
 30
0.0
 11
72.691690556275844
 21
31.45303292227954
 31
0.0
  0
LINE
  5
2C17
  8
0
 10
74.072765161473185
 20
36.655669127197939
 30
0.0
 11
72.69169055627556
 21
35.858305332116117
 31
0.0
  0
LINE
  5
2C18
  8
0
 10
74.072765161473185
 20
36.655669127197939
 30
0.0
 11
74.072765161473185
 21
30.655669127197879
 31
0.0
  0
LINE
  5
2C19
  8
0
 10
105.272765161473
 20
39.655669127198621
 30
0.0
 11
105.2727651614731
 21
27.6556691271972
 31
0.0
  0
LINE
  5
2C1A
  8
0
 10
105.272765161473
 20
27.6556691271972
 30
0.0
 11
106.272765161473
 21
28.655669127199019
 31
0.0
  0
LINE
  5
2C1B
  8
0
 10
105.272765161473
 20
39.655669127198621
 30
0.0
 11
106.272765161473
 21
38.655669127196802
 31
0.0
  0
LINE
  5
2C1C
  8
0
 10
79.272765161472947
 20
39.655669127245488
 30
0.0
 11
84.259114224948959
 21
39.655669127236521
 31
0.0
  0
LINE
  5
2C1E
  8
0
 10
79.272765161473288
 20
27.65566912714991
 30
0.0
 11
84.259114224948959
 21
27.655669127158969
 31
0.0
  0
LINE
  5
2C20
  8
0
 10
79.272765161472947
 20
27.655669127150251
 30
0.0
 11
79.272765161472947
 21
39.655669127245488
 31
0.0
  0
LINE
  5
2C21
  8
0
 10
78.272765161472947
 20
28.705669127186191
 30
0.0
 11
78.272765161472947
 21
38.605669127209552
 31
0.0
  0
LINE
  5
2C22
  8
0
 10
74.072765161473185
 20
36.65566912719791
 30
0.0
 11
78.272765161472947
 21
36.65566912719791
 31
0.0
  0
LINE
  5
2C23
  8
0
 10
78.272765161472947
 20
38.605669127209552
 30
0.0
 11
79.272765161472947
 21
39.655669127245488
 31
0.0
  0
LINE
  5
2C24
  8
0
 10
78.272765161472947
 20
28.705669127186191
 30
0.0
 11
79.272765161472947
 21
27.655669127150251
 31
0.0
  0
LINE
  5
2C25
  8
0
 10
74.072765161473185
 20
30.655669127197879
 30
0.0
 11
78.272765161472947
 21
30.655669127197879
 31
0.0
  0
LINE
  5
2DFA
  8
3
 10
90.259114224948959
 20
112.6833143584349
 30
0.0
 11
106.2198215064742
 21
112.6833143584349
 31
0.0
  0
LINE
  5
2DFB
  8
3
 10
78.370806737646802
 20
112.6833143584349
 30
0.0
 11
84.259114224948959
 21
112.6833143584349
 31
0.0
  0
LINE
  5
2DFC
  8
3
 10
78.370806737646859
 20
102.5774270484393
 30
0.0
 11
84.259114224948959
 21
102.5774270484393
 31
0.0
  0
LINE
  5
2DFD
  8
3
 10
90.259114224948959
 20
102.5774270484393
 30
0.0
 11
106.2198215064742
 21
102.5774270484393
 31
0.0
  0
LINE
  5
2DFE
  8
3
 10
90.259114224948959
 20
38.708612782195772
 30
0.0
 11
106.2198215064742
 21
38.708612782195772
 31
0.0
  0
LINE
  5
2DFF
  8
3
 10
78.370806737646802
 20
38.708612782195772
 30
0.0
 11
84.259114224948959
 21
38.708612782195772
 31
0.0
  0
LINE
  5
2E00
  8
3
 10
78.370806737646859
 20
28.602725472200198
 30
0.0
 11
84.259114224948959
 21
28.602725472200191
 31
0.0
  0
LINE
  5
2E01
  8
3
 10
90.259114224948959
 20
28.602725472200181
 30
0.0
 11
106.2198215064742
 21
28.602725472200149
 31
0.0
  0
LINE
  5
2ECB
  8
0
 10
106.2727651614731
 20
64.643019915317481
 30
0.0
 11
106.97276516147321
 21
64.643019915317481
 31
0.0
  0
LINE
  5
2ECC
  8
0
 10
106.97276516147321
 20
64.643019915317481
 30
0.0
 11
106.97276516147321
 21
68.043019915317458
 31
0.0
  0
LINE
  5
2ECD
  8
0
 10
106.97276516147321
 20
76.643019915317481
 30
0.0
 11
106.2727651614731
 21
76.643019915317481
 31
0.0
  0
LINE
  5
2ECF
  8
0
 10
148.12226068827459
 20
68.043019915317416
 30
0.0
 11
145.03571535292119
 21
67.215982585307415
 31
0.0
  0
LINE
  5
2ED0
  8
0
 10
148.12226068827459
 20
73.243019915317575
 30
0.0
 11
145.03571535292119
 21
74.070057245327575
 31
0.0
  0
LINE
  5
2ED1
  8
0
 10
106.2727651614731
 20
67.139000807412387
 30
0.0
 11
106.97276516147321
 21
67.139000807412387
 31
0.0
  0
LINE
  5
2ED2
  8
0
 10
106.2727651614731
 20
74.147039023222575
 30
0.0
 11
106.97276516147321
 21
74.147039023222575
 31
0.0
  0
ARC
  5
2ED3
  8
0
 10
145.0874791619417
 20
74.263242410585349
 30
0.0
 40
0.2
 50
141.37824499531041
 51
255.00000000000219
  0
ARC
  5
2ED4
  8
0
 10
145.0874791619417
 20
67.022797420049613
 30
0.0
 40
0.2
 50
104.9999999999944
 51
218.62175500469999
  0
LINE
  5
2ED5
  8
0
 10
106.2727651614731
 20
73.243019915317504
 30
0.0
 11
106.97276516147321
 21
73.243019915317504
 31
0.0
  0
LINE
  5
2ED6
  8
0
 10
106.2727651614731
 20
68.043019915317458
 30
0.0
 11
106.97276516147321
 21
68.043019915317458
 31
0.0
  0
LINE
  5
2ED7
  8
0
 10
106.97276516147321
 20
73.243019915317504
 30
0.0
 11
106.97276516147321
 21
76.643019915317481
 31
0.0
  0
LINE
  5
2ED8
  8
0
 10
106.97276516147311
 20
102.8989262224303
 30
0.0
 11
106.272765161473
 21
102.8989262224303
 31
0.0
  0
LINE
  5
2ED9
  8
0
 10
106.97276516147311
 20
113.63037070347281
 30
0.0
 11
106.272765161473
 21
113.63037070347281
 31
0.0
  0
LINE
  5
2EDA
  8
0
 10
106.97276516147311
 20
102.8989262224303
 30
0.0
 11
106.97276516147311
 21
113.63037070347281
 31
0.0
  0
LINE
  5
2EDB
  8
0
 10
106.97276516147259
 20
38.387113608204942
 30
0.0
 11
106.97276516147249
 21
27.65566912716244
 31
0.0
  0
LINE
  5
2EDC
  8
0
 10
106.97276516147249
 20
27.65566912716244
 30
0.0
 11
106.27276516147251
 21
27.65566912716244
 31
0.0
  0
LINE
  5
2EDD
  8
0
 10
106.97276516147259
 20
38.387113608204942
 30
0.0
 11
106.27276516147261
 21
38.387113608204942
 31
0.0
  0
TEXT
  5
2F8B
  8
0
 62
     3
 10
0.0
 20
0.0
 30
0.0
 40
5.0
  1
SDX12AWN-SUS
  7
STANDARD1
  0
ENDSEC
  0
EOF
