  0
SECTION
  2
HEADER
  9
$ACADVER
  1
AC1009
  9
$INSBASE
 10
0.0
 20
0.0
 30
0.0
  9
$EXTMIN
 10
0.0
 20
-1.4802182810368341
 30
0.0
  9
$EXTMAX
 10
151.90604782511761
 20
113.3279043431922
 30
0.0
  9
$LIMMIN
 10
0.0
 20
0.0
  9
$LIMMAX
 10
385.0
 20
270.0
  9
$ORTHOMODE
 70
     1
  9
$REGENMODE
 70
     1
  9
$FILLMODE
 70
     1
  9
$QTEXTMODE
 70
     0
  9
$MIRRTEXT
 70
     0
  9
$DRAGMODE
 70
     2
  9
$LTSCALE
 40
10.0
  9
$OSMODE
 70
    55
  9
$ATTMODE
 70
     1
  9
$TEXTSIZE
 40
4.000000000000048
  9
$TRACEWID
 40
0.05
  9
$TEXTSTYLE
  7
STANDARD
  9
$CLAYER
  8
0
  9
$CELTYPE
  6
BYLAYER
  9
$CECOLOR
 62
   256
  9
$DIMSCALE
 40
1.0
  9
$DIMASZ
 40
3.0
  9
$DIMEXO
 40
2.0
  9
$DIMDLI
 40
0.38
  9
$DIMRND
 40
0.0
  9
$DIMDLE
 40
0.0
  9
$DIMEXE
 40
2.0
  9
$DIMTP
 40
0.0
  9
$DIMTM
 40
0.0
  9
$DIMTXT
 40
3.0
  9
$DIMCEN
 40
0.0
  9
$DIMTSZ
 40
0.0
  9
$DIMTOL
 70
     0
  9
$DIMLIM
 70
     0
  9
$DIMTIH
 70
     0
  9
$DIMTOH
 70
     0
  9
$DIMSE1
 70
     0
  9
$DIMSE2
 70
     0
  9
$DIMTAD
 70
     1
  9
$DIMZIN
 70
     0
  9
$DIMBLK
  1

  9
$DIMASO
 70
     1
  9
$DIMSHO
 70
     0
  9
$DIMPOST
  1

  9
$DIMAPOST
  1

  9
$DIMALT
 70
     0
  9
$DIMALTD
 70
     2
  9
$DIMALTF
 40
25.399999999999999
  9
$DIMLFAC
 40
1.0
  9
$DIMTOFL
 70
     1
  9
$DIMTVP
 40
1.6000000000000001
  9
$DIMTIX
 70
     1
  9
$DIMSOXD
 70
     0
  9
$DIMSAH
 70
     0
  9
$DIMBLK1
  1

  9
$DIMBLK2
  1

  9
$DIMSTYLE
  2
STANDARD
  9
$DIMCLRD
 70
     0
  9
$DIMCLRE
 70
     0
  9
$DIMCLRT
 70
     0
  9
$DIMTFAC
 40
1.0
  9
$DIMGAP
 40
1.0
  9
$LUNITS
 70
     2
  9
$LUPREC
 70
     4
  9
$SKETCHINC
 40
0.1
  9
$FILLETRAD
 40
0.0
  9
$AUNITS
 70
     0
  9
$AUPREC
 70
     4
  9
$MENU
  1
E:\r13\win\SUPPORT\ACAD
  9
$ELEVATION
 40
0.0
  9
$PELEVATION
 40
0.0
  9
$THICKNESS
 40
0.0
  9
$LIMCHECK
 70
     0
  9
$BLIPMODE
 70
     0
  9
$CHAMFERA
 40
0.0
  9
$CHAMFERB
 40
0.0
  9
$SKPOLY
 70
     0
  9
$TDCREATE
 40
2450280.598206134
  9
$TDUPDATE
 40
2456598.4890263188
  9
$TDINDWG
 40
0.0979319792
  9
$TDUSRTIMER
 40
0.0979319792
  9
$USRTIMER
 70
     1
  9
$ANGBASE
 50
0.0
  9
$ANGDIR
 70
     0
  9
$PDMODE
 70
     0
  9
$PDSIZE
 40
0.0
  9
$PLINEWID
 40
0.0
  9
$COORDS
 70
     1
  9
$SPLFRAME
 70
     0
  9
$SPLINETYPE
 70
     6
  9
$SPLINESEGS
 70
     8
  9
$ATTDIA
 70
     0
  9
$ATTREQ
 70
     1
  9
$HANDLING
 70
     1
  9
$HANDSEED
  5
2E25
  9
$SURFTAB1
 70
     6
  9
$SURFTAB2
 70
     6
  9
$SURFTYPE
 70
     6
  9
$SURFU
 70
     6
  9
$SURFV
 70
     6
  9
$UCSNAME
  2

  9
$UCSORG
 10
0.0
 20
0.0
 30
0.0
  9
$UCSXDIR
 10
1.0
 20
0.0
 30
0.0
  9
$UCSYDIR
 10
0.0
 20
1.0
 30
0.0
  9
$PUCSNAME
  2

  9
$PUCSORG
 10
0.0
 20
0.0
 30
0.0
  9
$PUCSXDIR
 10
1.0
 20
0.0
 30
0.0
  9
$PUCSYDIR
 10
0.0
 20
1.0
 30
0.0
  9
$USERI1
 70
     3
  9
$USERI2
 70
     1
  9
$USERI3
 70
     1
  9
$USERI4
 70
     0
  9
$USERI5
 70
     0
  9
$USERR1
 40
1.0
  9
$USERR2
 40
3.0
  9
$USERR3
 40
3.0
  9
$USERR4
 40
3.0
  9
$USERR5
 40
10.0
  9
$WORLDVIEW
 70
     1
  9
$SHADEDGE
 70
     3
  9
$SHADEDIF
 70
    70
  9
$TILEMODE
 70
     1
  9
$MAXACTVP
 70
    16
  9
$PLIMCHECK
 70
     0
  9
$PEXTMIN
 10
1.0000000000000000E+020
 20
1.0000000000000000E+020
 30
1.0000000000000000E+020
  9
$PEXTMAX
 10
-1.0000000000000000E+020
 20
-1.0000000000000000E+020
 30
-1.0000000000000000E+020
  9
$PLIMMIN
 10
0.0
 20
0.0
  9
$PLIMMAX
 10
12.0
 20
9.0
  9
$UNITMODE
 70
     0
  9
$VISRETAIN
 70
     0
  9
$PLINEGEN
 70
     0
  9
$PSLTSCALE
 70
     0
  0
ENDSEC
  0
SECTION
  2
TABLES
  0
TABLE
  2
VPORT
 70
     1
  0
VPORT
  2
*ACTIVE
 70
     0
 10
0.0
 20
0.0
 11
1.0
 21
1.0
 12
192.49412581440311
 22
175.433388831352
 13
0.0
 23
0.0
 14
5.0
 24
5.0
 15
10.0
 25
10.0
 16
0.0
 26
0.0
 36
1.0
 17
0.0
 27
0.0
 37
0.0
 40
356.9701552237488
 41
1.7807262569832401
 42
50.0
 43
0.0
 44
0.0
 50
0.0
 51
0.0
 71
     0
 72
   500
 73
     1
 74
     0
 75
     0
 76
     0
 77
     0
 78
     2
  0
ENDTAB
  0
TABLE
  2
LTYPE
 70
     3
  0
LTYPE
  2
CONTINUOUS
 70
     0
  3
Solid Line
 72
    65
 73
     0
 40
0.0
  0
LTYPE
  2
CENTER
 70
     0
  3
____ _ ____ _ ____ _ ____ _ ____ _ ____ _ ____
 72
    65
 73
     4
 40
2.0
 49
1.25
 49
-0.25
 49
0.25
 49
-0.25
  0
LTYPE
  2
PHANTOM2
 70
     0
  3
___ _ _ ___ _ _ ___ _ _ ___ _ _
 72
    65
 73
     6
 40
1.25
 49
0.625
 49
-0.125
 49
0.125
 49
-0.125
 49
0.125
 49
-0.125
  0
ENDTAB
  0
TABLE
  2
LAYER
 70
     4
  0
LAYER
  2
0
 70
     0
 62
     7
  6
CONTINUOUS
  0
LAYER
  2
1
 70
     0
 62
     1
  6
CENTER
  0
LAYER
  2
3
 70
     0
 62
     3
  6
CONTINUOUS
  0
LAYER
  2
DEFPOINTS
 70
     0
 62
     7
  6
CONTINUOUS
  0
ENDTAB
  0
TABLE
  2
STYLE
 70
     2
  0
STYLE
  2
STANDARD
 70
     0
 40
0.0
 41
1.0
 50
0.0
 71
     0
 42
4.000000000000048
  3
SIMPLEX
  4
BIGFONT
  0
STYLE
  2
STANDARD1
 70
     0
 40
0.0
 41
1.0
 50
0.0
 71
     0
 42
3.0
  3
txt
  4

  0
ENDTAB
  0
TABLE
  2
VIEW
 70
     0
  0
ENDTAB
  0
TABLE
  2
UCS
 70
     0
  0
ENDTAB
  0
TABLE
  2
APPID
 70
     3
  0
APPID
  2
ACAD
 70
     0
  0
APPID
  2
ACAD_MLEADERVER
 70
     0
  0
APPID
  2
ACAD_NAV_VCDISPLAY
 70
     0
  0
ENDTAB
  0
TABLE
  2
DIMSTYLE
 70
     1
  0
DIMSTYLE
  2
STANDARD
 70
     0
  3

  4

  5

  6

  7

 40
1.0
 41
0.18
 42
0.0625
 43
0.38
 44
0.18
 45
0.0
 46
0.0
 47
0.0
 48
0.0
140
0.18
141
0.09
142
0.0
143
25.399999999999999
144
1.0
145
0.0
146
1.0
147
0.09
 71
     0
 72
     0
 73
     1
 74
     1
 75
     0
 76
     0
 77
     0
 78
     0
170
     0
171
     2
172
     0
173
     0
174
     0
175
     0
176
     0
177
     0
178
     0
  0
ENDTAB
  0
ENDSEC
  0
SECTION
  2
BLOCKS
  0
BLOCK
  8
0
  2
$MODEL_SPACE
 70
     0
 10
0.0
 20
0.0
 30
0.0
  3
$MODEL_SPACE
  1

  0
ENDBLK
  5
2B0A
  8
0
  0
BLOCK
 67
     1
  8
0
  2
$PAPER_SPACE
 70
     0
 10
0.0
 20
0.0
 30
0.0
  3
$PAPER_SPACE
  1

  0
ENDBLK
  5
2B08
 67
     1
  8
0
  0
ENDSEC
  0
SECTION
  2
ENTITIES
  0
LINE
  5
29DE
  8
0
 10
98.506526078939729
 20
75.336470146584659
 30
0.0
 11
98.506526078939771
 21
66.336470146584674
 31
0.0
  0
LINE
  5
29DF
  8
0
 10
75.506526078939757
 20
75.83647014663326
 30
0.0
 11
75.506526078939757
 21
65.836470146536456
 31
0.0
  0
LINE
  5
29E0
  8
0
 10
74.506526078939771
 20
74.836470146635037
 30
0.0
 11
74.506526078939743
 21
66.836470146534609
 31
0.0
  0
LINE
  5
29E1
  8
0
 10
97.506526078939771
 20
65.836470146583522
 30
0.0
 11
84.342970295607699
 21
65.836470146555527
 31
0.0
  0
LINE
  5
29E2
  8
0
 10
74.506526078939757
 20
68.336470146584887
 30
0.0
 11
70.806526078939768
 21
68.336470146584887
 31
0.0
  0
LINE
  5
29E3
  8
0
 10
74.506526078939757
 20
73.336470146584887
 30
0.0
 11
70.806526078939768
 21
73.336470146584901
 31
0.0
  0
LINE
  5
29E4
  8
0
 10
97.506526078939757
 20
75.836470146586208
 30
0.0
 11
84.342970295607699
 21
75.836470146614118
 31
0.0
  0
LINE
  5
29E5
  8
0
 10
95.506526078939743
 20
71.636470146584884
 30
0.0
 11
98.506526078939757
 21
71.636470146584884
 31
0.0
  0
LINE
  5
29E6
  8
0
 10
95.506526078939743
 20
70.03647014658489
 30
0.0
 11
98.506526078939757
 21
70.03647014658489
 31
0.0
  0
LINE
  5
29E7
  8
0
 10
95.506526078939743
 20
71.636470146584884
 30
0.0
 11
95.506526078939743
 21
70.03647014658489
 31
0.0
  0
LINE
  5
29E8
  8
0
 10
70.806526078939783
 20
73.336470146584915
 30
0.0
 11
70.806526078939768
 21
68.336470146584887
 31
0.0
  0
LINE
  5
29E9
  8
0
 10
70.806526078939783
 20
68.336470146584887
 30
0.0
 11
69.918403546646374
 21
68.84922792967788
 31
0.0
  0
LINE
  5
29EA
  8
0
 10
70.806526078939783
 20
73.336470146584887
 30
0.0
 11
69.918403546646374
 21
72.823712363491921
 31
0.0
  0
ARC
  5
29EB
  8
0
 10
74.506526078939771
 20
70.836470146584887
 30
0.0
 40
5.0
 50
156.58123504463009
 51
203.4187649553696
  0
LINE
  5
29EC
  8
0
 10
69.918403546645933
 20
68.849227929678122
 30
0.0
 11
69.918403546646374
 21
72.823712363491907
 31
0.0
  0
LINE
  5
29ED
  8
0
 10
97.506526078939771
 20
65.836470146583522
 30
0.0
 11
98.506526078939771
 21
66.836470146585654
 31
0.0
  0
LINE
  5
29EE
  8
0
 10
97.506526078939757
 20
75.836470146586208
 30
0.0
 11
98.506526078939757
 21
74.836470146584091
 31
0.0
  0
LINE
  5
29EF
  8
0
 10
75.506526078939771
 20
75.836470146632905
 30
0.0
 11
74.506526078939771
 21
74.836470146635037
 31
0.0
  0
LINE
  5
29F0
  8
0
 10
74.506526078939743
 20
66.836470146534609
 30
0.0
 11
75.506526078939743
 21
65.83647014653674
 31
0.0
  0
LINE
  5
29F1
  8
0
 10
97.506526078939757
 20
75.836470146586208
 30
0.0
 11
97.506526078939757
 21
71.636470146584884
 31
0.0
  0
LINE
  5
29F2
  8
0
 10
97.506526078939757
 20
70.036470146584904
 30
0.0
 11
97.506526078939757
 21
65.836470146583522
 31
0.0
  0
CIRCLE
  5
29F3
  8
0
 10
38.701763254669828
 20
70.836470146584887
 30
0.0
 40
5.0
  0
CIRCLE
  5
29F4
  8
3
 10
38.701763254669828
 20
70.836470146584887
 30
0.0
 40
4.1879999999999988
  0
CIRCLE
  5
29F5
  8
0
 10
38.701763254669828
 20
70.836470146584887
 30
0.0
 40
2.5
  0
CIRCLE
  5
29F6
  8
0
 10
38.701763254669828
 20
70.836470146584887
 30
0.0
 40
1.9872422169070201
  0
LINE
  5
29F7
  8
1
 10
64.506526078939771
 20
70.836470146584901
 30
0.0
 11
111.5065260789398
 21
70.836470146584901
 31
0.0
  0
ARC
  5
29F8
  8
3
 10
138.4060478251177
 20
70.836470146584887
 30
0.0
 40
4.1879999999999988
 50
144.89238161769131
 51
215.10761838230999
  0
CIRCLE
  5
29F9
  8
0
 10
138.4060478251177
 20
70.836470146584887
 30
0.0
 40
5.0
  0
LINE
  5
29FA
  8
0
 10
133.47046275341711
 20
71.636470146584884
 30
0.0
 11
136.57301754713529
 21
71.636470146584884
 31
0.0
  0
LINE
  5
29FB
  8
0
 10
133.47046275341711
 20
70.036470146584904
 30
0.0
 11
136.57301754713529
 21
70.036470146584904
 31
0.0
  0
LINE
  5
29FC
  8
0
 10
142.8343657902146
 20
71.636470146584884
 30
0.0
 11
143.3416328968182
 21
71.636470146584884
 31
0.0
  0
LINE
  5
29FD
  8
0
 10
142.8343657902146
 20
70.036470146584904
 30
0.0
 11
143.3416328968182
 21
70.036470146584904
 31
0.0
  0
ARC
  5
29FE
  8
0
 10
83.832206535229105
 20
63.475254214417163
 30
0.0
 40
4.3448986723233833
 50
145.6157525319949
 51
205.6157525321085
  0
ARC
  5
29FF
  8
0
 10
95.728118484372317
 20
70.836470146584375
 30
0.0
 40
16.24081062146659
 50
162.41204622602831
 51
197.58795377397161
  0
LINE
  5
2A00
  8
0
 10
80.246497241459679
 20
61.021515570361338
 30
0.0
 11
79.342970295607472
 21
62.586470146584901
 31
0.0
  0
LINE
  5
2A01
  8
0
 10
83.439443349755734
 20
61.021515570361338
 30
0.0
 11
84.342970295607927
 21
62.586470146584901
 31
0.0
  0
ARC
  5
2A02
  8
0
 10
79.853734055986308
 20
63.475254214417163
 30
0.0
 40
4.3448986723233833
 50
334.38424746789138
 51
34.384247468005093
  0
ARC
  5
2A03
  8
0
 10
67.957822106843082
 20
70.836470146584375
 30
0.0
 40
16.24081062146659
 50
342.41204622602839
 51
17.58795377397168
  0
LINE
  5
2A04
  8
0
 10
80.246497241459736
 20
61.021515570361338
 30
0.0
 11
83.439443349755649
 21
61.021515570361338
 31
0.0
  0
LINE
  5
2A05
  8
0
 10
80.246497241459679
 20
65.928992858472071
 30
0.0
 11
83.439443349755891
 21
65.928992858472697
 31
0.0
  0
LINE
  5
2A06
  8
0
 10
80.246497241459679
 20
75.743947434697731
 30
0.0
 11
83.439443349755891
 21
75.743947434697105
 31
0.0
  0
LINE
  5
2A07
  8
0
 10
80.246497241459736
 20
80.651424722808457
 30
0.0
 11
83.439443349755649
 21
80.651424722808457
 31
0.0
  0
ARC
  5
2A08
  8
0
 10
79.853734055986308
 20
78.197686078752639
 30
0.0
 40
4.3448986723233833
 50
325.61575253199487
 51
25.615752532108552
  0
LINE
  5
2A09
  8
0
 10
83.439443349755734
 20
80.651424722808457
 30
0.0
 11
84.342970295607927
 21
79.086470146584901
 31
0.0
  0
LINE
  5
2A0A
  8
0
 10
80.246497241459679
 20
80.651424722808457
 30
0.0
 11
79.342970295607472
 21
79.086470146584901
 31
0.0
  0
ARC
  5
2A0B
  8
0
 10
83.832206535229105
 20
78.197686078752639
 30
0.0
 40
4.3448986723233833
 50
154.38424746789141
 51
214.3842474680051
  0
LINE
  5
2A0C
  8
0
 10
79.342970295607472
 20
62.586470146584901
 30
0.0
 11
79.342970295607699
 21
79.086470146585185
 31
0.0
  0
LINE
  5
2A0D
  8
0
 10
84.342970295607699
 20
79.086470146585242
 30
0.0
 11
84.342970295607699
 21
62.58647014658456
 31
0.0
  0
LINE
  5
2A0F
  8
0
 10
79.342970295607643
 20
75.836470146624734
 30
0.0
 11
75.506526078939771
 21
75.836470146632905
 31
0.0
  0
LINE
  5
2A11
  8
0
 10
79.3429702956075
 20
65.836470146544897
 30
0.0
 11
75.506526078939743
 21
65.83647014653674
 31
0.0
  0
LINE
  5
2A12
  8
0
 10
30.201763254669888
 20
75.74394743469675
 30
0.0
 11
30.201763254669832
 21
65.928992858473023
 31
0.0
  0
LINE
  5
2A13
  8
0
 10
30.201763254669832
 20
65.928992858473023
 30
0.0
 11
38.701763254669892
 21
61.021515570361217
 31
0.0
  0
LINE
  5
2A14
  8
0
 10
38.701763254669892
 20
61.021515570361217
 30
0.0
 11
47.201763254669821
 21
65.928992858473023
 31
0.0
  0
LINE
  5
2A15
  8
0
 10
47.201763254669821
 20
65.928992858473023
 30
0.0
 11
47.201763254669821
 21
75.743947434696636
 31
0.0
  0
LINE
  5
2A16
  8
0
 10
47.201763254669821
 20
75.743947434696636
 30
0.0
 11
38.701763254669828
 21
80.651424722808457
 31
0.0
  0
LINE
  5
2A17
  8
0
 10
38.701763254669828
 20
80.651424722808457
 30
0.0
 11
30.201763254669888
 21
75.74394743469675
 31
0.0
  0
CIRCLE
  5
2A18
  8
0
 10
38.701763254669828
 20
70.836470146584887
 30
0.0
 40
8.25
  0
LINE
  5
2A19
  8
1
 10
38.701763254669913
 20
56.021515570361203
 30
0.0
 11
38.701763254669807
 21
85.651424722808457
 31
0.0
  0
LINE
  5
2A1A
  8
1
 10
25.20176325466986
 20
70.836470146584887
 30
0.0
 11
52.201763254669828
 21
70.836470146584887
 31
0.0
  0
CIRCLE
  5
2A1B
  8
0
 10
138.40604782511761
 20
70.836470146584887
 30
0.0
 40
8.25
  0
LINE
  5
2A1C
  8
1
 10
138.4060478251177
 20
56.021515570361203
 30
0.0
 11
138.40604782511761
 21
85.651424722808457
 31
0.0
  0
LINE
  5
2A1D
  8
0
 10
146.90604782511761
 20
75.743947434696636
 30
0.0
 11
138.40604782511761
 21
80.651424722808457
 31
0.0
  0
LINE
  5
2A1E
  8
0
 10
138.40604782511761
 20
80.651424722808457
 30
0.0
 11
129.9060478251177
 21
75.74394743469675
 31
0.0
  0
LINE
  5
2A1F
  8
1
 10
124.9060478251177
 20
70.836470146584887
 30
0.0
 11
151.90604782511761
 21
70.836470146584887
 31
0.0
  0
LINE
  5
2A20
  8
0
 10
138.4060478251177
 20
61.021515570361217
 30
0.0
 11
146.90604782511761
 21
65.928992858473023
 31
0.0
  0
LINE
  5
2A21
  8
0
 10
129.90604782511761
 20
65.928992858473023
 30
0.0
 11
138.4060478251177
 21
61.021515570361217
 31
0.0
  0
LINE
  5
2A22
  8
0
 10
146.90604782511761
 20
65.928992858473023
 30
0.0
 11
146.90604782511761
 21
75.743947434696636
 31
0.0
  0
LINE
  5
2A23
  8
0
 10
129.9060478251177
 20
75.74394743469675
 30
0.0
 11
129.90604782511761
 21
65.928992858473023
 31
0.0
  0
LINE
  5
2A26
  8
0
 10
75.506526078939757
 20
109.8279043432405
 30
0.0
 11
75.506526078939757
 21
99.827904343143686
 31
0.0
  0
LINE
  5
2A27
  8
0
 10
74.506526078939757
 20
108.8279043432422
 30
0.0
 11
74.506526078939729
 21
100.8279043431418
 31
0.0
  0
LINE
  5
2A28
  8
0
 10
97.506526078939757
 20
99.827904343190767
 30
0.0
 11
84.342970295607586
 21
99.827904343162785
 31
0.0
  0
LINE
  5
2A29
  8
0
 10
74.506526078939757
 20
102.3279043431921
 30
0.0
 11
70.806526078939768
 21
102.3279043431921
 31
0.0
  0
LINE
  5
2A2A
  8
0
 10
74.506526078939757
 20
107.3279043431921
 30
0.0
 11
70.806526078939768
 21
107.3279043431921
 31
0.0
  0
LINE
  5
2A2B
  8
0
 10
97.506526078939729
 20
109.8279043431934
 30
0.0
 11
84.342970295607586
 21
109.82790434322141
 31
0.0
  0
LINE
  5
2A2C
  8
0
 10
70.806526078939768
 20
107.3279043431921
 30
0.0
 11
70.806526078939768
 21
102.3279043431921
 31
0.0
  0
LINE
  5
2A2D
  8
0
 10
70.806526078939768
 20
102.3279043431921
 30
0.0
 11
69.918403546646374
 21
102.8406621262851
 31
0.0
  0
LINE
  5
2A2E
  8
0
 10
70.806526078939768
 20
107.3279043431921
 30
0.0
 11
69.918403546646374
 21
106.81514656009909
 31
0.0
  0
ARC
  5
2A2F
  8
0
 10
74.506526078939757
 20
104.8279043431921
 30
0.0
 40
5.0
 50
156.58123504463009
 51
203.4187649553696
  0
LINE
  5
2A30
  8
0
 10
69.918403546645933
 20
102.8406621262853
 30
0.0
 11
69.91840354664636
 21
106.81514656009909
 31
0.0
  0
LINE
  5
2A31
  8
0
 10
97.506526078939757
 20
99.827904343190767
 30
0.0
 11
98.506526078939771
 21
100.8279043431928
 31
0.0
  0
LINE
  5
2A32
  8
0
 10
97.506526078939729
 20
109.8279043431934
 30
0.0
 11
98.506526078939729
 21
108.82790434319131
 31
0.0
  0
LINE
  5
2A33
  8
0
 10
75.506526078939757
 20
109.82790434324011
 30
0.0
 11
74.506526078939757
 21
108.8279043432422
 31
0.0
  0
LINE
  5
2A34
  8
0
 10
74.506526078939729
 20
100.8279043431418
 30
0.0
 11
75.506526078939714
 21
99.82790434314397
 31
0.0
  0
LINE
  5
2A35
  8
0
 10
97.506526078939729
 20
109.8279043431934
 30
0.0
 11
97.506526078939729
 21
99.827904343190767
 31
0.0
  0
LINE
  5
2A36
  8
0
 10
98.506526078939757
 20
109.3279043431921
 30
0.0
 11
98.506526078939771
 21
100.8279043431929
 31
0.0
  0
LINE
  5
2A37
  8
1
 10
64.506526078939757
 20
104.8279043431921
 30
0.0
 11
111.5065260789398
 21
104.8279043431921
 31
0.0
  0
ARC
  5
2A38
  8
0
 10
91.762814501322126
 20
109.0779043431921
 30
0.0
 40
12.275506638416489
 50
159.7438419996065
 51
200.2561580003935
  0
LINE
  5
2A39
  8
0
 10
79.487307862905595
 20
113.3279043431922
 30
0.0
 11
79.342970295607586
 21
113.07790434319109
 31
0.0
  0
LINE
  5
2A3A
  8
0
 10
84.198632728310216
 20
113.3279043431922
 30
0.0
 11
84.342970295608225
 21
113.07790434319109
 31
0.0
  0
ARC
  5
2A3B
  8
0
 10
71.923126089893756
 20
109.0779043431921
 30
0.0
 40
12.275506638416489
 50
339.7438419996065
 51
20.256158000393501
  0
LINE
  5
2A3C
  8
0
 10
79.487307862905595
 20
113.3279043431922
 30
0.0
 11
84.198632728310216
 21
113.3279043431921
 31
0.0
  0
LINE
  5
2A3D
  8
0
 10
80.246497241459977
 20
104.8279043431921
 30
0.0
 11
83.439443349756132
 21
104.8279043431921
 31
0.0
  0
LINE
  5
2A3E
  8
0
 10
79.487307862905595
 20
96.327904343192117
 30
0.0
 11
84.198632728310216
 21
96.327904343192159
 31
0.0
  0
LINE
  5
2A3F
  8
0
 10
84.198632728310216
 20
96.327904343192117
 30
0.0
 11
84.342970295608225
 21
96.577904343193183
 31
0.0
  0
ARC
  5
2A40
  8
0
 10
71.923126089893756
 20
100.5779043431921
 30
0.0
 40
12.275506638416489
 50
339.7438419996065
 51
20.256158000393501
  0
LINE
  5
2A41
  8
0
 10
79.487307862905595
 20
96.327904343192117
 30
0.0
 11
79.342970295607586
 21
96.577904343193183
 31
0.0
  0
ARC
  5
2A42
  8
0
 10
91.762814501322126
 20
100.5779043431921
 30
0.0
 40
12.275506638416489
 50
159.7438419996065
 51
200.2561580003935
  0
LINE
  5
2A43
  8
0
 10
79.342970295607586
 20
113.07790434319099
 30
0.0
 11
79.342970295607586
 21
96.577904343193183
 31
0.0
  0
LINE
  5
2A44
  8
0
 10
84.342970295607586
 20
96.577904343192102
 30
0.0
 11
84.342970295607586
 21
113.0779043431921
 31
0.0
  0
LINE
  5
2A46
  8
0
 10
79.342970295607586
 20
109.82790434323201
 30
0.0
 11
75.506526078939757
 21
109.82790434324011
 31
0.0
  0
LINE
  5
2A47
  8
0
 10
79.342970295607614
 20
99.827904343152142
 30
0.0
 11
75.506526078939714
 21
99.82790434314397
 31
0.0
  0
LINE
  5
2A4A
  8
0
 10
79.342970295607614
 20
41.84503595001766
 30
0.0
 11
75.506526078939714
 21
41.845035950025832
 31
0.0
  0
LINE
  5
2A4B
  8
0
 10
79.342970295607586
 20
31.845035949937799
 30
0.0
 11
75.506526078939757
 21
31.845035949929649
 31
0.0
  0
LINE
  5
2A4D
  8
0
 10
84.342970295607586
 20
45.095035949977692
 30
0.0
 11
84.342970295607586
 21
28.595035949977639
 31
0.0
  0
LINE
  5
2A4E
  8
0
 10
79.342970295607586
 20
28.595035949978719
 30
0.0
 11
79.342970295607586
 21
45.095035949976619
 31
0.0
  0
ARC
  5
2A4F
  8
0
 10
91.762814501322126
 20
41.095035949977643
 30
0.0
 40
12.275506638416489
 50
159.7438419996065
 51
200.2561580003935
  0
LINE
  5
2A50
  8
0
 10
79.487307862905595
 20
45.345035949977699
 30
0.0
 11
79.342970295607586
 21
45.095035949976619
 31
0.0
  0
ARC
  5
2A51
  8
0
 10
71.923126089893756
 20
41.095035949977643
 30
0.0
 40
12.275506638416489
 50
339.7438419996065
 51
20.256158000393508
  0
LINE
  5
2A52
  8
0
 10
84.198632728310216
 20
45.345035949977699
 30
0.0
 11
84.342970295608225
 21
45.095035949976619
 31
0.0
  0
LINE
  5
2A53
  8
0
 10
79.487307862905595
 20
45.345035949977699
 30
0.0
 11
84.198632728310216
 21
45.345035949977643
 31
0.0
  0
LINE
  5
2A54
  8
0
 10
80.246497241459977
 20
36.845035949977643
 30
0.0
 11
83.439443349756132
 21
36.845035949977643
 31
0.0
  0
LINE
  5
2A55
  8
0
 10
79.487307862905595
 20
28.345035949977589
 30
0.0
 11
84.198632728310216
 21
28.345035949977639
 31
0.0
  0
ARC
  5
2A56
  8
0
 10
71.923126089893756
 20
32.595035949977643
 30
0.0
 40
12.275506638416489
 50
339.7438419996065
 51
20.256158000393508
  0
LINE
  5
2A57
  8
0
 10
84.198632728310216
 20
28.345035949977589
 30
0.0
 11
84.342970295608225
 21
28.595035949978669
 31
0.0
  0
LINE
  5
2A58
  8
0
 10
79.487307862905595
 20
28.345035949977589
 30
0.0
 11
79.342970295607586
 21
28.595035949978669
 31
0.0
  0
ARC
  5
2A59
  8
0
 10
91.762814501322126
 20
32.595035949977643
 30
0.0
 40
12.275506638416489
 50
159.7438419996065
 51
200.2561580003935
  0
LINE
  5
2A5A
  8
1
 10
64.506526078939757
 20
36.845035949977671
 30
0.0
 11
111.5065260789398
 21
36.845035949977692
 31
0.0
  0
LINE
  5
2A5B
  8
0
 10
98.506526078939757
 20
32.345035949977699
 30
0.0
 11
98.506526078939771
 21
40.845035949976911
 31
0.0
  0
LINE
  5
2A5C
  8
0
 10
97.506526078939729
 20
31.845035949976381
 30
0.0
 11
97.506526078939729
 21
41.845035949979049
 31
0.0
  0
LINE
  5
2A5D
  8
0
 10
74.506526078939729
 20
40.845035950027992
 30
0.0
 11
75.506526078939714
 21
41.845035950025832
 31
0.0
  0
LINE
  5
2A5E
  8
0
 10
75.506526078939757
 20
31.845035949929649
 30
0.0
 11
74.506526078939757
 21
32.845035949927549
 31
0.0
  0
LINE
  5
2A5F
  8
0
 10
97.506526078939729
 20
31.845035949976381
 30
0.0
 11
98.506526078939729
 21
32.845035949978481
 31
0.0
  0
LINE
  5
2A60
  8
0
 10
97.506526078939757
 20
41.845035949979049
 30
0.0
 11
98.506526078939771
 21
40.845035949976939
 31
0.0
  0
LINE
  5
2A61
  8
0
 10
69.918403546645933
 20
38.832278166884478
 30
0.0
 11
69.91840354664636
 21
34.857793733070658
 31
0.0
  0
ARC
  5
2A62
  8
0
 10
74.506526078939757
 20
36.845035949977692
 30
0.0
 40
5.0
 50
156.5812350446304
 51
203.41876495536991
  0
LINE
  5
2A63
  8
0
 10
70.806526078939768
 20
34.345035949977692
 30
0.0
 11
69.918403546646374
 21
34.857793733070658
 31
0.0
  0
LINE
  5
2A64
  8
0
 10
70.806526078939768
 20
39.345035949977692
 30
0.0
 11
69.918403546646374
 21
38.832278166884713
 31
0.0
  0
LINE
  5
2A65
  8
0
 10
70.806526078939768
 20
34.345035949977692
 30
0.0
 11
70.806526078939768
 21
39.345035949977692
 31
0.0
  0
LINE
  5
2A66
  8
0
 10
97.506526078939729
 20
31.845035949976381
 30
0.0
 11
84.342970295607586
 21
31.845035949948429
 31
0.0
  0
LINE
  5
2A67
  8
0
 10
74.506526078939757
 20
34.345035949977692
 30
0.0
 11
70.806526078939768
 21
34.345035949977692
 31
0.0
  0
LINE
  5
2A68
  8
0
 10
74.506526078939757
 20
39.345035949977692
 30
0.0
 11
70.806526078939768
 21
39.345035949977692
 31
0.0
  0
LINE
  5
2A69
  8
0
 10
97.506526078939757
 20
41.845035949979049
 30
0.0
 11
84.342970295607586
 21
41.845035950007009
 31
0.0
  0
LINE
  5
2A6A
  8
0
 10
74.506526078939757
 20
32.845035949927549
 30
0.0
 11
74.506526078939729
 21
40.845035950027992
 31
0.0
  0
LINE
  5
2A6B
  8
0
 10
75.506526078939757
 20
31.845035949929311
 30
0.0
 11
75.506526078939757
 21
41.845035950026109
 31
0.0
  0
LINE
  5
2A6E
  8
0
 10
99.206526078939774
 20
68.836470146584887
 30
0.0
 11
105.7065260789397
 21
68.836470146584887
 31
0.0
  0
LINE
  5
2A6F
  8
0
 10
105.7065260789398
 20
68.836470146584887
 30
0.0
 11
106.5065260789398
 21
69.636470146584898
 31
0.0
  0
LINE
  5
2A70
  8
3
 10
98.506526078939771
 20
69.215470146586284
 30
0.0
 11
106.0855260789411
 21
69.215470146586298
 31
0.0
  0
LINE
  5
2A71
  8
3
 10
98.506526078939757
 20
72.457470146583503
 30
0.0
 11
106.0855260789411
 21
72.457470146583503
 31
0.0
  0
LINE
  5
2A72
  8
0
 10
105.7065260789398
 20
68.836470146584944
 30
0.0
 11
105.7065260789397
 21
72.836470146584887
 31
0.0
  0
LINE
  5
2A73
  8
0
 10
105.7065260789398
 20
72.836470146584887
 30
0.0
 11
106.5065260789398
 21
72.036470146584904
 31
0.0
  0
LINE
  5
2A74
  8
0
 10
106.5065260789398
 20
72.036470146584904
 30
0.0
 11
106.5065260789398
 21
69.636470146584898
 31
0.0
  0
LINE
  5
2A75
  8
0
 10
99.206526078939774
 20
72.836470146584901
 30
0.0
 11
105.7065260789397
 21
72.836470146584887
 31
0.0
  0
CIRCLE
  5
2A76
  8
3
 10
138.4060478251177
 20
70.836470146584887
 30
0.0
 40
1.6209999999999991
  0
CIRCLE
  5
2A77
  8
0
 10
138.4060478251177
 20
70.836470146584887
 30
0.0
 40
2.0
  0
LINE
  5
2A78
  8
0
 10
105.7065260789398
 20
106.8279043431921
 30
0.0
 11
106.5065260789398
 21
106.02790434319211
 31
0.0
  0
LINE
  5
2A79
  8
0
 10
105.7065260789398
 20
102.8279043431921
 30
0.0
 11
105.7065260789397
 21
106.8279043431921
 31
0.0
  0
LINE
  5
2A7A
  8
0
 10
106.5065260789398
 20
106.02790434319211
 30
0.0
 11
106.5065260789398
 21
103.6279043431921
 31
0.0
  0
LINE
  5
2A7B
  8
0
 10
105.7065260789398
 20
102.8279043431921
 30
0.0
 11
106.5065260789398
 21
103.6279043431921
 31
0.0
  0
LINE
  5
2A7C
  8
0
 10
99.206526078939703
 20
102.8279043431921
 30
0.0
 11
105.7065260789397
 21
102.8279043431921
 31
0.0
  0
LINE
  5
2A7D
  8
3
 10
99.206526078939703
 20
103.2069043431935
 30
0.0
 11
106.0855260789412
 21
103.2069043431935
 31
0.0
  0
LINE
  5
2A7E
  8
0
 10
99.206526078939703
 20
106.8279043431921
 30
0.0
 11
105.7065260789397
 21
106.8279043431921
 31
0.0
  0
LINE
  5
2A7F
  8
3
 10
99.206526078939703
 20
106.4489043431907
 30
0.0
 11
106.0855260789412
 21
106.4489043431907
 31
0.0
  0
LINE
  5
2A80
  8
0
 10
105.7065260789398
 20
38.845035949977671
 30
0.0
 11
106.5065260789398
 21
38.045035949977688
 31
0.0
  0
LINE
  5
2A81
  8
0
 10
105.7065260789398
 20
34.845035949977728
 30
0.0
 11
105.7065260789397
 21
38.845035949977671
 31
0.0
  0
LINE
  5
2A82
  8
0
 10
106.5065260789398
 20
38.045035949977688
 30
0.0
 11
106.5065260789398
 21
35.645035949977689
 31
0.0
  0
LINE
  5
2A83
  8
0
 10
105.7065260789398
 20
34.845035949977671
 30
0.0
 11
106.5065260789398
 21
35.645035949977689
 31
0.0
  0
LINE
  5
2A84
  8
0
 10
99.206526078939717
 20
34.845035949977671
 30
0.0
 11
105.7065260789397
 21
34.845035949977671
 31
0.0
  0
LINE
  5
2A85
  8
3
 10
99.206526078939717
 20
35.224035949979069
 30
0.0
 11
106.0855260789412
 21
35.224035949979083
 31
0.0
  0
LINE
  5
2A86
  8
0
 10
99.206526078939717
 20
38.845035949977671
 30
0.0
 11
105.7065260789397
 21
38.845035949977671
 31
0.0
  0
LINE
  5
2A87
  8
3
 10
99.206526078939703
 20
38.466035949976288
 30
0.0
 11
106.0855260789412
 21
38.466035949976288
 31
0.0
  0
ARC
  5
2CB0
  8
0
 10
134.99083188063409
 20
73.449189046990298
 30
0.0
 40
0.2
 50
142.5831784690331
 51
254.99999999999881
  0
ARC
  5
2CB1
  8
0
 10
134.9908318806342
 20
68.223751246179432
 30
0.0
 40
0.2
 50
105.00000000000119
 51
217.4168215309719
  0
LINE
  5
2CB2
  8
0
 10
134.93906807161369
 20
68.416936411437248
 30
0.0
 11
137.43780198856581
 21
69.086470146584887
 31
0.0
  0
LINE
  5
2CB3
  8
0
 10
134.9390680716136
 20
73.256003881732454
 30
0.0
 11
137.43780198856581
 21
72.586470146584887
 31
0.0
  0
ARC
  5
2CB4
  8
0
 10
138.4060478251177
 20
70.836470146584887
 30
0.0
 40
4.5
 50
217.41682153096559
 51
142.583178469035
  0
LINE
  5
2CB5
  8
0
 10
98.506526078939771
 20
69.086470146584674
 30
0.0
 11
99.206526078939774
 21
69.086470146584674
 31
0.0
  0
LINE
  5
2CB6
  8
0
 10
98.506526078939771
 20
72.586470146584674
 30
0.0
 11
99.206526078939774
 21
72.586470146584674
 31
0.0
  0
LINE
  5
2CB7
  8
0
 10
98.506526078939771
 20
73.330644710197845
 30
0.0
 11
99.206526078939774
 21
73.330644710197845
 31
0.0
  0
LINE
  5
2CB8
  8
0
 10
98.506526078939771
 20
68.342295582971502
 30
0.0
 11
99.206526078939774
 21
68.342295582971502
 31
0.0
  0
LINE
  5
2CB9
  8
0
 10
99.206526078939774
 20
75.336470146584674
 30
0.0
 11
99.206526078939774
 21
72.586470146584674
 31
0.0
  0
LINE
  5
2CBA
  8
0
 10
99.206526078939774
 20
75.33647014658473
 30
0.0
 11
98.506526078939771
 21
75.336470146584674
 31
0.0
  0
LINE
  5
2CBB
  8
0
 10
98.506526078939771
 20
66.336470146584674
 30
0.0
 11
99.206526078939774
 21
66.336470146584674
 31
0.0
  0
LINE
  5
2CBC
  8
0
 10
99.206526078939774
 20
69.086470146584674
 30
0.0
 11
99.206526078939774
 21
66.336470146584674
 31
0.0
  0
LINE
  5
2CBD
  8
0
 10
99.206526078939703
 20
109.3279043431921
 30
0.0
 11
99.206526078939703
 21
101.2160049797134
 31
0.0
  0
LINE
  5
2CBE
  8
0
 10
99.206526078939703
 20
109.3279043431922
 30
0.0
 11
98.506526078939771
 21
109.3279043431921
 31
0.0
  0
LINE
  5
2CBF
  8
0
 10
98.506526078939771
 20
101.2160049797134
 30
0.0
 11
99.206526078939703
 21
101.2160049797134
 31
0.0
  0
LINE
  5
2CC0
  8
0
 10
99.206526078939703
 20
32.34503594997765
 30
0.0
 11
98.506526078939771
 21
32.345035949977706
 31
0.0
  0
LINE
  5
2CC1
  8
0
 10
99.206526078939703
 20
32.345035949977706
 30
0.0
 11
99.206526078939703
 21
40.456935313456491
 31
0.0
  0
LINE
  5
2CC2
  8
0
 10
98.506526078939771
 20
40.456935313456491
 30
0.0
 11
99.206526078939703
 21
40.456935313456491
 31
0.0
  0
LINE
  5
2CE6
  8
3
 10
98.318526078939286
 20
75.02447014658496
 30
0.0
 11
84.342970295607699
 21
75.02447014658496
 31
0.0
  0
LINE
  5
2CE7
  8
3
 10
98.318526078939286
 20
66.648470146584771
 30
0.0
 11
84.342970295607714
 21
66.648470146584771
 31
0.0
  0
LINE
  5
2CE8
  8
3
 10
79.342970295607657
 20
75.024470146584974
 30
0.0
 11
74.694526078890092
 21
75.02447014658496
 31
0.0
  0
LINE
  5
2CE9
  8
3
 10
79.342970295607515
 20
66.648470146584785
 30
0.0
 11
74.694526078889979
 21
66.648470146584771
 31
0.0
  0
LINE
  5
2CEA
  8
3
 10
79.342970295607643
 20
109.0159043431922
 30
0.0
 11
74.694526078890078
 21
109.0159043431921
 31
0.0
  0
LINE
  5
2CEB
  8
3
 10
79.342970295607515
 20
100.639904343192
 30
0.0
 11
74.694526078889965
 21
100.639904343192
 31
0.0
  0
LINE
  5
2CEC
  8
3
 10
98.318526078939257
 20
100.639904343192
 30
0.0
 11
84.342970295607699
 21
100.639904343192
 31
0.0
  0
LINE
  5
2CED
  8
3
 10
98.318526078939257
 20
109.0159043431921
 30
0.0
 11
84.342970295607685
 21
109.0159043431921
 31
0.0
  0
LINE
  5
2CEE
  8
3
 10
79.342970295607671
 20
41.033035949977823
 30
0.0
 11
74.694526078890107
 21
41.033035949977823
 31
0.0
  0
LINE
  5
2CEF
  8
3
 10
79.342970295607543
 20
32.65703594997764
 30
0.0
 11
74.694526078889993
 21
32.657035949977633
 31
0.0
  0
LINE
  5
2CF0
  8
3
 10
98.318526078939286
 20
32.657035949977633
 30
0.0
 11
84.342970295607714
 21
32.657035949977633
 31
0.0
  0
LINE
  5
2CF1
  8
3
 10
98.318526078939286
 20
41.033035949977823
 30
0.0
 11
84.342970295607714
 21
41.033035949977823
 31
0.0
  0
TEXT
  5
2D93
  8
0
 62
     3
 10
0.0
 20
0.0
 30
0.0
 40
5.0
  1
SDX10WN-M4-SUS
  7
STANDARD1
  0
ENDSEC
  0
EOF
