  0
SECTION
  2
HEADER
  9
$ACADVER
  1
AC1009
  9
$INSBASE
 10
0.0
 20
0.0
 30
0.0
  9
$EXTMIN
 10
0.0
 20
-2.960436562073669
 30
0.0
  9
$EXTMAX
 10
153.6999999999999
 20
151.99999999999989
 30
0.0
  9
$LIMMIN
 10
0.0
 20
0.0
  9
$LIMMAX
 10
770.0
 20
540.0
  9
$ORTHOMODE
 70
     1
  9
$REGENMODE
 70
     1
  9
$FILLMODE
 70
     1
  9
$QTEXTMODE
 70
     0
  9
$MIRRTEXT
 70
     0
  9
$DRAGMODE
 70
     2
  9
$LTSCALE
 40
10.0
  9
$OSMODE
 70
    55
  9
$ATTMODE
 70
     1
  9
$TEXTSIZE
 40
4.000000000000048
  9
$TRACEWID
 40
0.05
  9
$TEXTSTYLE
  7
K50
  9
$CLAYER
  8
0
  9
$CELTYPE
  6
BYLAYER
  9
$CECOLOR
 62
   256
  9
$DIMSCALE
 40
1.0
  9
$DIMASZ
 40
0.18
  9
$DIMEXO
 40
0.0625
  9
$DIMDLI
 40
0.38
  9
$DIMRND
 40
0.0
  9
$DIMDLE
 40
0.0
  9
$DIMEXE
 40
0.18
  9
$DIMTP
 40
0.0
  9
$DIMTM
 40
0.0
  9
$DIMTXT
 40
0.18
  9
$DIMCEN
 40
0.09
  9
$DIMTSZ
 40
0.0
  9
$DIMTOL
 70
     0
  9
$DIMLIM
 70
     0
  9
$DIMTIH
 70
     1
  9
$DIMTOH
 70
     1
  9
$DIMSE1
 70
     0
  9
$DIMSE2
 70
     0
  9
$DIMTAD
 70
     0
  9
$DIMZIN
 70
     0
  9
$DIMBLK
  1

  9
$DIMASO
 70
     0
  9
$DIMSHO
 70
     0
  9
$DIMPOST
  1

  9
$DIMAPOST
  1

  9
$DIMALT
 70
     0
  9
$DIMALTD
 70
     2
  9
$DIMALTF
 40
25.399999999999999
  9
$DIMLFAC
 40
1.0
  9
$DIMTOFL
 70
     0
  9
$DIMTVP
 40
0.0
  9
$DIMTIX
 70
     0
  9
$DIMSOXD
 70
     0
  9
$DIMSAH
 70
     0
  9
$DIMBLK1
  1

  9
$DIMBLK2
  1

  9
$DIMSTYLE
  2
STANDARD
  9
$DIMCLRD
 70
     0
  9
$DIMCLRE
 70
     0
  9
$DIMCLRT
 70
     0
  9
$DIMTFAC
 40
1.0
  9
$DIMGAP
 40
0.09
  9
$LUNITS
 70
     2
  9
$LUPREC
 70
     1
  9
$SKETCHINC
 40
0.1
  9
$FILLETRAD
 40
0.0
  9
$AUNITS
 70
     0
  9
$AUPREC
 70
     0
  9
$MENU
  1
E:\r13\win\SUPPORT\ACAD
  9
$ELEVATION
 40
0.0
  9
$PELEVATION
 40
0.0
  9
$THICKNESS
 40
0.0
  9
$LIMCHECK
 70
     0
  9
$BLIPMODE
 70
     0
  9
$CHAMFERA
 40
0.0
  9
$CHAMFERB
 40
0.0
  9
$SKPOLY
 70
     0
  9
$TDCREATE
 40
2450158.583426042
  9
$TDUPDATE
 40
2456598.4851703709
  9
$TDINDWG
 40
0.1066083681
  9
$TDUSRTIMER
 40
0.1066083681
  9
$USRTIMER
 70
     1
  9
$ANGBASE
 50
0.0
  9
$ANGDIR
 70
     0
  9
$PDMODE
 70
     0
  9
$PDSIZE
 40
0.0
  9
$PLINEWID
 40
0.0
  9
$COORDS
 70
     1
  9
$SPLFRAME
 70
     0
  9
$SPLINETYPE
 70
     6
  9
$SPLINESEGS
 70
     8
  9
$ATTDIA
 70
     0
  9
$ATTREQ
 70
     1
  9
$HANDLING
 70
     1
  9
$HANDSEED
  5
112C
  9
$SURFTAB1
 70
     6
  9
$SURFTAB2
 70
     6
  9
$SURFTYPE
 70
     6
  9
$SURFU
 70
     6
  9
$SURFV
 70
     6
  9
$UCSNAME
  2

  9
$UCSORG
 10
0.0
 20
0.0
 30
0.0
  9
$UCSXDIR
 10
1.0
 20
0.0
 30
0.0
  9
$UCSYDIR
 10
0.0
 20
1.0
 30
0.0
  9
$PUCSNAME
  2

  9
$PUCSORG
 10
0.0
 20
0.0
 30
0.0
  9
$PUCSXDIR
 10
1.0
 20
0.0
 30
0.0
  9
$PUCSYDIR
 10
0.0
 20
1.0
 30
0.0
  9
$USERI1
 70
     3
  9
$USERI2
 70
     1
  9
$USERI3
 70
     0
  9
$USERI4
 70
     0
  9
$USERI5
 70
     0
  9
$USERR1
 40
2.0
  9
$USERR2
 40
3.0
  9
$USERR3
 40
3.0
  9
$USERR4
 40
3.0
  9
$USERR5
 40
10.0
  9
$WORLDVIEW
 70
     1
  9
$SHADEDGE
 70
     3
  9
$SHADEDIF
 70
    70
  9
$TILEMODE
 70
     1
  9
$MAXACTVP
 70
    16
  9
$PLIMCHECK
 70
     0
  9
$PEXTMIN
 10
1.0000000000000000E+020
 20
1.0000000000000000E+020
 30
1.0000000000000000E+020
  9
$PEXTMAX
 10
-1.0000000000000000E+020
 20
-1.0000000000000000E+020
 30
-1.0000000000000000E+020
  9
$PLIMMIN
 10
0.0
 20
0.0
  9
$PLIMMAX
 10
12.0
 20
9.0
  9
$UNITMODE
 70
     0
  9
$VISRETAIN
 70
     0
  9
$PLINEGEN
 70
     0
  9
$PSLTSCALE
 70
     0
  0
ENDSEC
  0
SECTION
  2
TABLES
  0
TABLE
  2
VPORT
 70
     1
  0
VPORT
  2
*ACTIVE
 70
     0
 10
0.0
 20
0.0
 11
1.0
 21
1.0
 12
384.98825162880621
 22
350.86677766270412
 13
0.0
 23
0.0
 14
10.0
 24
10.0
 15
10.0
 25
10.0
 16
0.0
 26
0.0
 36
1.0
 17
0.0
 27
0.0
 37
0.0
 40
713.9403104474975
 41
1.7807262569832401
 42
50.0
 43
0.0
 44
0.0
 50
0.0
 51
0.0
 71
     0
 72
   500
 73
     1
 74
     0
 75
     0
 76
     0
 77
     0
 78
     2
  0
ENDTAB
  0
TABLE
  2
LTYPE
 70
     5
  0
LTYPE
  2
CONTINUOUS
 70
     0
  3
Solid Line
 72
    65
 73
     0
 40
0.0
  0
LTYPE
  2
CENTER
 70
     0
  3
____ _ ____ _ ____ _ ____ _ ____ _ ____ _ ____
 72
    65
 73
     4
 40
2.0
 49
1.25
 49
-0.25
 49
0.25
 49
-0.25
  0
LTYPE
  2
HIDDEN
 70
     0
  3
_ _ _ _ _ _ _ _ _ _ _ _ _ _ _ _ _ _ _ _ _ _ _
 72
    65
 73
     2
 40
0.375
 49
0.25
 49
-0.125
  0
LTYPE
  2
PHANTOM
 70
     0
  3
_____ _ _ _____ _ _ _____ _ _ _____ _ _ ____
 72
    65
 73
     6
 40
2.5
 49
1.25
 49
-0.25
 49
0.25
 49
-0.25
 49
0.25
 49
-0.25
  0
LTYPE
  2
PHANTOM2
 70
     0
  3
___ _ _ ___ _ _ ___ _ _ ___ _ _
 72
    65
 73
     6
 40
1.25
 49
0.625
 49
-0.125
 49
0.125
 49
-0.125
 49
0.125
 49
-0.125
  0
ENDTAB
  0
TABLE
  2
LAYER
 70
     5
  0
LAYER
  2
0
 70
     0
 62
     7
  6
CONTINUOUS
  0
LAYER
  2
1
 70
     0
 62
     1
  6
CENTER
  0
LAYER
  2
3
 70
     0
 62
     3
  6
CONTINUOUS
  0
LAYER
  2
2
 70
     0
 62
     2
  6
HIDDEN
  0
LAYER
  2
5
 70
     0
 62
     3
  6
PHANTOM
  0
ENDTAB
  0
TABLE
  2
STYLE
 70
     3
  0
STYLE
  2
STANDARD
 70
     0
 40
0.0
 41
1.0
 50
0.0
 71
     0
 42
4.000000000000048
  3
romans.shx
  4

  0
STYLE
  2
K50
 70
     0
 40
0.0
 41
1.0
 50
0.0
 71
     0
 42
4.000000000000048
  3
romans.shx
  4

  0
STYLE
  2
STANDARD1
 70
     0
 40
0.0
 41
1.0
 50
0.0
 71
     0
 42
3.0
  3
txt
  4

  0
ENDTAB
  0
TABLE
  2
VIEW
 70
     1
  0
VIEW
  2
ALL
 70
     0
 40
179.5384664489153
 10
146.94997169852391
 20
89.769233224457665
 41
0.0
 11
0.0
 21
0.0
 31
1.0
 12
0.0
 22
0.0
 32
0.0
 42
50.0
 43
0.0
 44
0.0
 50
0.0
 71
     0
  0
ENDTAB
  0
TABLE
  2
UCS
 70
     0
  0
ENDTAB
  0
TABLE
  2
APPID
 70
     6
  0
APPID
  2
ACAD
 70
     0
  0
APPID
  2
ACAD_DSTYLE_DIMJAG
 70
     0
  0
APPID
  2
ACAD_DSTYLE_DIMTALN
 70
     0
  0
APPID
  2
ACAD_EXEMPT_FROM_CAD_STANDARDS
 70
     0
  0
APPID
  2
ACAD_MLEADERVER
 70
     0
  0
APPID
  2
ACAD_NAV_VCDISPLAY
 70
     0
  0
ENDTAB
  0
TABLE
  2
DIMSTYLE
 70
     1
  0
DIMSTYLE
  2
STANDARD
 70
     0
  3

  4

  5

  6

  7

 40
1.0
 41
0.18
 42
0.0625
 43
0.38
 44
0.18
 45
0.0
 46
0.0
 47
0.0
 48
0.0
140
0.18
141
0.09
142
0.0
143
25.399999999999999
144
1.0
145
0.0
146
1.0
147
0.09
 71
     0
 72
     0
 73
     1
 74
     1
 75
     0
 76
     0
 77
     0
 78
     0
170
     0
171
     2
172
     0
173
     0
174
     0
175
     0
176
     0
177
     0
178
     0
  0
ENDTAB
  0
ENDSEC
  0
SECTION
  2
BLOCKS
  0
BLOCK
  8
0
  2
$MODEL_SPACE
 70
     0
 10
0.0
 20
0.0
 30
0.0
  3
$MODEL_SPACE
  1

  0
ENDBLK
  5
586
  8
0
  0
BLOCK
 67
     1
  8
0
  2
$PAPER_SPACE
 70
     0
 10
0.0
 20
0.0
 30
0.0
  3
$PAPER_SPACE
  1

  0
ENDBLK
  5
584
 67
     1
  8
0
  0
ENDSEC
  0
SECTION
  2
ENTITIES
  0
CIRCLE
  5
E66
  8
0
 10
140.7000000000001
 20
81.299999999999656
 30
0.0
 40
5.0
  0
LINE
  5
E67
  8
0
 10
98.0
 20
31.29999999999994
 30
0.0
 11
103.0
 21
31.29999999999994
 31
0.0
  0
LINE
  5
E68
  8
0
 10
103.0
 20
31.29999999999994
 30
0.0
 11
103.0
 21
37.29999999999994
 31
0.0
  0
LINE
  5
E69
  8
0
 10
98.0
 20
37.29999999999994
 30
0.0
 11
103.0
 21
37.29999999999994
 31
0.0
  0
LINE
  5
E6A
  8
1
 10
66.999999999999986
 20
142.69999999999999
 30
0.0
 11
108.0
 21
142.69999999999999
 31
0.0
  0
ARC
  5
E6B
  8
0
 10
83.206497639273195
 20
95.072032200690714
 30
0.0
 40
6.9969082536483951
 50
152.50291791777661
 51
207.49708756078331
  0
LINE
  5
E6C
  8
5
 10
100.0
 20
129.99999999999989
 30
0.0
 11
99.999999999999915
 21
151.99999999999989
 31
0.0
1001
ACAD
1000
ASC_BOUNDS
1002
{
1070
    19
1002
}
  0
LINE
  5
E6D
  8
5
 10
99.999999999999886
 20
71.999999999999943
 30
0.0
 11
100.0000000000001
 21
105.0
 31
0.0
1001
ACAD
1000
ASC_BOUNDS
1002
{
1070
    19
1002
}
  0
LINE
  5
E6E
  8
0
 10
76.999999999999986
 20
149.39999999999989
 30
0.0
 11
76.79999999999994
 21
149.59999999999991
 31
0.0
  0
LINE
  5
E6F
  8
0
 10
76.999999999999986
 20
148.6999999999999
 30
0.0
 11
76.999999999999986
 21
149.39999999999989
 31
0.0
  0
LINE
  5
E70
  8
0
 10
72.200000000000031
 20
149.59999999999991
 30
0.0
 11
71.999999999999986
 21
149.39999999999989
 31
0.0
  0
LINE
  5
E71
  8
0
 10
76.79999999999994
 20
149.59999999999991
 30
0.0
 11
72.200000000000031
 21
149.59999999999991
 31
0.0
  0
LINE
  5
E72
  8
0
 10
76.999999999999986
 20
136.0
 30
0.0
 11
76.79999999999994
 21
135.80000000000001
 31
0.0
  0
LINE
  5
E73
  8
0
 10
72.200000000000031
 20
135.80000000000001
 30
0.0
 11
71.999999999999986
 21
136.0
 31
0.0
  0
LINE
  5
E74
  8
0
 10
72.200000000000031
 20
135.80000000000001
 30
0.0
 11
76.79999999999994
 21
135.80000000000001
 31
0.0
  0
LINE
  5
E75
  8
0
 10
71.999999999999986
 20
149.39999999999989
 30
0.0
 11
71.999999999999986
 21
136.0
 31
0.0
  0
LINE
  5
E76
  8
1
 10
74.499999999999943
 20
38.79999999999994
 30
0.0
 11
74.499999999999943
 21
29.79999999999994
 31
0.0
  0
LINE
  5
E77
  8
0
 10
88.287057999999988
 20
151.99999999999989
 30
0.0
 11
88.287057999999988
 21
129.99999999999989
 31
0.0
  0
LINE
  5
E78
  8
0
 10
97.999999999999986
 20
145.69999999999999
 30
0.0
 11
103.0
 21
145.69999999999999
 31
0.0
  0
LINE
  5
E79
  8
0
 10
103.0
 20
139.69999999999999
 30
0.0
 11
103.0
 21
145.69999999999999
 31
0.0
  0
LINE
  5
E7A
  8
0
 10
97.999999999999986
 20
139.69999999999999
 30
0.0
 11
103.0
 21
139.69999999999999
 31
0.0
  0
LINE
  5
E7B
  8
5
 10
97.999999999999986
 20
151.99999999999989
 30
0.0
 11
99.999999999999915
 21
151.99999999999989
 31
0.0
  0
LINE
  5
E7C
  8
5
 10
97.999999999999986
 20
129.99999999999989
 30
0.0
 11
99.999999999999957
 21
129.99999999999989
 31
0.0
  0
LINE
  5
E7D
  8
0
 10
94.999999999999986
 20
151.99999999999989
 30
0.0
 11
94.999999999999986
 21
130.0
 31
0.0
  0
LINE
  5
E7E
  8
0
 10
97.999999999999986
 20
151.99999999999989
 30
0.0
 11
97.999999999999986
 21
129.99999999999989
 31
0.0
  0
ARC
  5
E7F
  8
0
 10
78.999999999999929
 20
149.99999999999989
 30
0.0
 40
2.0
 50
90.0
 51
179.9999999999998
  0
ARC
  5
E80
  8
0
 10
79.000000000000043
 20
131.99999999999989
 30
0.0
 40
2.0
 50
180.0
 51
270.0
  0
LINE
  5
E81
  8
0
 10
76.999999999999986
 20
131.99999999999989
 30
0.0
 11
76.999999999999986
 21
149.99999999999989
 31
0.0
  0
LINE
  5
E82
  8
0
 10
97.999999999999986
 20
129.99999999999989
 30
0.0
 11
78.999999999999986
 21
129.99999999999989
 31
0.0
  0
LINE
  5
E83
  8
0
 10
97.999999999999986
 20
151.99999999999989
 30
0.0
 11
78.999999999999872
 21
151.99999999999989
 31
0.0
  0
CIRCLE
  5
E84
  8
3
 10
74.499999999999943
 20
34.29999999999994
 30
0.0
 40
1.2295
  0
CIRCLE
  5
E85
  8
0
 10
74.499999999999943
 20
34.29999999999994
 30
0.0
 40
1.5
  0
LINE
  5
E86
  8
0
 10
75.249999999389786
 20
34.733012701540012
 30
0.0
 11
75.249999999389786
 21
33.866987297755593
 31
0.0
  0
LINE
  5
E87
  8
0
 10
75.249999999388876
 20
33.866987298459989
 30
0.0
 11
74.499999999389786
 21
33.43397459656773
 31
0.0
  0
LINE
  5
E88
  8
0
 10
74.500000000000057
 20
33.43397459692072
 30
0.0
 11
73.750000000000057
 21
33.866987298812759
 31
0.0
  0
LINE
  5
E89
  8
0
 10
73.750000000610783
 20
33.866987298460437
 30
0.0
 11
73.750000000610783
 21
34.733012702244856
 31
0.0
  0
LINE
  5
E8A
  8
0
 10
73.750000000610783
 20
34.733012701539892
 30
0.0
 11
74.500000000610783
 21
35.166025403432158
 31
0.0
  0
LINE
  5
E8B
  8
0
 10
74.500000000000057
 20
35.166025403079161
 30
0.0
 11
75.250000000000057
 21
34.733012701187121
 31
0.0
  0
LINE
  5
E8C
  8
0
 10
76.999999999999943
 20
40.999999999999979
 30
0.0
 11
76.799999999999955
 21
41.200000000000031
 31
0.0
  0
LINE
  5
E8D
  8
0
 10
76.999999999999943
 20
40.29999999999994
 30
0.0
 11
76.999999999999943
 21
40.999999999999979
 31
0.0
  0
LINE
  5
E8E
  8
0
 10
72.199999999999974
 20
41.200000000000031
 30
0.0
 11
71.999999999999943
 21
40.999999999999979
 31
0.0
  0
LINE
  5
E8F
  8
0
 10
76.999999999999943
 20
27.600000000000119
 30
0.0
 11
76.799999999999955
 21
27.40000000000008
 31
0.0
  0
LINE
  5
E90
  8
0
 10
72.199999999999974
 20
27.40000000000008
 30
0.0
 11
71.999999999999943
 21
27.600000000000119
 31
0.0
  0
LINE
  5
E91
  8
0
 10
72.199999999999974
 20
27.40000000000008
 30
0.0
 11
76.799999999999955
 21
27.40000000000008
 31
0.0
  0
LINE
  5
E92
  8
0
 10
71.999999999999943
 20
40.999999999999979
 30
0.0
 11
71.999999999999943
 21
27.600000000000119
 31
0.0
  0
LINE
  5
E93
  8
0
 10
76.799999999999955
 20
41.200000000000031
 30
0.0
 11
72.199999999999974
 21
41.200000000000031
 31
0.0
  0
LINE
  5
E94
  8
5
 10
97.999999999999943
 20
46.99999999999995
 30
0.0
 11
100.0
 21
46.99999999999995
 31
0.0
  0
LINE
  5
E95
  8
5
 10
98.0
 20
24.999999999999989
 30
0.0
 11
100.0
 21
24.999999999999989
 31
0.0
  0
LINE
  5
E96
  8
0
 10
95.0
 20
46.99999999999995
 30
0.0
 11
95.0
 21
25.000000000000021
 31
0.0
  0
LINE
  5
E97
  8
0
 10
98.0
 20
46.99999999999995
 30
0.0
 11
98.0
 21
24.999999999999989
 31
0.0
  0
ARC
  5
E98
  8
0
 10
78.999999999999886
 20
44.99999999999995
 30
0.0
 40
2.0
 50
90.0
 51
179.99999999999989
  0
ARC
  5
E99
  8
0
 10
78.999999999999943
 20
26.999999999999929
 30
0.0
 40
2.0
 50
180.0
 51
270.0
  0
LINE
  5
E9A
  8
0
 10
76.999999999999943
 20
26.999999999999929
 30
0.0
 11
76.999999999999943
 21
44.99999999999995
 31
0.0
  0
LINE
  5
E9B
  8
0
 10
98.0
 20
24.999999999999989
 30
0.0
 11
78.999999999999943
 21
24.999999999999929
 31
0.0
  0
LINE
  5
E9C
  8
0
 10
97.999999999999943
 20
46.99999999999995
 30
0.0
 11
78.999999999999886
 21
46.99999999999995
 31
0.0
  0
LINE
  5
E9D
  8
1
 10
108.0
 20
34.29999999999994
 30
0.0
 11
66.999999999999943
 21
34.299999999999933
 31
0.0
  0
LINE
  5
E9E
  8
3
 10
35.529500000003679
 20
76.401956538576499
 30
0.0
 11
35.529500000003679
 21
76.570499999996343
 31
0.0
  0
LINE
  5
E9F
  8
3
 10
33.070499999996521
 20
76.401956538576499
 30
0.0
 11
33.070499999996521
 21
76.570499999996343
 31
0.0
  0
LINE
  5
EA0
  8
0
 10
35.200000000000053
 20
76.899999999999935
 30
0.0
 11
35.662675697852421
 21
76.437324302147616
 31
0.0
  0
LINE
  5
EA1
  8
0
 10
32.937324302147772
 20
76.437324302147502
 30
0.0
 11
33.400000000000148
 21
76.899999999999935
 31
0.0
  0
LINE
  5
EA2
  8
0
 10
33.319615242270629
 20
73.899999999999935
 30
0.0
 11
35.280384757729401
 21
73.899999999999935
 31
0.0
  0
LINE
  5
EA3
  8
0
 10
32.799999999999962
 20
74.200000000000003
 30
0.0
 11
35.800000000000068
 21
74.200000000000003
 31
0.0
  0
LINE
  5
EA4
  8
0
 10
35.800000000000118
 20
74.200000000000003
 30
0.0
 11
35.280384757729507
 21
73.899999999999935
 31
0.0
  0
LINE
  5
EA5
  8
0
 10
32.800000000000011
 20
74.200000000000003
 30
0.0
 11
33.319615242270629
 21
73.899999999999935
 31
0.0
  0
LINE
  5
EA6
  8
0
 10
33.400000000000148
 20
76.899999999999935
 30
0.0
 11
35.200000000000053
 21
76.899999999999935
 31
0.0
  0
LINE
  5
EA7
  8
2
 10
32.800000000000068
 20
76.299999999999912
 30
0.0
 11
35.800000000000068
 21
76.299999999999912
 31
0.0
  0
LINE
  5
EA8
  8
2
 10
35.662675697852421
 20
76.437324302147616
 30
0.0
 11
35.800000000000068
 21
76.299999999999912
 31
0.0
  0
LINE
  5
EA9
  8
2
 10
32.800000000000132
 20
76.299999999999912
 30
0.0
 11
32.937324302147772
 21
76.437324302147502
 31
0.0
  0
LINE
  5
EAA
  8
2
 10
35.529500000003743
 20
76.401956538576499
 30
0.0
 11
35.529500000003793
 21
74.510424921249026
 31
0.0
  0
LINE
  5
EAB
  8
2
 10
35.800000000000068
 20
76.299999999999912
 30
0.0
 11
35.800000000000068
 21
74.565016703806535
 31
0.0
  0
LINE
  5
EAC
  8
2
 10
33.070499999996521
 20
76.401956538576499
 30
0.0
 11
33.070499999996521
 21
74.510424921249026
 31
0.0
  0
LINE
  5
EAD
  8
2
 10
32.800000000000132
 20
76.299999999999912
 30
0.0
 11
32.800000000000182
 21
74.565016703806421
 31
0.0
  0
LINE
  5
EAE
  8
0
 10
32.800000000000352
 20
74.565016703805512
 30
0.0
 11
32.799999999999962
 21
74.200000000000003
 31
0.0
  0
LINE
  5
EAF
  8
0
 10
35.800000000000011
 20
74.565016703805625
 30
0.0
 11
35.800000000000118
 21
74.200000000000003
 31
0.0
  0
LINE
  5
EB0
  8
3
 10
33.070499999996521
 20
74.510424921248116
 30
0.0
 11
33.070499999996521
 21
74.043826752186149
 31
0.0
  0
LINE
  5
EB1
  8
3
 10
35.529500000003743
 20
74.510424921248116
 30
0.0
 11
35.529500000003743
 21
74.043826752186263
 31
0.0
  0
LINE
  5
EB2
  8
3
 10
75.729500000003725
 20
74.400000000000034
 30
0.0
 11
75.729500000003725
 21
74.043826752186263
 31
0.0
  0
LINE
  5
EB3
  8
3
 10
73.270499999996503
 20
74.400000000000034
 30
0.0
 11
73.270499999996503
 21
74.043826752186263
 31
0.0
  0
LINE
  5
EB4
  8
0
 10
76.000000000000057
 20
74.400000000000034
 30
0.0
 11
76.000000000000114
 21
74.200000000000003
 31
0.0
  0
LINE
  5
EB5
  8
0
 10
73.000000000000171
 20
74.400000000000034
 30
0.0
 11
72.999999999999943
 21
74.200000000000003
 31
0.0
  0
LINE
  5
EB6
  8
2
 10
73.600000000000136
 20
76.900000000000034
 30
0.0
 11
75.400000000000034
 21
76.900000000000034
 31
0.0
  0
LINE
  5
EB7
  8
2
 10
76.000000000000057
 20
76.299999999999912
 30
0.0
 11
76.000000000000057
 21
74.400000000000034
 31
0.0
  0
LINE
  5
EB8
  8
2
 10
73.000000000000114
 20
76.299999999999912
 30
0.0
 11
73.000000000000171
 21
74.400000000000034
 31
0.0
  0
LINE
  5
EB9
  8
2
 10
73.270499999996503
 20
76.570499999996343
 30
0.0
 11
73.270499999996503
 21
74.400000000000034
 31
0.0
  0
LINE
  5
EBA
  8
2
 10
75.729500000003782
 20
76.570499999996244
 30
0.0
 11
75.729500000003725
 21
74.400000000000034
 31
0.0
  0
LINE
  5
EBB
  8
0
 10
73.519615242270604
 20
73.900000000000048
 30
0.0
 11
75.480384757729382
 21
73.900000000000048
 31
0.0
  0
LINE
  5
EBC
  8
0
 10
72.999999999999943
 20
74.200000000000003
 30
0.0
 11
76.000000000000057
 21
74.200000000000003
 31
0.0
  0
LINE
  5
EBD
  8
2
 10
73.000000000000057
 20
76.299999999999912
 30
0.0
 11
76.000000000000057
 21
76.299999999999912
 31
0.0
  0
LINE
  5
EBE
  8
2
 10
73.000000000000114
 20
76.300000000000026
 30
0.0
 11
73.600000000000136
 21
76.900000000000034
 31
0.0
  0
LINE
  5
EBF
  8
2
 10
75.400000000000034
 20
76.900000000000034
 30
0.0
 11
76.000000000000057
 21
76.300000000000026
 31
0.0
  0
LINE
  5
EC0
  8
0
 10
76.000000000000114
 20
74.200000000000003
 30
0.0
 11
75.480384757729496
 21
73.899999999999935
 31
0.0
  0
LINE
  5
EC1
  8
0
 10
73.0
 20
74.200000000000003
 30
0.0
 11
73.519615242270604
 21
73.899999999999935
 31
0.0
  0
ARC
  5
EC2
  8
0
 10
45.999999999999943
 20
99.841534999999965
 30
0.0
 40
1.0
 50
0.0000000000002036
 51
90.000000000000185
  0
ARC
  5
EC3
  8
0
 10
26.0
 20
99.841534999999922
 30
0.0
 40
1.0
 50
90.000000000000185
 51
180.00000000000011
  0
LINE
  5
EC4
  8
0
 10
45.999999999999943
 20
100.84153499999989
 30
0.0
 11
26.0
 21
100.84153499999989
 31
0.0
  0
CIRCLE
  5
EC5
  8
0
 10
34.300000000000011
 20
81.299999999999784
 30
0.0
 40
6.9000000000002473
  0
ARC
  5
EC6
  8
0
 10
26.99999999999994
 20
102.9999999999998
 30
0.0
 40
2.0
 50
90.000000000000185
 51
180.0000000000002
  0
ARC
  5
EC7
  8
0
 10
44.999999999999943
 20
102.9999999999999
 30
0.0
 40
2.0
 50
0.0000000000002036
 51
90.000000000000185
  0
LINE
  5
EC8
  8
0
 10
26.99999999999994
 20
104.9999999999998
 30
0.0
 11
44.999999999999943
 21
104.9999999999999
 31
0.0
  0
ARC
  5
EC9
  8
0
 10
34.300000000000011
 20
81.299999999999784
 30
0.0
 40
9.3000000000000007
 50
180.0000000000002
 51
270.00000000000023
  0
ARC
  5
ECA
  8
0
 10
43.000000000000057
 20
75.999999999999844
 30
0.0
 40
4.0
 50
270.00000000000023
 51
0.0000000000002036
  0
LINE
  5
ECB
  8
0
 10
43.000000000000057
 20
71.999999999999844
 30
0.0
 11
34.300000000000068
 21
71.999999999999844
 31
0.0
  0
LINE
  5
ECC
  8
1
 10
46.200000000000252
 20
81.299999999999912
 30
0.0
 11
22.399999999999771
 21
81.299999999999784
 31
0.0
  0
LINE
  5
ECD
  8
0
 10
25.0
 20
81.299999999999784
 30
0.0
 11
25.0
 21
102.9999999999998
 31
0.0
  0
LINE
  5
ECE
  8
0
 10
46.999999999999943
 20
102.9999999999999
 30
0.0
 11
47.00000000000005
 21
75.999999999999957
 31
0.0
  0
LINE
  5
ECF
  8
1
 10
34.300000000000011
 20
66.999999999999844
 30
0.0
 11
34.299999999999962
 21
109.9999999999998
 31
0.0
  0
LINE
  5
ED0
  8
2
 10
77.0
 20
74.600000000000094
 30
0.0
 11
94.599999999999994
 21
74.600000000000108
 31
0.0
  0
LINE
  5
ED1
  8
2
 10
77.0
 20
87.999999999999943
 30
0.0
 11
94.599999999999994
 21
87.999999999999943
 31
0.0
  0
LINE
  5
ED2
  8
5
 10
98.0
 20
105.0
 30
0.0
 11
100.0000000000001
 21
105.0
 31
0.0
1001
ACAD
1000
ASC_BOUNDS
1002
{
1070
    19
1002
}
  0
LINE
  5
ED3
  8
0
 10
98.0
 20
102.2999999999999
 30
0.0
 11
103.0
 21
102.2999999999999
 31
0.0
  0
LINE
  5
ED4
  8
0
 10
98.0
 20
96.299999999999969
 30
0.0
 11
103.0
 21
96.299999999999969
 31
0.0
  0
LINE
  5
ED5
  8
1
 10
95.000000000000014
 20
99.299999999999983
 30
0.0
 11
106.0
 21
99.299999999999969
 31
0.0
  0
LINE
  5
ED6
  8
0
 10
103.0
 20
96.299999999999969
 30
0.0
 11
103.0
 21
102.2999999999999
 31
0.0
  0
LINE
  5
ED7
  8
0
 10
88.287057999999988
 20
105.0
 30
0.0
 11
98.0
 21
105.0
 31
0.0
  0
LINE
  5
ED8
  8
2
 10
97.300000000000026
 20
89.299999999999898
 30
0.0
 11
98.0
 21
89.487563999999978
 31
0.0
  0
LINE
  5
ED9
  8
2
 10
94.599999999999994
 20
89.299999999999898
 30
0.0
 11
97.300000000000026
 21
89.299999999999898
 31
0.0
  0
LINE
  5
EDA
  8
5
 10
98.0
 20
71.999999999999943
 30
0.0
 11
99.999999999999886
 21
71.999999999999943
 31
0.0
1001
ACAD
1000
ASC_BOUNDS
1002
{
1070
    19
1002
}
  0
LINE
  5
EDB
  8
2
 10
97.300000000000026
 20
73.299999999999912
 30
0.0
 11
98.0
 21
73.112434999999962
 31
0.0
  0
LINE
  5
EDC
  8
2
 10
94.599999999999994
 20
73.299999999999912
 30
0.0
 11
97.300000000000026
 21
73.299999999999912
 31
0.0
  0
LINE
  5
EDD
  8
5
 10
100.0
 20
24.999999999999989
 30
0.0
 11
100.0
 21
46.99999999999995
 31
0.0
1001
ACAD
1000
ASC_BOUNDS
1002
{
1070
    19
1002
}
  0
LINE
  5
EDE
  8
2
 10
97.300000000000026
 20
89.299999999999898
 30
0.0
 11
97.300000000000026
 21
73.299999999999912
 31
0.0
  0
LINE
  5
EDF
  8
2
 10
94.599999999999994
 20
73.299999999999912
 30
0.0
 11
94.599999999999994
 21
89.299999999999898
 31
0.0
  0
LINE
  5
EE0
  8
0
 10
98.0
 20
105.0
 30
0.0
 11
98.0
 21
71.999999999999943
 31
0.0
  0
LINE
  5
EE1
  8
0
 10
95.0
 20
105.0
 30
0.0
 11
95.0
 21
71.999999999999943
 31
0.0
  0
LINE
  5
EE2
  8
0
 10
98.0
 20
73.799999999999912
 30
0.0
 11
98.0
 21
96.299999999999969
 31
0.0
  0
ARC
  5
EE3
  8
0
 10
78.5
 20
99.841534999999922
 30
0.0
 40
1.5
 50
110.0
 51
180.0
  0
LINE
  5
EE4
  8
0
 10
77.0
 20
87.999999999999943
 30
0.0
 11
76.800000000000011
 21
88.200000000000003
 31
0.0
  0
LINE
  5
EE5
  8
0
 10
77.0
 20
87.299999999999912
 30
0.0
 11
77.0
 21
87.999999999999943
 31
0.0
  0
LINE
  5
EE6
  8
0
 10
72.200000000000045
 20
88.200000000000003
 30
0.0
 11
72.0
 21
87.999999999999943
 31
0.0
  0
LINE
  5
EE7
  8
0
 10
76.800000000000011
 20
88.200000000000003
 30
0.0
 11
72.200000000000045
 21
88.200000000000003
 31
0.0
  0
ARC
  5
EE8
  8
0
 10
148.0
 20
102.9999999999997
 30
0.0
 40
2.0
 50
0.0
 51
90.0
  0
LINE
  5
EE9
  8
0
 10
150.0
 20
81.299999999999656
 30
0.0
 11
150.0
 21
102.9999999999997
 31
0.0
  0
ARC
  5
EEA
  8
0
 10
130.0
 20
102.9999999999997
 30
0.0
 40
2.0
 50
90.0
 51
180.0
  0
CIRCLE
  5
EEB
  8
0
 10
140.6999999999999
 20
99.299999999999713
 30
0.0
 40
1.5
  0
CIRCLE
  5
EEC
  8
0
 10
140.6999999999999
 20
99.299999999999713
 30
0.0
 40
3.0
  0
LINE
  5
EED
  8
1
 10
134.6999999999999
 20
99.299999999999713
 30
0.0
 11
146.6999999999999
 21
99.299999999999713
 31
0.0
  0
LINE
  5
EEE
  8
1
 10
127.6999999999999
 20
81.299999999999656
 30
0.0
 11
153.6999999999999
 21
81.299999999999656
 31
0.0
  0
LINE
  5
EEF
  8
0
 10
148.0
 20
104.9999999999997
 30
0.0
 11
130.0
 21
104.9999999999997
 31
0.0
  0
LINE
  5
EF0
  8
0
 10
77.0
 20
74.600000000000094
 30
0.0
 11
76.800000000000011
 21
74.400000000000034
 31
0.0
  0
ARC
  5
EF1
  8
0
 10
79.0
 20
73.999999999999943
 30
0.0
 40
2.0
 50
180.0
 51
270.0
  0
LINE
  5
EF2
  8
0
 10
72.200000000000045
 20
74.400000000000034
 30
0.0
 11
72.0
 21
74.600000000000094
 31
0.0
  0
LINE
  5
EF3
  8
1
 10
74.5
 20
79.900000000000063
 30
0.0
 11
74.500000000000057
 21
70.900000000000048
 31
0.0
  0
LINE
  5
EF4
  8
0
 10
72.200000000000045
 20
74.400000000000034
 30
0.0
 11
76.800000000000011
 21
74.400000000000034
 31
0.0
  0
ARC
  5
EF5
  8
0
 10
132.0
 20
75.999999999999702
 30
0.0
 40
4.0
 50
180.0
 51
270.0
  0
LINE
  5
EF6
  8
0
 10
132.0
 20
71.999999999999702
 30
0.0
 11
140.6999999999999
 21
71.999999999999702
 31
0.0
  0
LINE
  5
EF7
  8
0
 10
72.0
 20
87.999999999999943
 30
0.0
 11
72.0
 21
74.600000000000094
 31
0.0
  0
LINE
  5
EF8
  8
0
 10
77.0
 20
73.999999999999943
 30
0.0
 11
77.0
 21
99.841534999999922
 31
0.0
  0
ARC
  5
EF9
  8
0
 10
140.6999999999999
 20
81.299999999999656
 30
0.0
 40
9.3000000000000007
 50
270.0
 51
0.0
  0
CIRCLE
  5
EFA
  8
0
 10
140.6999999999999
 20
81.299999999999656
 30
0.0
 40
8.0
  0
CIRCLE
  5
EFB
  8
0
 10
140.6999999999999
 20
81.299999999999656
 30
0.0
 40
8.1875640000000001
  0
LINE
  5
EFC
  8
1
 10
140.69999999999999
 20
66.999999999999702
 30
0.0
 11
140.7000000000001
 21
109.9999999999997
 31
0.0
  0
LINE
  5
EFD
  8
0
 10
128.0
 20
102.9999999999997
 30
0.0
 11
128.0
 21
75.999999999999702
 31
0.0
  0
LINE
  5
EFE
  8
0
 10
77.986816522587617
 20
101.251018138782
 30
0.0
 11
88.287057999999988
 21
105.0
 31
0.0
  0
LINE
  5
EFF
  8
0
 10
79.0
 20
71.999999999999943
 30
0.0
 11
98.0
 21
71.999999999999943
 31
0.0
  0
LINE
  5
F00
  8
2
 10
72.0
 20
76.299999999999912
 30
0.0
 11
94.599999999999994
 21
76.299999999999926
 31
0.0
  0
LINE
  5
F01
  8
1
 10
103.0
 20
81.299999999999912
 30
0.0
 11
67.0
 21
81.299999999999898
 31
0.0
  0
LINE
  5
F02
  8
2
 10
72.0
 20
86.299999999999912
 30
0.0
 11
94.599999999999994
 21
86.299999999999912
 31
0.0
  0
CIRCLE
  5
F03
  8
0
 10
34.299999999999997
 20
81.299999999999855
 30
0.0
 40
5.0
  0
LINE
  5
F04
  8
3
 10
35.085708830116353
 20
101.71755690410581
 30
0.0
 11
34.310805522784278
 21
102.4289143228231
 31
0.0
  0
LINE
  5
F05
  8
3
 10
34.310805522784278
 20
102.63336378866219
 30
0.0
 11
35.085708830116353
 21
103.34472120737939
 31
0.0
  0
POLYLINE
  5
F06
  8
3
 66
     1
 10
0.0
 20
0.0
 30
0.0
 70
     8
  0
VERTEX
  5
F07
  8
3
 10
37.045838106937033
 20
103.2270501195858
 30
0.0
 70
    32
1001
ACAD
1000
R13OBJECT
1002
{
1005
0
1002
}
  0
VERTEX
  5
F08
  8
3
 10
36.532136610477153
 20
103.2257713819084
 30
0.0
 70
    32
1001
ACAD
1000
R13OBJECT
1002
{
1005
0
1002
}
  0
VERTEX
  5
F09
  8
3
 10
36.294860757027443
 20
103.1662661813038
 30
0.0
 70
    32
1001
ACAD
1000
R13OBJECT
1002
{
1005
0
1002
}
  0
VERTEX
  5
F0A
  8
3
 10
36.204347526442291
 20
103.0705138944777
 30
0.0
 70
    32
1001
ACAD
1000
R13OBJECT
1002
{
1005
0
1002
}
  0
SEQEND
  5
F0B
  8
3
  0
POLYLINE
  5
F0C
  8
3
 66
     1
 10
0.0
 20
0.0
 30
0.0
 70
     8
  0
VERTEX
  5
F0D
  8
3
 10
36.204347526442291
 20
101.9917642170075
 30
0.0
 70
    32
1001
ACAD
1000
R13OBJECT
1002
{
1005
0
1002
}
  0
VERTEX
  5
F0E
  8
3
 10
36.294860757027443
 20
101.8960119301814
 30
0.0
 70
    32
1001
ACAD
1000
R13OBJECT
1002
{
1005
0
1002
}
  0
VERTEX
  5
F0F
  8
3
 10
36.53213661047721
 20
101.8365067295768
 30
0.0
 70
    32
1001
ACAD
1000
R13OBJECT
1002
{
1005
0
1002
}
  0
VERTEX
  5
F10
  8
3
 10
37.045838106936799
 20
101.8352279918995
 30
0.0
 70
    32
1001
ACAD
1000
R13OBJECT
1002
{
1005
0
1002
}
  0
SEQEND
  5
F11
  8
3
  0
POLYLINE
  5
F12
  8
3
 66
     1
 10
0.0
 20
0.0
 30
0.0
 70
     8
  0
VERTEX
  5
F13
  8
3
 10
38.387821192574911
 20
103.0473427349697
 30
0.0
 70
    32
1001
ACAD
1000
R13OBJECT
1002
{
1005
0
1002
}
  0
VERTEX
  5
F14
  8
3
 10
37.796669469948263
 20
103.13586800129239
 30
0.0
 70
    32
1001
ACAD
1000
R13OBJECT
1002
{
1005
0
1002
}
  0
VERTEX
  5
F15
  8
3
 10
37.045838106937033
 20
103.2270501195858
 30
0.0
 70
    32
1001
ACAD
1000
R13OBJECT
1002
{
1005
0
1002
}
  0
SEQEND
  5
F16
  8
3
  0
POLYLINE
  5
F17
  8
3
 66
     1
 10
0.0
 20
0.0
 30
0.0
 70
     8
  0
VERTEX
  5
F18
  8
3
 10
37.045838106936969
 20
101.8352279918995
 30
0.0
 70
    32
1001
ACAD
1000
R13OBJECT
1002
{
1005
0
1002
}
  0
VERTEX
  5
F19
  8
3
 10
37.796669469948263
 20
101.9264101101929
 30
0.0
 70
    32
1001
ACAD
1000
R13OBJECT
1002
{
1005
0
1002
}
  0
VERTEX
  5
F1A
  8
3
 10
38.387821192574847
 20
102.0149353765156
 30
0.0
 70
    32
1001
ACAD
1000
R13OBJECT
1002
{
1005
0
1002
}
  0
SEQEND
  5
F1B
  8
3
  0
POLYLINE
  5
F1C
  8
3
 66
     1
 10
0.0
 20
0.0
 30
0.0
 70
     8
  0
VERTEX
  5
F1D
  8
3
 10
37.673038400948997
 20
102.90918743942611
 30
0.0
 70
    32
1001
ACAD
1000
R13OBJECT
1002
{
1005
0
1002
}
  0
VERTEX
  5
F1E
  8
3
 10
37.49816163214922
 20
102.9342630200988
 30
0.0
 70
    32
1001
ACAD
1000
R13OBJECT
1002
{
1005
0
1002
}
  0
VERTEX
  5
F1F
  8
3
 10
37.207840207011827
 20
102.9732712038147
 30
0.0
 70
    32
1001
ACAD
1000
R13OBJECT
1002
{
1005
0
1002
}
  0
SEQEND
  5
F20
  8
3
  0
POLYLINE
  5
F21
  8
3
 66
     1
 10
0.0
 20
0.0
 30
0.0
 70
     8
  0
VERTEX
  5
F22
  8
3
 10
37.207840207011877
 20
102.0890069076704
 30
0.0
 70
    32
1001
ACAD
1000
R13OBJECT
1002
{
1005
0
1002
}
  0
VERTEX
  5
F23
  8
3
 10
37.498161632149163
 20
102.1280150913865
 30
0.0
 70
    32
1001
ACAD
1000
R13OBJECT
1002
{
1005
0
1002
}
  0
VERTEX
  5
F24
  8
3
 10
37.673038400948997
 20
102.15309067205909
 30
0.0
 70
    32
1001
ACAD
1000
R13OBJECT
1002
{
1005
0
1002
}
  0
SEQEND
  5
F25
  8
3
  0
POLYLINE
  5
F26
  8
3
 66
     1
 10
0.0
 20
0.0
 30
0.0
 70
     8
  0
VERTEX
  5
F27
  8
3
 10
30.804782968269141
 20
103.0340725901514
 30
0.0
 70
    32
1001
ACAD
1000
R13OBJECT
1002
{
1005
0
1002
}
  0
VERTEX
  5
F28
  8
3
 10
30.233023844209761
 20
102.96524274950301
 30
0.0
 70
    32
1001
ACAD
1000
R13OBJECT
1002
{
1005
0
1002
}
  0
VERTEX
  5
F29
  8
3
 10
29.470245687604798
 20
102.8517403217066
 30
0.0
 70
    32
1001
ACAD
1000
R13OBJECT
1002
{
1005
0
1002
}
  0
SEQEND
  5
F2A
  8
3
  0
POLYLINE
  5
F2B
  8
3
 66
     1
 10
0.0
 20
0.0
 30
0.0
 70
     8
  0
VERTEX
  5
F2C
  8
3
 10
28.701056517032949
 20
102.3597573952605
 30
0.0
 70
    32
1001
ACAD
1000
R13OBJECT
1002
{
1005
0
1002
}
  0
VERTEX
  5
F2D
  8
3
 10
29.517362101177412
 20
102.20661706159839
 30
0.0
 70
    32
1001
ACAD
1000
R13OBJECT
1002
{
1005
0
1002
}
  0
VERTEX
  5
F2E
  8
3
 10
29.93754366733981
 20
102.1401455926583
 30
0.0
 70
    32
1001
ACAD
1000
R13OBJECT
1002
{
1005
0
1002
}
  0
SEQEND
  5
F2F
  8
3
  0
POLYLINE
  5
F30
  8
3
 66
     1
 10
0.0
 20
0.0
 30
0.0
 70
     8
  0
VERTEX
  5
F31
  8
3
 10
30.80478296826908
 20
103.2475580632903
 30
0.0
 70
    32
1001
ACAD
1000
R13OBJECT
1002
{
1005
0
1002
}
  0
VERTEX
  5
F32
  8
3
 10
29.990741277668409
 20
103.1523348553858
 30
0.0
 70
    32
1001
ACAD
1000
R13OBJECT
1002
{
1005
0
1002
}
  0
VERTEX
  5
F33
  8
3
 10
28.89646277501004
 20
102.9829958171435
 30
0.0
 70
    32
1001
ACAD
1000
R13OBJECT
1002
{
1005
0
1002
}
  0
SEQEND
  5
F34
  8
3
  0
LINE
  5
F35
  8
3
 10
28.701056517032949
 20
102.3597573952605
 30
0.0
 11
28.701056517032949
 21
102.1186714481412
 31
0.0
  0
ARC
  5
F36
  8
3
 10
73.78778519352737
 20
143.24999999999949
 30
0.0
 40
10.588756471222791
 50
334.30589115139048
 51
342.50039042369542
  0
ARC
  5
F37
  8
3
 10
83.351453054432781
 20
140.23465875322739
 30
0.0
 40
0.5609937203296856
 50
342.50039042369582
 51
90.0
  0
ARC
  5
F38
  8
3
 10
73.78778519352737
 20
143.24999999999949
 30
0.0
 40
10.588756471222791
 50
357.7227469902972
 51
2.2772530097027861
  0
ARC
  5
F39
  8
3
 10
73.78778519352737
 20
143.24999999999949
 30
0.0
 40
10.588756471222791
 50
348.1530549875373
 51
352.75317086902322
  0
ARC
  5
F3A
  8
3
 10
73.78778519352737
 20
143.24999999999949
 30
0.0
 40
9.8173901057694728
 50
336.60556037740588
 51
339.20211441840678
  0
ARC
  5
F3B
  8
3
 10
82.834352516077615
 20
139.81391346298031
 30
0.0
 40
0.1402484300824214
 50
339.20211441840581
 51
90.0
  0
ARC
  5
F3C
  8
3
 10
82.540680613762419
 20
139.46329238777409
 30
0.0
 40
0.2804968601648428
 50
270.0
 51
336.60556037740582
  0
ARC
  5
F3D
  8
3
 10
73.78778519352737
 20
143.24999999999949
 30
0.0
 40
10.588756471222791
 50
7.0373625488478666
 51
11.84694501246263
  0
ARC
  5
F3E
  8
3
 10
82.824018861992258
 20
138.90229866744451
 30
0.0
 40
0.5609937203296856
 50
270.0
 51
334.30589115139031
  0
ARC
  5
F3F
  8
3
 10
73.78778519352737
 20
143.24999999999949
 30
0.0
 40
10.588756471222791
 50
16.149565140711719
 51
27.076028183260622
  0
LINE
  5
F40
  8
3
 10
83.226462859399788
 20
146.19521703173041
 30
0.0
 11
83.958697652243345
 21
146.19521703173041
 31
0.0
  0
LINE
  5
F41
  8
3
 10
82.132566783431443
 20
147.59770133255469
 30
0.0
 11
82.580198537884471
 21
147.59770133255461
 31
0.0
  0
LINE
  5
F42
  8
3
 10
81.992318353349091
 20
147.4574529024722
 30
0.0
 11
81.992318353349091
 21
146.61596232197769
 31
0.0
  0
ARC
  5
F43
  8
3
 10
82.580198537884471
 20
147.4574529024722
 30
0.0
 40
0.1402484300824214
 50
25.572615968006641
 51
90.0
  0
ARC
  5
F44
  8
3
 10
73.78778519352737
 20
143.24999999999949
 30
0.0
 40
9.8875143208106824
 50
17.329855683896199
 51
25.572615968007192
  0
ARC
  5
F45
  8
3
 10
82.841416115171327
 20
147.87819819271951
 30
0.0
 40
0.420745290247264
 50
27.076028183259719
 51
90.0
  0
LINE
  5
F46
  8
0
 10
85.499999999999986
 20
149.9999999999996
 30
0.0
 11
85.499999999999986
 21
136.4999999999996
 31
0.0
  0
LINE
  5
F47
  8
3
 10
78.634718511460946
 20
142.82925470975221
 30
0.0
 11
81.150827772854413
 21
142.82925470975221
 31
0.0
  0
LINE
  5
F48
  8
3
 10
81.150827772854413
 20
142.6891944772153
 30
0.0
 11
78.710939735164047
 21
141.9142911698832
 31
0.0
  0
LINE
  5
F49
  8
3
 10
81.501448848060576
 20
141.91763991421649
 30
0.0
 11
78.851901760377444
 21
141.07614933372199
 31
0.0
  0
ARC
  5
F4A
  8
3
 10
89.215112502593669
 20
143.24999999999949
 30
0.0
 40
9.8173901057694728
 50
200.79788558159319
 51
203.39443962259389
  0
ARC
  5
F4B
  8
3
 10
89.215112502593669
 20
143.24999999999949
 30
0.0
 40
10.588756471222791
 50
197.49960957630449
 51
205.69410884860949
  0
ARC
  5
F4C
  8
3
 10
79.651444641688371
 20
140.23465875322739
 30
0.0
 40
0.5609937203296856
 50
90.0
 51
197.49960957630481
  0
ARC
  5
F4D
  8
3
 10
80.168545180043424
 20
139.81391346298031
 30
0.0
 40
0.1402484300824214
 50
90.0
 51
200.79788558159069
  0
ARC
  5
F4E
  8
3
 10
80.462217082358492
 20
139.46329238777409
 30
0.0
 40
0.2804968601648428
 50
203.39443962259389
 51
270.0
  0
ARC
  5
F4F
  8
3
 10
89.215112502593669
 20
143.24999999999949
 30
0.0
 40
10.588756471222791
 50
177.7227469902972
 51
182.2772530097028
  0
ARC
  5
F50
  8
3
 10
89.215112502593669
 20
143.24999999999949
 30
0.0
 40
10.588756471222791
 50
187.24682913097669
 51
191.84694501246261
  0
ARC
  5
F51
  8
3
 10
89.215112502593669
 20
143.24999999999949
 30
0.0
 40
10.588756471222791
 50
168.15305498753739
 51
172.96263745115169
  0
LINE
  5
F52
  8
3
 10
81.852069923266626
 20
142.82925470975221
 30
0.0
 11
81.852069923266626
 21
142.6891944772153
 31
0.0
  0
LINE
  5
F53
  8
3
 10
81.150827772854413
 20
142.82925470975221
 30
0.0
 11
81.150827772854413
 21
142.6891944772153
 31
0.0
  0
ARC
  5
F54
  8
3
 10
80.178878834128895
 20
138.90229866744451
 30
0.0
 40
0.5609937203296856
 50
205.6941088486096
 51
270.0
  0
LINE
  5
F55
  8
3
 10
79.907592246764793
 20
148.29894348296659
 30
0.0
 11
80.713870878569637
 21
148.29894348296659
 31
0.0
  0
LINE
  5
F56
  8
3
 10
79.620387440171825
 20
146.19521703173041
 30
0.0
 11
81.571573063101795
 21
146.19521703173041
 31
0.0
  0
LINE
  5
F57
  8
3
 10
80.233462442383697
 20
146.89645918214251
 30
0.0
 11
81.080703557813294
 21
146.89645918214251
 31
0.0
  0
ARC
  5
F58
  8
3
 10
89.215112502593669
 20
143.24999999999949
 30
0.0
 40
9.8875143208106824
 50
149.29364419985851
 51
157.13947383544911
  0
ARC
  5
F59
  8
3
 10
89.215112502593669
 20
143.24999999999949
 30
0.0
 40
10.588756471222791
 50
151.52200596377659
 51
160.6684235941315
  0
ARC
  5
F5A
  8
3
 10
79.620387440171825
 20
146.61596232197769
 30
0.0
 40
0.420745290247264
 50
160.66842359413201
 51
270.0
  0
ARC
  5
F5B
  8
3
 10
80.233462442383697
 20
147.036707612225
 30
0.0
 40
0.1402484300824214
 50
157.13947383544939
 51
270.0
  0
LINE
  5
F5C
  8
3
 10
81.220951987895646
 20
147.87819819271951
 30
0.0
 11
81.220951987895646
 21
147.036707612225
 31
0.0
  0
ARC
  5
F5D
  8
3
 10
81.641697278142928
 20
147.87819819271951
 30
0.0
 40
0.420745290247264
 50
90.0
 51
180.0
  0
ARC
  5
F5E
  8
3
 10
81.080703557813294
 20
147.036707612225
 30
0.0
 40
0.1402484300824214
 50
270.0
 51
359.9999999999996
  0
LINE
  5
F5F
  8
0
 10
77.499999999999986
 20
149.9999999999996
 30
0.0
 11
77.499999999999986
 21
136.4999999999996
 31
0.0
  0
LINE
  5
F60
  8
3
 10
80.462217082358492
 20
139.1827955276093
 30
0.0
 11
82.540680613762419
 21
139.1827955276093
 31
0.0
  0
LINE
  5
F61
  8
3
 10
80.178878834128895
 20
138.34130494711479
 30
0.0
 11
82.824018861992258
 21
138.34130494711479
 31
0.0
  0
LINE
  5
F62
  8
3
 10
80.168545180043424
 20
139.9541618930626
 30
0.0
 11
82.834352516077615
 21
139.9541618930626
 31
0.0
  0
LINE
  5
F63
  8
3
 10
78.634718511460946
 20
143.6707452902468
 30
0.0
 11
84.368179184660093
 21
143.6707452902468
 31
0.0
  0
LINE
  5
F64
  8
3
 10
79.651444641688371
 20
140.7956524735572
 30
0.0
 11
83.351453054432781
 21
140.7956524735572
 31
0.0
  0
LINE
  5
F65
  8
3
 10
78.706126749322479
 20
144.54729797826189
 30
0.0
 11
84.296770946798674
 21
144.54729797826189
 31
0.0
  0
LINE
  5
F66
  8
3
 10
78.851901760377444
 20
145.42385066627699
 30
0.0
 11
84.150995935743694
 21
145.42385066627699
 31
0.0
  0
POLYLINE
  5
F67
  8
3
 66
     1
 10
0.0
 20
0.0
 30
0.0
 70
     1
  0
VERTEX
  5
111E
  8
3
 10
83.422148010102987
 20
137.4998143666202
 30
0.0
 42
0.2757322443321372
  0
VERTEX
  5
111F
  8
3
 10
83.422148010102987
 20
149.00018563337881
 30
0.0
  0
VERTEX
  5
1120
  8
3
 10
79.580749686018052
 20
149.00018563337881
 30
0.0
 42
0.2757322443321373
  0
VERTEX
  5
1121
  8
3
 10
79.580749686018052
 20
137.4998143666202
 30
0.0
  0
SEQEND
  5
1122
  8
3
  0
POLYLINE
  5
F68
  8
3
 66
     1
 10
0.0
 20
0.0
 30
0.0
 70
     1
  0
VERTEX
  5
1123
  8
3
 10
83.322099994429877
 20
137.6751249042232
 30
0.0
 42
0.2709027632264667
  0
VERTEX
  5
1124
  8
3
 10
83.322099994429877
 20
148.8248750957757
 30
0.0
  0
VERTEX
  5
1125
  8
3
 10
79.680797701691162
 20
148.8248750957757
 30
0.0
 42
0.2709027632264667
  0
VERTEX
  5
1126
  8
3
 10
79.680797701691276
 20
137.6751249042232
 30
0.0
  0
SEQEND
  5
1127
  8
3
  0
LINE
  5
F69
  8
0
 10
85.499999999999986
 20
149.9999999999996
 30
0.0
 11
77.499999999999986
 21
149.9999999999996
 31
0.0
  0
LINE
  5
F6A
  8
0
 10
85.499999999999986
 20
136.4999999999996
 30
0.0
 11
77.499999999999986
 21
136.4999999999996
 31
0.0
  0
LINE
  5
F6B
  8
3
 10
81.641697278142928
 20
148.29894348296659
 30
0.0
 11
82.841416115171327
 21
148.29894348296659
 31
0.0
  0
ARC
  5
F6C
  8
3
 10
81.571573063101795
 20
146.61596232197769
 30
0.0
 40
0.420745290247264
 50
270.0
 51
0.0
  0
ARC
  5
F6D
  8
3
 10
82.132566783431443
 20
147.4574529024722
 30
0.0
 40
0.1402484300824214
 50
90.0
 51
180.0
  0
LINE
  5
F6E
  8
3
 10
81.501448848060576
 20
141.91763991421649
 30
0.0
 11
84.150995935743694
 21
141.07614933372199
 31
0.0
  0
LINE
  5
F6F
  8
3
 10
81.852069923266626
 20
142.6891944772153
 30
0.0
 11
84.291957960957106
 21
141.9142911698832
 31
0.0
  0
LINE
  5
F70
  8
3
 10
81.852069923266626
 20
142.82925470975221
 30
0.0
 11
84.368179184660093
 21
142.82925470975221
 31
0.0
  0
LINE
  5
F71
  8
0
 10
27.0
 20
102.5311390557425
 30
0.0
 11
27.0
 21
102.5311390557425
 31
0.0
  0
POLYLINE
  5
F72
  8
3
 66
     1
 10
0.0
 20
0.0
 30
0.0
 70
     8
  0
VERTEX
  5
F73
  8
3
 10
37.817204472390237
 20
102.8341305106286
 30
0.0
 70
    32
1001
ACAD
1000
R13OBJECT
1002
{
1005
0
1002
}
  0
VERTEX
  5
F74
  8
3
 10
37.777938870056062
 20
102.8790327960068
 30
0.0
 70
    32
1001
ACAD
1000
R13OBJECT
1002
{
1005
0
1002
}
  0
VERTEX
  5
F75
  8
3
 10
37.67303840094894
 20
102.90918743942611
 30
0.0
 70
    32
1001
ACAD
1000
R13OBJECT
1002
{
1005
0
1002
}
  0
SEQEND
  5
F76
  8
3
  0
POLYLINE
  5
F77
  8
3
 66
     1
 10
0.0
 20
0.0
 30
0.0
 70
     8
  0
VERTEX
  5
F78
  8
3
 10
37.67303840094894
 20
102.15309067205909
 30
0.0
 70
    32
1001
ACAD
1000
R13OBJECT
1002
{
1005
0
1002
}
  0
VERTEX
  5
F79
  8
3
 10
37.777938870056062
 20
102.1832453154784
 30
0.0
 70
    32
1001
ACAD
1000
R13OBJECT
1002
{
1005
0
1002
}
  0
VERTEX
  5
F7A
  8
3
 10
37.817204472390237
 20
102.2281476008566
 30
0.0
 70
    32
1001
ACAD
1000
R13OBJECT
1002
{
1005
0
1002
}
  0
SEQEND
  5
F7B
  8
3
  0
POLYLINE
  5
F7C
  8
3
 66
     1
 10
0.0
 20
0.0
 30
0.0
 70
     8
  0
VERTEX
  5
F7D
  8
3
 10
37.045838106937033
 20
102.127232365533
 30
0.0
 70
    32
1001
ACAD
1000
R13OBJECT
1002
{
1005
0
1002
}
  0
VERTEX
  5
F7E
  8
3
 10
37.06982717051369
 20
102.10266262936361
 30
0.0
 70
    32
1001
ACAD
1000
R13OBJECT
1002
{
1005
0
1002
}
  0
VERTEX
  5
F7F
  8
3
 10
37.132167195202904
 20
102.0879530917353
 30
0.0
 70
    32
1001
ACAD
1000
R13OBJECT
1002
{
1005
0
1002
}
  0
VERTEX
  5
F80
  8
3
 10
37.207840207011941
 20
102.0890069076704
 30
0.0
 70
    32
1001
ACAD
1000
R13OBJECT
1002
{
1005
0
1002
}
  0
SEQEND
  5
F81
  8
3
  0
POLYLINE
  5
F82
  8
3
 66
     1
 10
0.0
 20
0.0
 30
0.0
 70
     8
  0
VERTEX
  5
F83
  8
3
 10
37.207840207011941
 20
102.9732712038147
 30
0.0
 70
    32
1001
ACAD
1000
R13OBJECT
1002
{
1005
0
1002
}
  0
VERTEX
  5
F84
  8
3
 10
37.132167195202904
 20
102.9743250197499
 30
0.0
 70
    32
1001
ACAD
1000
R13OBJECT
1002
{
1005
0
1002
}
  0
VERTEX
  5
F85
  8
3
 10
37.069827170513641
 20
102.95961548212161
 30
0.0
 70
    32
1001
ACAD
1000
R13OBJECT
1002
{
1005
0
1002
}
  0
VERTEX
  5
F86
  8
3
 10
37.045838106937033
 20
102.9350457459521
 30
0.0
 70
    32
1001
ACAD
1000
R13OBJECT
1002
{
1005
0
1002
}
  0
SEQEND
  5
F87
  8
3
  0
POLYLINE
  5
F88
  8
3
 66
     1
 10
0.0
 20
0.0
 30
0.0
 70
     8
  0
VERTEX
  5
F89
  8
3
 10
38.658695052884809
 20
102.8999556702687
 30
0.0
 70
    32
1001
ACAD
1000
R13OBJECT
1002
{
1005
0
1002
}
  0
VERTEX
  5
F8A
  8
3
 10
38.58535231887226
 20
102.9869989927916
 30
0.0
 70
    32
1001
ACAD
1000
R13OBJECT
1002
{
1005
0
1002
}
  0
VERTEX
  5
F8B
  8
3
 10
38.387821192574791
 20
103.0473427349697
 30
0.0
 70
    32
1001
ACAD
1000
R13OBJECT
1002
{
1005
0
1002
}
  0
SEQEND
  5
F8C
  8
3
  0
POLYLINE
  5
F8D
  8
3
 66
     1
 10
0.0
 20
0.0
 30
0.0
 70
     8
  0
VERTEX
  5
F8E
  8
3
 10
38.387821192574791
 20
102.0149353765156
 30
0.0
 70
    32
1001
ACAD
1000
R13OBJECT
1002
{
1005
0
1002
}
  0
VERTEX
  5
F8F
  8
3
 10
38.58535231887226
 20
102.0752791186937
 30
0.0
 70
    32
1001
ACAD
1000
R13OBJECT
1002
{
1005
0
1002
}
  0
VERTEX
  5
F90
  8
3
 10
38.658695052884809
 20
102.1623224412166
 30
0.0
 70
    32
1001
ACAD
1000
R13OBJECT
1002
{
1005
0
1002
}
  0
SEQEND
  5
F91
  8
3
  0
LINE
  5
F92
  8
3
 10
37.817204472390237
 20
102.2281476008567
 30
0.0
 11
37.817204472390237
 21
102.8341305106286
 31
0.0
  0
LINE
  5
F93
  8
3
 10
37.045838106936969
 20
102.127232365533
 30
0.0
 11
37.045838106937033
 21
102.93504574595219
 31
0.0
  0
LINE
  5
F94
  8
3
 10
38.658695052884809
 20
102.1623224412165
 30
0.0
 11
38.658695052884809
 21
102.8999556702688
 31
0.0
  0
LINE
  5
F95
  8
3
 10
36.204347526442348
 20
101.9917642170075
 30
0.0
 11
36.204347526442348
 21
103.0705138944777
 31
0.0
  0
LINE
  5
F96
  8
3
 10
39.324373351133893
 20
102.0936906384802
 30
0.0
 11
39.324373351133893
 21
102.968587473005
 31
0.0
  0
LINE
  5
F97
  8
3
 10
39.500185633379317
 20
102.0593737802148
 30
0.0
 11
39.500185633379317
 21
103.0029043312703
 31
0.0
  0
LINE
  5
F98
  8
3
 10
29.521851019371301
 20
102.67425368183
 30
0.0
 11
30.446125912488299
 21
102.67425368183
 31
0.0
  0
POLYLINE
  5
F99
  8
3
 66
     1
 10
0.0
 20
0.0
 30
0.0
 70
     8
  0
VERTEX
  5
F9A
  8
3
 10
29.470245687604859
 20
102.8517403217066
 30
0.0
 70
    32
1001
ACAD
1000
R13OBJECT
1002
{
1005
0
1002
}
  0
VERTEX
  5
F9B
  8
3
 10
29.420701863082801
 20
102.8366535679616
 30
0.0
 70
    32
1001
ACAD
1000
R13OBJECT
1002
{
1005
0
1002
}
  0
VERTEX
  5
F9C
  8
3
 10
29.402298667444938
 20
102.8148560460165
 30
0.0
 70
    32
1001
ACAD
1000
R13OBJECT
1002
{
1005
0
1002
}
  0
SEQEND
  5
F9D
  8
3
  0
POLYLINE
  5
F9E
  8
3
 66
     1
 10
0.0
 20
0.0
 30
0.0
 70
     8
  0
VERTEX
  5
F9F
  8
3
 10
29.402298667444882
 20
102.7151435749978
 30
0.0
 70
    32
1001
ACAD
1000
R13OBJECT
1002
{
1005
0
1002
}
  0
VERTEX
  5
FA0
  8
3
 10
29.43731474061747
 20
102.6862300542568
 30
0.0
 70
    32
1001
ACAD
1000
R13OBJECT
1002
{
1005
0
1002
}
  0
VERTEX
  5
FA1
  8
3
 10
29.521851019371809
 20
102.6742536818299
 30
0.0
 70
    32
1001
ACAD
1000
R13OBJECT
1002
{
1005
0
1002
}
  0
SEQEND
  5
FA2
  8
3
  0
POLYLINE
  5
FA3
  8
3
 66
     1
 10
0.0
 20
0.0
 30
0.0
 70
     8
  0
VERTEX
  5
FA4
  8
3
 10
30.103540817857041
 20
102.4084693762392
 30
0.0
 70
    32
1001
ACAD
1000
R13OBJECT
1002
{
1005
0
1002
}
  0
VERTEX
  5
FA5
  8
3
 10
30.08752383978106
 20
102.4289143228231
 30
0.0
 70
    32
1001
ACAD
1000
R13OBJECT
1002
{
1005
0
1002
}
  0
VERTEX
  5
FA6
  8
3
 10
30.043764641893631
 20
102.4438810624806
 30
0.0
 70
    32
1001
ACAD
1000
R13OBJECT
1002
{
1005
0
1002
}
  0
VERTEX
  5
FA7
  8
3
 10
29.983988465930111
 20
102.449359269407
 30
0.0
 70
    32
1001
ACAD
1000
R13OBJECT
1002
{
1005
0
1002
}
  0
SEQEND
  5
FA8
  8
3
  0
POLYLINE
  5
FA9
  8
3
 66
     1
 10
0.0
 20
0.0
 30
0.0
 70
     8
  0
VERTEX
  5
FAA
  8
3
 10
29.93754366733981
 20
102.1401455926583
 30
0.0
 70
    32
1001
ACAD
1000
R13OBJECT
1002
{
1005
0
1002
}
  0
VERTEX
  5
FAB
  8
3
 10
30.014446197615829
 20
102.1382830672551
 30
0.0
 70
    32
1001
ACAD
1000
R13OBJECT
1002
{
1005
0
1002
}
  0
VERTEX
  5
FAC
  8
3
 10
30.078682864678509
 20
102.1528635418089
 30
0.0
 70
    32
1001
ACAD
1000
R13OBJECT
1002
{
1005
0
1002
}
  0
VERTEX
  5
FAD
  8
3
 10
30.103540817857041
 20
102.1778237185604
 30
0.0
 70
    32
1001
ACAD
1000
R13OBJECT
1002
{
1005
0
1002
}
  0
SEQEND
  5
FAE
  8
3
  0
LINE
  5
FAF
  8
3
 10
30.103540817857041
 20
102.1778237185604
 30
0.0
 11
30.103540817857041
 21
102.4084693762392
 31
0.0
  0
LINE
  5
FB0
  8
3
 10
29.402298667444938
 20
102.7151435749978
 30
0.0
 11
29.402298667444938
 21
102.8148560460165
 31
0.0
  0
POLYLINE
  5
FB1
  8
3
 66
     1
 10
0.0
 20
0.0
 30
0.0
 70
     8
  0
VERTEX
  5
FB2
  8
3
 10
30.80478296826908
 20
102.55158400232651
 30
0.0
 70
    32
1001
ACAD
1000
R13OBJECT
1002
{
1005
0
1002
}
  0
VERTEX
  5
FB3
  8
3
 10
30.699734748751268
 20
102.63832456454939
 30
0.0
 70
    32
1001
ACAD
1000
R13OBJECT
1002
{
1005
0
1002
}
  0
VERTEX
  5
FB4
  8
3
 10
30.446125912488299
 20
102.67425368183
 30
0.0
 70
    32
1001
ACAD
1000
R13OBJECT
1002
{
1005
0
1002
}
  0
SEQEND
  5
FB5
  8
3
  0
POLYLINE
  5
FB6
  8
3
 66
     1
 10
0.0
 20
0.0
 30
0.0
 70
     8
  0
VERTEX
  5
FB7
  8
3
 10
30.32739805954014
 20
101.86695598897541
 30
0.0
 70
    32
1001
ACAD
1000
R13OBJECT
1002
{
1005
0
1002
}
  0
VERTEX
  5
FB8
  8
3
 10
30.551659033239051
 20
101.8654702994171
 30
0.0
 70
    32
1001
ACAD
1000
R13OBJECT
1002
{
1005
0
1002
}
  0
VERTEX
  5
FB9
  8
3
 10
30.73464374732453
 20
101.90983932346521
 30
0.0
 70
    32
1001
ACAD
1000
R13OBJECT
1002
{
1005
0
1002
}
  0
VERTEX
  5
FBA
  8
3
 10
30.80478296826908
 20
101.9827093872932
 30
0.0
 70
    32
1001
ACAD
1000
R13OBJECT
1002
{
1005
0
1002
}
  0
SEQEND
  5
FBB
  8
3
  0
LINE
  5
FBC
  8
3
 10
34.170745290247339
 20
102.63336378866209
 30
0.0
 11
34.170745290247339
 21
103.3669437569831
 31
0.0
  0
LINE
  5
FBD
  8
3
 10
34.170745290247339
 20
102.4289143228231
 30
0.0
 11
34.310805522784278
 21
102.4289143228231
 31
0.0
  0
LINE
  5
FBE
  8
3
 10
34.170745290247339
 20
102.63336378866209
 30
0.0
 11
34.310805522784278
 21
102.63336378866219
 31
0.0
  0
POLYLINE
  5
FBF
  8
3
 66
     1
 10
0.0
 20
0.0
 30
0.0
 70
     8
  0
VERTEX
  5
FC0
  8
3
 10
34.170745290247339
 20
103.36609961987681
 30
0.0
 70
    32
1001
ACAD
1000
R13OBJECT
1002
{
1005
0
1002
}
  0
VERTEX
  5
FC1
  8
3
 10
33.687911765533563
 20
103.3693818656827
 30
0.0
 70
    32
1001
ACAD
1000
R13OBJECT
1002
{
1005
0
1002
}
  0
VERTEX
  5
FC2
  8
3
 10
33.329254709752782
 20
103.3669437569831
 30
0.0
 70
    32
1001
ACAD
1000
R13OBJECT
1002
{
1005
0
1002
}
  0
SEQEND
  5
FC3
  8
3
  0
LINE
  5
FC4
  8
3
 10
34.170745290247339
 20
101.69533435450219
 30
0.0
 11
34.170745290247339
 21
102.4289143228231
 31
0.0
  0
POLYLINE
  5
FC5
  8
3
 66
     1
 10
0.0
 20
0.0
 30
0.0
 70
     8
  0
VERTEX
  5
FC6
  8
3
 10
33.329254709752782
 20
101.69533435450219
 30
0.0
 70
    32
1001
ACAD
1000
R13OBJECT
1002
{
1005
0
1002
}
  0
VERTEX
  5
FC7
  8
3
 10
33.687911765533563
 20
101.6928962458025
 30
0.0
 70
    32
1001
ACAD
1000
R13OBJECT
1002
{
1005
0
1002
}
  0
VERTEX
  5
FC8
  8
3
 10
34.170745290247339
 20
101.69617849160841
 30
0.0
 70
    32
1001
ACAD
1000
R13OBJECT
1002
{
1005
0
1002
}
  0
SEQEND
  5
FC9
  8
3
  0
POLYLINE
  5
FCA
  8
3
 66
     1
 10
0.0
 20
0.0
 30
0.0
 70
     8
  0
VERTEX
  5
FCB
  8
3
 10
32.45270202173765
 20
103.35253102932749
 30
0.0
 70
    32
1001
ACAD
1000
R13OBJECT
1002
{
1005
0
1002
}
  0
VERTEX
  5
FCC
  8
3
 10
31.948446361055971
 20
103.3275558299225
 30
0.0
 70
    32
1001
ACAD
1000
R13OBJECT
1002
{
1005
0
1002
}
  0
VERTEX
  5
FCD
  8
3
 10
31.57614933372253
 20
103.3036232631935
 30
0.0
 70
    32
1001
ACAD
1000
R13OBJECT
1002
{
1005
0
1002
}
  0
SEQEND
  5
FCE
  8
3
  0
LINE
  5
FCF
  8
3
 10
32.45270202173765
 20
101.7097470821577
 30
0.0
 11
32.45270202173765
 21
103.35253102932749
 31
0.0
  0
LINE
  5
FD0
  8
3
 10
30.804782968269141
 20
103.0340725901514
 30
0.0
 11
30.804782968269141
 21
103.2475580632903
 31
0.0
  0
POLYLINE
  5
FD1
  8
3
 66
     1
 10
0.0
 20
0.0
 30
0.0
 70
     8
  0
VERTEX
  5
FD2
  8
3
 10
31.57614933372253
 20
101.7586548482917
 30
0.0
 70
    32
1001
ACAD
1000
R13OBJECT
1002
{
1005
0
1002
}
  0
VERTEX
  5
FD3
  8
3
 10
31.948446361055911
 20
101.7347222815627
 30
0.0
 70
    32
1001
ACAD
1000
R13OBJECT
1002
{
1005
0
1002
}
  0
VERTEX
  5
FD4
  8
3
 10
32.45270202173765
 20
101.7097470821577
 30
0.0
 70
    32
1001
ACAD
1000
R13OBJECT
1002
{
1005
0
1002
}
  0
SEQEND
  5
FD5
  8
3
  0
LINE
  5
FD6
  8
3
 10
30.804782968269141
 20
101.9827093872932
 30
0.0
 11
30.804782968269141
 21
102.55158400232651
 31
0.0
  0
LINE
  5
FD7
  8
3
 10
33.329254709752782
 20
101.69533435450219
 30
0.0
 11
33.329254709752782
 21
103.3669437569831
 31
0.0
  0
LINE
  5
FD8
  8
3
 10
31.576149333722469
 20
101.7586548482918
 30
0.0
 11
31.576149333722469
 21
103.3036232631934
 31
0.0
  0
POLYLINE
  5
FD9
  8
3
 66
     1
 10
0.0
 20
0.0
 30
0.0
 70
     8
  0
VERTEX
  5
FDA
  8
3
 10
35.923850666277531
 20
103.2956324923866
 30
0.0
 70
    32
1001
ACAD
1000
R13OBJECT
1002
{
1005
0
1002
}
  0
VERTEX
  5
FDB
  8
3
 10
35.444144677960139
 20
103.32662496655171
 30
0.0
 70
    32
1001
ACAD
1000
R13OBJECT
1002
{
1005
0
1002
}
  0
VERTEX
  5
FDC
  8
3
 10
35.085708830116353
 20
103.34472120737939
 30
0.0
 70
    32
1001
ACAD
1000
R13OBJECT
1002
{
1005
0
1002
}
  0
SEQEND
  5
FDD
  8
3
  0
POLYLINE
  5
FDE
  8
3
 66
     1
 10
0.0
 20
0.0
 30
0.0
 70
     8
  0
VERTEX
  5
FDF
  8
3
 10
35.085708830116353
 20
101.71755690410581
 30
0.0
 70
    32
1001
ACAD
1000
R13OBJECT
1002
{
1005
0
1002
}
  0
VERTEX
  5
FE0
  8
3
 10
35.444144677960139
 20
101.73565314493349
 30
0.0
 70
    32
1001
ACAD
1000
R13OBJECT
1002
{
1005
0
1002
}
  0
VERTEX
  5
FE1
  8
3
 10
35.923850666277531
 20
101.7666456190987
 30
0.0
 70
    32
1001
ACAD
1000
R13OBJECT
1002
{
1005
0
1002
}
  0
SEQEND
  5
FE2
  8
3
  0
LINE
  5
FE3
  8
3
 10
35.20653655471591
 20
102.5311390557426
 30
0.0
 11
35.923850666277467
 21
101.7586548482918
 31
0.0
  0
LINE
  5
FE4
  8
3
 10
35.20653655471591
 20
102.5311390557426
 30
0.0
 11
35.923850666277467
 21
103.3036232631934
 31
0.0
  0
POLYLINE
  5
FE5
  8
3
 66
     1
 10
0.0
 20
0.0
 30
0.0
 70
     8
  0
VERTEX
  5
FE6
  8
3
 10
28.7010565170329
 20
102.5720289489105
 30
0.0
 70
    32
1001
ACAD
1000
R13OBJECT
1002
{
1005
0
1002
}
  0
VERTEX
  5
FE7
  8
3
 10
28.749107451260961
 20
102.51069410915881
 30
0.0
 70
    32
1001
ACAD
1000
R13OBJECT
1002
{
1005
0
1002
}
  0
VERTEX
  5
FE8
  8
3
 10
28.88038504492329
 20
102.4657938901863
 30
0.0
 70
    32
1001
ACAD
1000
R13OBJECT
1002
{
1005
0
1002
}
  0
VERTEX
  5
FE9
  8
3
 10
29.059713572813731
 20
102.449359269407
 30
0.0
 70
    32
1001
ACAD
1000
R13OBJECT
1002
{
1005
0
1002
}
  0
SEQEND
  5
FEA
  8
3
  0
POLYLINE
  5
FEB
  8
3
 66
     1
 10
0.0
 20
0.0
 30
0.0
 70
     8
  0
VERTEX
  5
FEC
  8
3
 10
28.89646277501004
 20
102.9829958171435
 30
0.0
 70
    32
1001
ACAD
1000
R13OBJECT
1002
{
1005
0
1002
}
  0
VERTEX
  5
FED
  8
3
 10
28.75378389612683
 20
102.93779565003059
 30
0.0
 70
    32
1001
ACAD
1000
R13OBJECT
1002
{
1005
0
1002
}
  0
VERTEX
  5
FEE
  8
3
 10
28.7010565170329
 20
102.8737703271501
 30
0.0
 70
    32
1001
ACAD
1000
R13OBJECT
1002
{
1005
0
1002
}
  0
SEQEND
  5
FEF
  8
3
  0
LINE
  5
FF0
  8
3
 10
28.701056517032949
 20
102.5720289489104
 30
0.0
 11
28.701056517032949
 21
102.8737703271501
 31
0.0
  0
LINE
  5
FF1
  8
3
 10
28.142712200320769
 20
102.968587473005
 30
0.0
 11
28.142712200320769
 21
102.0936906384802
 31
0.0
  0
LINE
  5
FF2
  8
3
 10
27.966899918075232
 20
103.0029043312704
 30
0.0
 11
27.966899918075232
 21
102.0593737802148
 31
0.0
  0
POLYLINE
  5
FF3
  8
3
 66
     1
 10
0.0
 20
0.0
 30
0.0
 70
     8
  0
VERTEX
  5
FF4
  8
3
 10
28.142712200320659
 20
102.0936906384802
 30
0.0
 70
    32
1001
ACAD
1000
R13OBJECT
1002
{
1005
0
1002
}
  0
VERTEX
  5
FF5
  8
3
 10
30.27602666929408
 20
101.76497132614649
 30
0.0
 70
    32
1001
ACAD
1000
R13OBJECT
1002
{
1005
0
1002
}
  0
VERTEX
  5
FF6
  8
3
 10
32.563634799618463
 20
101.5968606518127
 30
0.0
 70
    32
1001
ACAD
1000
R13OBJECT
1002
{
1005
0
1002
}
  0
VERTEX
  5
FF7
  8
3
 10
34.90345075183609
 20
101.5968606518127
 30
0.0
 70
    32
1001
ACAD
1000
R13OBJECT
1002
{
1005
0
1002
}
  0
VERTEX
  5
FF8
  8
3
 10
37.191058882160462
 20
101.76497132614649
 30
0.0
 70
    32
1001
ACAD
1000
R13OBJECT
1002
{
1005
0
1002
}
  0
VERTEX
  5
FF9
  8
3
 10
39.324373351133893
 20
102.0936906384802
 30
0.0
 70
    32
1001
ACAD
1000
R13OBJECT
1002
{
1005
0
1002
}
  0
SEQEND
  5
FFA
  8
3
  0
POLYLINE
  5
FFB
  8
3
 66
     1
 10
0.0
 20
0.0
 30
0.0
 70
     8
  0
VERTEX
  5
FFC
  8
3
 10
39.324373351133723
 20
102.968587473005
 30
0.0
 70
    32
1001
ACAD
1000
R13OBJECT
1002
{
1005
0
1002
}
  0
VERTEX
  5
FFD
  8
3
 10
37.191058882160348
 20
103.29730678533871
 30
0.0
 70
    32
1001
ACAD
1000
R13OBJECT
1002
{
1005
0
1002
}
  0
VERTEX
  5
FFE
  8
3
 10
34.903450751835983
 20
103.46541745967249
 30
0.0
 70
    32
1001
ACAD
1000
R13OBJECT
1002
{
1005
0
1002
}
  0
VERTEX
  5
FFF
  8
3
 10
32.563634799618463
 20
103.46541745967249
 30
0.0
 70
    32
1001
ACAD
1000
R13OBJECT
1002
{
1005
0
1002
}
  0
VERTEX
  5
1000
  8
3
 10
30.27602666929414
 20
103.29730678533871
 30
0.0
 70
    32
1001
ACAD
1000
R13OBJECT
1002
{
1005
0
1002
}
  0
VERTEX
  5
1001
  8
3
 10
28.142712200320769
 20
102.968587473005
 30
0.0
 70
    32
1001
ACAD
1000
R13OBJECT
1002
{
1005
0
1002
}
  0
SEQEND
  5
1002
  8
3
  0
POLYLINE
  5
1003
  8
3
 66
     1
 10
0.0
 20
0.0
 30
0.0
 70
     8
  0
VERTEX
  5
1004
  8
3
 10
27.966899918075232
 20
102.0593737802148
 30
0.0
 70
    32
1001
ACAD
1000
R13OBJECT
1002
{
1005
0
1002
}
  0
VERTEX
  5
1005
  8
3
 10
30.16355209329345
 20
101.71437525233971
 30
0.0
 70
    32
1001
ACAD
1000
R13OBJECT
1002
{
1005
0
1002
}
  0
VERTEX
  5
1006
  8
3
 10
32.524954328044828
 20
101.5378016770626
 30
0.0
 70
    32
1001
ACAD
1000
R13OBJECT
1002
{
1005
0
1002
}
  0
VERTEX
  5
1007
  8
3
 10
34.942131223409888
 20
101.5378016770626
 30
0.0
 70
    32
1001
ACAD
1000
R13OBJECT
1002
{
1005
0
1002
}
  0
VERTEX
  5
1008
  8
3
 10
37.303533458161212
 20
101.71437525233971
 30
0.0
 70
    32
1001
ACAD
1000
R13OBJECT
1002
{
1005
0
1002
}
  0
VERTEX
  5
1009
  8
3
 10
39.500185633379381
 20
102.0593737802148
 30
0.0
 70
    32
1001
ACAD
1000
R13OBJECT
1002
{
1005
0
1002
}
  0
SEQEND
  5
100A
  8
3
  0
POLYLINE
  5
100B
  8
3
 66
     1
 10
0.0
 20
0.0
 30
0.0
 70
     8
  0
VERTEX
  5
100C
  8
3
 10
39.500185633379381
 20
103.0029043312704
 30
0.0
 70
    32
1001
ACAD
1000
R13OBJECT
1002
{
1005
0
1002
}
  0
VERTEX
  5
100D
  8
3
 10
37.303533458161212
 20
103.34790285914551
 30
0.0
 70
    32
1001
ACAD
1000
R13OBJECT
1002
{
1005
0
1002
}
  0
VERTEX
  5
100E
  8
3
 10
34.942131223409888
 20
103.5244764344226
 30
0.0
 70
    32
1001
ACAD
1000
R13OBJECT
1002
{
1005
0
1002
}
  0
VERTEX
  5
100F
  8
3
 10
32.524954328044828
 20
103.5244764344226
 30
0.0
 70
    32
1001
ACAD
1000
R13OBJECT
1002
{
1005
0
1002
}
  0
VERTEX
  5
1010
  8
3
 10
30.16355209329345
 20
103.34790285914551
 30
0.0
 70
    32
1001
ACAD
1000
R13OBJECT
1002
{
1005
0
1002
}
  0
VERTEX
  5
1011
  8
3
 10
27.966899918075232
 20
103.0029043312704
 30
0.0
 70
    32
1001
ACAD
1000
R13OBJECT
1002
{
1005
0
1002
}
  0
SEQEND
  5
1012
  8
3
  0
POLYLINE
  5
1013
  8
3
 66
     1
 10
0.0
 20
0.0
 30
0.0
 70
     8
  0
VERTEX
  5
1014
  8
3
 10
28.701056517032949
 20
102.1186714481412
 30
0.0
 70
    32
1001
ACAD
1000
R13OBJECT
1002
{
1005
0
1002
}
  0
VERTEX
  5
1015
  8
3
 10
29.657803129922911
 20
101.95771478448771
 30
0.0
 70
    32
1001
ACAD
1000
R13OBJECT
1002
{
1005
0
1002
}
  0
VERTEX
  5
1016
  8
3
 10
30.327398059540091
 20
101.86695598897541
 30
0.0
 70
    32
1001
ACAD
1000
R13OBJECT
1002
{
1005
0
1002
}
  0
SEQEND
  5
1017
  8
3
  0
LINE
  5
1018
  8
3
 10
29.059713572813401
 20
102.449359269407
 30
0.0
 11
29.983988465930342
 21
102.449359269407
 31
0.0
  0
TEXT
  5
1019
  8
0
 10
27.642857142857089
 20
92.585960962620391
 30
0.0
 40
4.5
  1
0
 41
0.75
 72
     4
 11
29.24999999999995
 21
94.835960962620376
 31
0.0
  0
LINE
  5
101A
  8
0
 10
26.99999999999994
 20
98.841535000000135
 30
0.0
 11
26.99999999999994
 21
90.841535000000135
 31
0.0
  0
TEXT
  5
101B
  8
0
 10
36.562499999999602
 20
92.585960962620391
 30
0.0
 40
4.5
  1
4
 41
0.75
 72
     4
 11
38.249999999999602
 21
94.835960962620376
 31
0.0
  0
LINE
  5
101C
  8
0
 10
40.499999999999602
 20
98.841535000000135
 30
0.0
 11
40.499999999999602
 21
90.841535000000135
 31
0.0
  0
LINE
  5
101D
  8
0
 10
35.999999999999609
 20
97.841535000000135
 30
0.0
 11
35.999999999999609
 21
91.841535000000164
 31
0.0
  0
TEXT
  5
101E
  8
0
 10
32.142857142857089
 20
92.585960962620391
 30
0.0
 40
4.5
  1
0
 41
0.75
 72
     4
 11
33.74999999999995
 21
94.835960962620376
 31
0.0
  0
LINE
  5
101F
  8
0
 10
26.99999999999994
 20
91.841535000000249
 30
0.0
 11
40.499999999999602
 21
91.841535000000135
 31
0.0
  0
LINE
  5
1020
  8
0
 10
26.99999999999989
 20
97.841535000000135
 30
0.0
 11
40.499999999999602
 21
97.841535000000135
 31
0.0
  0
LINE
  5
1021
  8
0
 10
26.99999999999994
 20
90.841535000000249
 30
0.0
 11
40.499999999999602
 21
90.841535000000135
 31
0.0
  0
LINE
  5
1022
  8
0
 10
26.99999999999989
 20
98.841535000000135
 30
0.0
 11
40.499999999999538
 21
98.841535000000135
 31
0.0
  0
LINE
  5
1023
  8
0
 10
40.500000000000057
 20
101.43780167706259
 30
0.0
 11
27.0
 21
101.43780167706259
 31
0.0
  0
LINE
  5
1024
  8
0
 10
40.500000000000057
 20
101.43780167706259
 30
0.0
 11
40.499999999999993
 21
103.6244764344226
 31
0.0
  0
LINE
  5
1025
  8
0
 10
27.0
 20
101.43780167706259
 30
0.0
 11
27.0
 21
103.6244764344226
 31
0.0
  0
LINE
  5
1026
  8
0
 10
40.500000000000057
 20
103.6244764344226
 30
0.0
 11
27.0
 21
103.6244764344226
 31
0.0
  0
TEXT
  5
10BE
  8
0
 62
     3
 10
0.0
 20
0.0
 30
0.0
 40
10.0
  1
SDP-02F
  7
STANDARD1
  0
ENDSEC
  0
EOF
