  0
SECTION
  2
HEADER
  9
$ACADVER
  1
AC1009
  9
$INSBASE
 10
0.0
 20
0.0
 30
0.0
  9
$EXTMIN
 10
0.0
 20
-2.960436562073669
 30
-0.0000000000000007
  9
$EXTMAX
 10
316.13122462092082
 20
252.74844753522049
 30
0.0
  9
$LIMMIN
 10
0.0
 20
0.0
  9
$LIMMAX
 10
390.0
 20
270.0
  9
$ORTHOMODE
 70
     0
  9
$REGENMODE
 70
     1
  9
$FILLMODE
 70
     1
  9
$QTEXTMODE
 70
     0
  9
$MIRRTEXT
 70
     1
  9
$DRAGMODE
 70
     2
  9
$LTSCALE
 40
5.0
  9
$OSMODE
 70
    55
  9
$ATTMODE
 70
     1
  9
$TEXTSIZE
 40
2.5
  9
$TRACEWID
 40
1.0
  9
$TEXTSTYLE
  7
STANDARD
  9
$CLAYER
  8
4
  9
$CELTYPE
  6
BYLAYER
  9
$CECOLOR
 62
   256
  9
$DIMSCALE
 40
1.0
  9
$DIMASZ
 40
3.0
  9
$DIMEXO
 40
1.0
  9
$DIMDLI
 40
6.0
  9
$DIMRND
 40
0.0
  9
$DIMDLE
 40
0.0
  9
$DIMEXE
 40
1.0
  9
$DIMTP
 40
495.0
  9
$DIMTM
 40
0.0
  9
$DIMTXT
 40
2.5
  9
$DIMCEN
 40
0.0
  9
$DIMTSZ
 40
0.0
  9
$DIMTOL
 70
     0
  9
$DIMLIM
 70
     0
  9
$DIMTIH
 70
     0
  9
$DIMTOH
 70
     0
  9
$DIMSE1
 70
     0
  9
$DIMSE2
 70
     0
  9
$DIMTAD
 70
     1
  9
$DIMZIN
 70
     8
  9
$DIMBLK
  1

  9
$DIMASO
 70
     0
  9
$DIMSHO
 70
     1
  9
$DIMPOST
  1

  9
$DIMAPOST
  1

  9
$DIMALT
 70
     0
  9
$DIMALTD
 70
     2
  9
$DIMALTF
 40
25.399999999999999
  9
$DIMLFAC
 40
1.0
  9
$DIMTOFL
 70
     1
  9
$DIMTVP
 40
0.0
  9
$DIMTIX
 70
     1
  9
$DIMSOXD
 70
     0
  9
$DIMSAH
 70
     0
  9
$DIMBLK1
  1

  9
$DIMBLK2
  1

  9
$DIMSTYLE
  2
ITM
  9
$DIMCLRD
 70
   256
  9
$DIMCLRE
 70
   256
  9
$DIMCLRT
 70
   256
  9
$DIMTFAC
 40
1.0
  9
$DIMGAP
 40
1.0
  9
$LUNITS
 70
     2
  9
$LUPREC
 70
     2
  9
$SKETCHINC
 40
1.0
  9
$FILLETRAD
 40
0.4
  9
$AUNITS
 70
     0
  9
$AUPREC
 70
     0
  9
$MENU
  1
.
  9
$ELEVATION
 40
0.0
  9
$PELEVATION
 40
0.0
  9
$THICKNESS
 40
0.0
  9
$LIMCHECK
 70
     0
  9
$BLIPMODE
 70
     0
  9
$CHAMFERA
 40
1.1999999999999991
  9
$CHAMFERB
 40
1.1999999999999991
  9
$SKPOLY
 70
     0
  9
$TDCREATE
 40
2453354.0921258219
  9
$TDUPDATE
 40
2456598.606144248
  9
$TDINDWG
 40
513.70369626160004
  9
$TDUSRTIMER
 40
513.70341828699998
  9
$USRTIMER
 70
     1
  9
$ANGBASE
 50
0.0
  9
$ANGDIR
 70
     0
  9
$PDMODE
 70
     0
  9
$PDSIZE
 40
0.0
  9
$PLINEWID
 40
0.0
  9
$COORDS
 70
     1
  9
$SPLFRAME
 70
     0
  9
$SPLINETYPE
 70
     6
  9
$SPLINESEGS
 70
     8
  9
$ATTDIA
 70
     0
  9
$ATTREQ
 70
     1
  9
$HANDLING
 70
     1
  9
$HANDSEED
  5
344
  9
$SURFTAB1
 70
     6
  9
$SURFTAB2
 70
     6
  9
$SURFTYPE
 70
     6
  9
$SURFU
 70
     6
  9
$SURFV
 70
     6
  9
$UCSNAME
  2

  9
$UCSORG
 10
0.0
 20
0.0
 30
0.0
  9
$UCSXDIR
 10
1.0
 20
0.0
 30
0.0
  9
$UCSYDIR
 10
0.0
 20
1.0
 30
0.0
  9
$PUCSNAME
  2

  9
$PUCSORG
 10
0.0
 20
0.0
 30
0.0
  9
$PUCSXDIR
 10
1.0
 20
0.0
 30
0.0
  9
$PUCSYDIR
 10
0.0
 20
1.0
 30
0.0
  9
$USERI1
 70
     4
  9
$USERI2
 70
     1
  9
$USERI3
 70
     1
  9
$USERI4
 70
     0
  9
$USERI5
 70
     0
  9
$USERR1
 40
1.0
  9
$USERR2
 40
3.0
  9
$USERR3
 40
3.2000000000000002
  9
$USERR4
 40
3.0
  9
$USERR5
 40
10.0
  9
$WORLDVIEW
 70
     1
  9
$SHADEDGE
 70
     3
  9
$SHADEDIF
 70
    70
  9
$TILEMODE
 70
     1
  9
$MAXACTVP
 70
    16
  9
$PLIMCHECK
 70
     0
  9
$PEXTMIN
 10
0.0
 20
0.0
 30
0.0
  9
$PEXTMAX
 10
0.0
 20
0.0
 30
0.0
  9
$PLIMMIN
 10
0.0
 20
0.0
  9
$PLIMMAX
 10
12.0
 20
9.0
  9
$UNITMODE
 70
     0
  9
$VISRETAIN
 70
     0
  9
$PLINEGEN
 70
     0
  9
$PSLTSCALE
 70
     1
  0
ENDSEC
  0
SECTION
  2
TABLES
  0
TABLE
  2
VPORT
 70
     1
  0
VPORT
  2
*ACTIVE
 70
     0
 10
0.0
 20
0.0
 11
1.0
 21
1.0
 12
194.99404952627839
 22
194.785247995265
 13
0.0
 23
0.0
 14
5.0
 24
5.0
 15
10.0
 25
10.0
 16
0.0
 26
0.0
 36
1.0
 17
0.0
 27
0.0
 37
0.0
 40
399.3463374158577
 41
1.7807262569832401
 42
50.0
 43
0.0
 44
0.0
 50
0.0
 51
0.0
 71
    16
 72
   500
 73
     1
 74
     1
 75
     0
 76
     0
 77
     0
 78
     1
  0
ENDTAB
  0
TABLE
  2
LTYPE
 70
     4
  0
LTYPE
  2
CONTINUOUS
 70
     0
  3
Solid line
 72
    65
 73
     0
 40
0.0
  0
LTYPE
  2
CENTER
 70
     0
  3
____ _ ____ _ ____ _ ____ _ ____ _ ____ _ ____
 72
    65
 73
     4
 40
2.0
 49
1.25
 49
-0.25
 49
0.25
 49
-0.25
  0
LTYPE
  2
HIDDEN
 70
     0
  3
_ _ _ _ _ _ _ _ _ _ _ _ _ _ _ _ _ _ _ _ _ _ _
 72
    65
 73
     2
 40
0.375
 49
0.25
 49
-0.125
  0
LTYPE
  2
PHANTOM2
 70
     0
  3
___ _ _ ___ _ _ ___ _ _ ___ _ _
 72
    65
 73
     6
 40
1.25
 49
0.625
 49
-0.125
 49
0.125
 49
-0.125
 49
0.125
 49
-0.125
  0
ENDTAB
  0
TABLE
  2
LAYER
 70
     6
  0
LAYER
  2
0
 70
     0
 62
     7
  6
CONTINUOUS
  0
LAYER
  2
1
 70
     0
 62
     1
  6
CENTER
  0
LAYER
  2
WAKU
 70
     0
 62
     5
  6
CONTINUOUS
  0
LAYER
  2
4
 70
     0
 62
     4
  6
CONTINUOUS
  0
LAYER
  2
3
 70
     0
 62
     3
  6
CONTINUOUS
  0
LAYER
  2
2
 70
     0
 62
     2
  6
HIDDEN
  0
ENDTAB
  0
TABLE
  2
STYLE
 70
     3
  0
STYLE
  2
STANDARD
 70
     0
 40
0.0
 41
1.0
 50
0.0
 71
     0
 42
2.5
  3
ROMANS
  4
EXTFONT
  0
STYLE
  2
K
 70
     0
 40
0.0
 41
0.75
 50
0.0
 71
     0
 42
3.2000000000000002
  3
ROMANS.shx
  4
EXTFONT.shx
  0
STYLE
  2
STANDARD1
 70
     0
 40
0.0
 41
1.0
 50
0.0
 71
     0
 42
3.0
  3
txt
  4

  0
ENDTAB
  0
TABLE
  2
VIEW
 70
     0
  0
ENDTAB
  0
TABLE
  2
UCS
 70
     0
  0
ENDTAB
  0
TABLE
  2
APPID
 70
     3
  0
APPID
  2
ACAD
 70
     0
  0
APPID
  2
ACAD_MLEADERVER
 70
     0
  0
APPID
  2
ACAD_NAV_VCDISPLAY
 70
     0
  0
ENDTAB
  0
TABLE
  2
DIMSTYLE
 70
     2
  0
DIMSTYLE
  2
ITM
 70
     0
  3

  4

  5

  6

  7

 40
0.0
 41
2.5
 42
1.0
 43
6.0
 44
1.0
 45
0.0
 46
0.0
 47
495.0
 48
0.0
140
3.0
141
0.0
142
0.0
143
25.399999999999999
144
1.0
145
0.0
146
1.0
147
1.0
 71
     0
 72
     0
 73
     0
 74
     0
 75
     0
 76
     0
 77
     3
 78
     8
170
     0
171
     2
172
     1
173
     0
174
     0
175
     0
176
     0
177
     0
178
     0
  0
DIMSTYLE
  2
STANDARD
 70
     0
  3

  4

  5

  6

  7

 40
1.0
 41
0.18
 42
0.0625
 43
0.38
 44
0.18
 45
0.0
 46
0.0
 47
0.0
 48
0.0
140
0.18
141
0.09
142
0.0
143
25.399999999999999
144
1.0
145
0.0
146
1.0
147
0.09
 71
     0
 72
     0
 73
     1
 74
     1
 75
     0
 76
     0
 77
     0
 78
     0
170
     0
171
     2
172
     0
173
     0
174
     0
175
     0
176
     0
177
     0
178
     0
  0
ENDTAB
  0
ENDSEC
  0
SECTION
  2
BLOCKS
  0
BLOCK
  8
0
  2
$MODEL_SPACE
 70
     0
 10
0.0
 20
0.0
 30
0.0
  3
$MODEL_SPACE
  1

  0
ENDBLK
  5
12
  8
0
  0
BLOCK
 67
     1
  8
0
  2
$PAPER_SPACE
 70
     0
 10
0.0
 20
0.0
 30
0.0
  3
$PAPER_SPACE
  1

  0
ENDBLK
  5
19
 67
     1
  8
0
  0
BLOCK
  8
0
  2
ARROW1
 70
     0
 10
0.0
 20
0.0
 30
0.0
  3
ARROW1
  1

  0
SOLID
  5
4B
  8
WAKU
  6
CONTINUOUS
 62
     4
 10
-1.0
 20
0.1666666666666714
 30
0.0
 11
-1.0
 21
-0.1666666666666714
 31
0.0
 12
0.0
 22
0.0
 32
0.0
 13
0.0
 23
0.0
 33
0.0
  0
ENDBLK
  5
4D
  8
0
  0
ENDSEC
  0
SECTION
  2
ENTITIES
  0
ARC
  5
74
  8
0
 10
302.53934378226529
 20
227.7486144047574
 30
0.0
 40
8.3048970122461743
 50
186.22252194702861
 51
197.27987486480041
  0
LINE
  5
75
  8
0
 10
297.37995095546802
 20
228.64844953522001
 30
0.0
 11
294.2833856735657
 21
228.64844953522001
 31
0.0
  0
ARC
  5
76
  8
0
 10
302.53933827303678
 20
227.7482815366921
 30
0.0
 40
8.304881441073487
 50
162.7201975594113
 51
173.7774723847663
  0
ARC
  5
77
  8
0
 10
296.17823049300631
 20
229.72710579259709
 30
0.0
 40
1.6430920701028069
 50
84.429049016647156
 51
162.72084535076269
  0
ARC
  5
78
  8
0
 10
296.49725064536221
 20
232.9976840685236
 30
0.0
 40
1.6430083721685049
 50
264.4286605090324
 51
319.01239554224611
  0
ARC
  5
79
  8
0
 10
302.53828860280868
 20
227.74844753522001
 30
0.0
 40
6.3600300376244068
 50
220.98853240724031
 51
139.01146759275969
  0
CIRCLE
  5
7A
  8
0
 10
302.29828364043311
 20
227.74844753522001
 30
0.0
 40
5.0
  0
LINE
  5
7B
  8
0
 10
297.37995095546802
 20
226.84844553522001
 30
0.0
 11
297.58341392855391
 21
226.84844553522001
 31
0.0
  0
LINE
  5
7C
  8
0
 10
297.37995095546802
 20
228.64844953522001
 30
0.0
 11
297.58341392855391
 21
228.64844953522001
 31
0.0
  0
ARC
  5
7D
  8
0
 10
302.29828364043311
 20
227.74844753522001
 30
0.0
 40
4.7999999999999892
 50
169.19305282085111
 51
190.80694717914889
  0
CIRCLE
  5
7E
  8
0
 10
302.29828364043311
 20
227.74844753522001
 30
0.0
 40
4.0
  0
LINE
  5
7F
  8
1
 10
302.29828364043311
 20
213.9155065547323
 30
0.0
 11
302.29828364043323
 21
241.5813885157076
 31
0.0
  0
LINE
  5
82
  8
1
 10
316.13122462092082
 20
227.74844753522001
 30
0.0
 11
170.82221240512399
 21
227.74844753522029
 31
0.0
  0
CIRCLE
  5
83
  8
0
 10
302.29828364043311
 20
227.74844753522001
 30
0.0
 40
5.0
  0
ARC
  5
84
  8
0
 10
302.29828364043311
 20
227.74844753522001
 30
0.0
 40
8.0
 50
201.83758481834269
 51
158.16159767929059
  0
POLYLINE
  5
85
  8
0
 66
     1
 10
0.0
 20
0.0
 30
0.0
  0
VERTEX
  5
286
  8
0
 10
294.29411645063971
 20
228.6463651059924
 30
0.0
  0
VERTEX
  5
287
  8
0
 10
294.33582460369001
 20
228.8814982382805
 30
0.0
  0
VERTEX
  5
288
  8
0
 10
294.44172496916212
 20
229.35334133911141
 30
0.0
  0
VERTEX
  5
289
  8
0
 10
294.56952180079742
 20
229.8233495162437
 30
0.0
  0
VERTEX
  5
28A
  8
0
 10
294.63842271560202
 20
230.05637530970631
 30
0.0
  0
SEQEND
  5
28B
  8
0
  0
POLYLINE
  5
86
  8
0
 66
     1
 10
0.0
 20
0.0
 30
0.0
  0
VERTEX
  5
28C
  8
0
 10
294.29411645063971
 20
226.8505299644477
 30
0.0
  0
VERTEX
  5
28D
  8
0
 10
294.28620582208413
 20
226.9013625711215
 30
0.0
  0
VERTEX
  5
28E
  8
0
 10
294.27166126539208
 20
227.00280548381431
 30
0.0
  0
VERTEX
  5
28F
  8
0
 10
294.25886455901582
 20
227.103906140134
 30
0.0
  0
VERTEX
  5
290
  8
0
 10
294.25313622518757
 20
227.154309981008
 30
0.0
  0
VERTEX
  5
291
  8
0
 10
294.24786090341928
 20
227.20460604108979
 30
0.0
  0
VERTEX
  5
292
  8
0
 10
294.23868367752073
 20
227.30484336789149
 30
0.0
  0
VERTEX
  5
293
  8
0
 10
294.23135357151739
 20
227.40455390216621
 30
0.0
  0
VERTEX
  5
294
  8
0
 10
294.22587800420609
 20
227.5036720786951
 30
0.0
  0
VERTEX
  5
295
  8
0
 10
294.2222508665821
 20
227.60213215564531
 30
0.0
  0
VERTEX
  5
296
  8
0
 10
294.22045261909932
 20
227.69986948135951
 30
0.0
  0
VERTEX
  5
297
  8
0
 10
294.22022965673409
 20
227.74844753522001
 30
0.0
  0
VERTEX
  5
298
  8
0
 10
294.22045261909932
 20
227.79702558908059
 30
0.0
  0
VERTEX
  5
299
  8
0
 10
294.2222508665821
 20
227.8947629147948
 30
0.0
  0
VERTEX
  5
29A
  8
0
 10
294.22587800420609
 20
227.99322299174511
 30
0.0
  0
VERTEX
  5
29B
  8
0
 10
294.23135357151739
 20
228.09234116827389
 30
0.0
  0
VERTEX
  5
29C
  8
0
 10
294.23868367752073
 20
228.19205170254861
 30
0.0
  0
VERTEX
  5
29D
  8
0
 10
294.24786090341928
 20
228.29228902935029
 30
0.0
  0
VERTEX
  5
29E
  8
0
 10
294.25313622518757
 20
228.34258508943211
 30
0.0
  0
VERTEX
  5
29F
  8
0
 10
294.25886455901582
 20
228.3929889303061
 30
0.0
  0
VERTEX
  5
2A0
  8
0
 10
294.27166126539208
 20
228.49408958662579
 30
0.0
  0
VERTEX
  5
2A1
  8
0
 10
294.28620582208413
 20
228.59553249931861
 30
0.0
  0
VERTEX
  5
2A2
  8
0
 10
294.29411645063971
 20
228.6463651059924
 30
0.0
  0
SEQEND
  5
2A3
  8
0
  0
POLYLINE
  5
87
  8
0
 66
     1
 10
0.0
 20
0.0
 30
0.0
  0
VERTEX
  5
2A4
  8
0
 10
294.63842271560202
 20
225.44051976073379
 30
0.0
  0
VERTEX
  5
2A5
  8
0
 10
294.56952180079742
 20
225.67354555419641
 30
0.0
  0
VERTEX
  5
2A6
  8
0
 10
294.44172496916212
 20
226.14355373132869
 30
0.0
  0
VERTEX
  5
2A7
  8
0
 10
294.33582460369001
 20
226.61539683215969
 30
0.0
  0
VERTEX
  5
2A8
  8
0
 10
294.29411645063971
 20
226.8505299644477
 30
0.0
  0
SEQEND
  5
2A9
  8
0
  0
LINE
  5
88
  8
0
 10
294.63842271560179
 20
230.3036266460683
 30
0.0
 11
294.63842271560179
 21
230.05637530970631
 31
0.0
  0
LINE
  5
89
  8
0
 10
294.63842271560179
 20
230.05637530970631
 30
0.0
 11
294.63842271560162
 21
234.17701896379151
 31
0.0
  0
LINE
  5
8A
  8
0
 10
294.6384227156023
 20
221.31987610664859
 30
0.0
 11
294.63842271560208
 21
225.44051976073379
 31
0.0
  0
LINE
  5
8B
  8
0
 10
294.63842271560208
 20
225.44051976073379
 30
0.0
 11
294.63842271560208
 21
225.1932612237388
 31
0.0
  0
LINE
  5
8C
  8
0
 10
291.57447834566977
 20
222.74844753522001
 30
0.0
 11
291.57447834566921
 21
232.74844753522009
 31
0.0
  0
ARC
  5
8D
  8
0
 10
291.57447834566949
 20
218.74844753522001
 30
0.0
 40
4.0
 50
40.005200884860557
 51
90.0
  0
ARC
  5
8E
  8
0
 10
291.5744783456696
 20
236.74844753522009
 30
0.0
 40
4.0000000000000098
 50
270.0
 51
319.9947991151389
  0
ARC
  5
8F
  8
0
 10
302.29828364043311
 20
227.74844753522001
 30
0.0
 40
10.0
 50
220.00520088486061
 51
139.9947991151389
  0
LINE
  5
90
  8
0
 10
291.5744783456696
 20
232.74844753522009
 30
0.0
 11
212.29828364043311
 21
232.74844753522021
 31
0.0
  0
LINE
  5
91
  8
0
 10
212.29828364043311
 20
222.74844753522009
 30
0.0
 11
291.57447834566949
 21
222.74844753522001
 31
0.0
  0
LINE
  5
92
  8
0
 10
294.2833756143076
 20
226.84844553522001
 30
0.0
 11
297.37995095546802
 21
226.84844553522001
 31
0.0
  0
CIRCLE
  5
93
  8
0
 10
296.17828364043311
 20
225.76984753522001
 30
0.0
 40
0.7500000000000002
  0
CIRCLE
  5
94
  8
0
 10
296.17828364043311
 20
229.72704753522001
 30
0.0
 40
0.7500000000000002
  0
ARC
  5
95
  8
0
 10
296.49718347417581
 20
222.49911636513619
 30
0.0
 40
1.6431211485279571
 50
40.988559180559591
 51
95.548203385539594
  0
ARC
  5
96
  8
0
 10
296.17831232055278
 20
225.7699626288987
 30
0.0
 40
1.6432317535349961
 50
197.28447285509321
 51
275.58800768134762
  0
LINE
  5
97
  8
0
 10
210.2982836404332
 20
237.74844753522009
 30
0.0
 11
212.2982836404332
 21
237.74844753522009
 31
0.0
  0
LINE
  5
98
  8
0
 10
212.298283640433
 20
217.74844753522009
 30
0.0
 11
212.2982836404332
 21
237.74844753522009
 31
0.0
  0
LINE
  5
99
  8
0
 10
210.298283640433
 20
217.74844753522009
 30
0.0
 11
210.2982836404332
 21
237.74844753522009
 31
0.0
  0
LINE
  5
9A
  8
0
 10
210.298283640433
 20
217.74844753522009
 30
0.0
 11
212.298283640433
 21
217.74844753522009
 31
0.0
  0
LINE
  5
9B
  8
0
 10
228.29828364043311
 20
222.74844753522001
 30
0.0
 11
228.2982836404332
 21
232.74844753522009
 31
0.0
  0
LINE
  5
9C
  8
3
 10
212.29828364043311
 20
223.66844753522
 30
0.0
 11
228.29828364043311
 21
223.66844753522
 31
0.0
  0
LINE
  5
9E
  8
3
 10
212.29828364043311
 20
231.8284475352196
 30
0.0
 11
228.2982836404332
 21
231.82844753521971
 31
0.0
  0
LINE
  5
9F
  8
0
 10
209.99828364043319
 20
234.24844753522009
 30
0.0
 11
210.2982836404332
 21
234.24844753522009
 31
0.0
  0
LINE
  5
A0
  8
0
 10
208.99828364043319
 20
237.24844753522009
 30
0.0
 11
196.2982836404332
 21
237.24844753522029
 31
0.0
  0
ARC
  5
A1
  8
0
 10
247.6229545736586
 20
227.74844753521961
 30
0.0
 40
70.0
 50
160.11240555858669
 51
172.03481059321689
  0
LINE
  5
A2
  8
0
 10
196.29828364043331
 20
243.49844753522029
 30
0.0
 11
194.1772315194037
 21
251.41432181640491
 31
0.0
  0
LINE
  5
A3
  8
0
 10
196.2982836404328
 20
211.99844753522029
 30
0.0
 11
195.04718513553311
 21
207.32928434966169
 31
0.0
  0
ARC
  5
A4
  8
0
 10
247.6229545736586
 20
227.74844753521961
 30
0.0
 40
70.0
 50
187.9651894067805
 51
197.0118940795974
  0
LINE
  5
A5
  8
0
 10
196.2982836404334
 20
243.49844753522021
 30
0.0
 11
196.2982836404328
 21
211.99844753522029
 31
0.0
  0
LINE
  5
A6
  8
0
 10
208.99828364043299
 20
218.24844753522009
 30
0.0
 11
208.99828364043319
 21
237.24844753522009
 31
0.0
  0
LINE
  5
A7
  8
0
 10
209.99828364043299
 20
219.24844753522009
 30
0.0
 11
208.99828364043299
 21
218.24844753522009
 31
0.0
  0
LINE
  5
A8
  8
0
 10
208.99828364043319
 20
237.24844753522009
 30
0.0
 11
209.99828364043319
 21
236.24844753522009
 31
0.0
  0
LINE
  5
A9
  8
0
 10
209.99828364043319
 20
236.24844753522009
 30
0.0
 11
209.99828364043299
 21
219.24844753522009
 31
0.0
  0
LINE
  5
AA
  8
0
 10
209.99828364043299
 20
221.24844753522009
 30
0.0
 11
210.298283640433
 21
221.24844753522009
 31
0.0
  0
LINE
  5
AB
  8
0
 10
196.29828364043291
 20
218.24844753522029
 30
0.0
 11
208.99828364043299
 21
218.24844753522009
 31
0.0
  0
LINE
  5
AC
  8
0
 10
178.2982836404332
 20
237.44844753522059
 30
0.0
 11
178.29828364043291
 21
218.04844753522059
 31
0.0
  0
LINE
  5
AD
  8
0
 10
183.4902795943631
 20
252.74844753522049
 30
0.0
 11
192.4385650320834
 21
252.74844753522041
 31
0.0
  0
ARC
  5
AE
  8
0
 10
183.4902795943631
 20
250.94844753522051
 30
0.0
 40
1.8
 50
90.0
 51
160.11240555858669
  0
ARC
  5
AF
  8
0
 10
192.4385650320834
 20
250.9484475352204
 30
0.0
 40
1.8
 50
14.99999999999859
 51
90.0
  0
ARC
  5
B0
  8
0
 10
168.69502556989249
 20
234.19406863417049
 30
0.0
 40
13.849268810468001
 50
342.16822219397358
 51
21.782357992721629
  0
ARC
  5
B1
  8
0
 10
202.5655598063812
 20
223.2987183680612
 30
0.0
 40
21.730525271093938
 50
162.16825801496461
 51
198.065875463943
  0
ARC
  5
B2
  8
0
 10
170.74664333310639
 20
212.9196565433202
 30
0.0
 40
11.73839120218061
 50
329.25327023674629
 51
18.065913437705039
  0
ARC
  5
B3
  8
0
 10
190.92502149068531
 20
243.07749409877209
 30
0.0
 40
10.089986955397761
 50
160.01357049629209
 51
201.782359874701
  0
ARC
  5
B4
  8
0
 10
165.17840296951951
 20
252.4415926202451
 30
0.0
 40
17.306631565768189
 50
340.01356715629572
 51
0.0000001399851171
  0
ARC
  5
B5
  8
0
 10
185.04504757988971
 20
243.07749409877209
 30
0.0
 40
10.089986955397761
 50
338.21764012529792
 51
19.986429503704269
  0
ARC
  5
B6
  8
0
 10
173.40450926419319
 20
223.2987183680616
 30
0.0
 40
21.730525271093938
 50
341.93412453605521
 51
17.83174198503281
  0
ARC
  5
B7
  8
0
 10
207.27504350068219
 20
234.19406863416989
 30
0.0
 40
13.849268810468001
 50
158.21764200727841
 51
197.83177780602381
  0
ARC
  5
B8
  8
0
 10
205.22342573746769
 20
212.91965654331969
 30
0.0
 40
11.73839120218061
 50
161.93408656229309
 51
209.3696739030232
  0
ARC
  5
B9
  8
0
 10
210.7916661010558
 20
252.44159262024451
 30
0.0
 40
17.306631565768189
 50
179.99999986001239
 51
199.98643284370331
  0
LINE
  5
BA
  8
0
 10
183.07890590897219
 20
248.60691482420731
 30
0.0
 11
192.89116316160289
 21
248.60691482420719
 31
0.0
  0
LINE
  5
BB
  8
0
 10
182.1098914062238
 20
240.85908375726069
 30
0.0
 11
193.8601776643514
 21
240.85908375726061
 31
0.0
  0
LINE
  5
BC
  8
0
 10
182.27125163729741
 20
227.52905333750871
 30
0.0
 11
193.6988174332769
 21
227.52905333750849
 31
0.0
  0
LINE
  5
BD
  8
0
 10
183.31520293142231
 20
214.99279909591681
 30
0.0
 11
192.65486613915229
 21
214.99279909591669
 31
0.0
  0
LINE
  5
BE
  8
0
 10
182.40711093195881
 20
205.99515863084639
 30
0.0
 11
193.3085186482129
 21
205.99515863084619
 31
0.0
  0
ARC
  5
BF
  8
0
 10
182.4071109319589
 20
207.7951586308464
 30
0.0
 40
1.8
 50
197.0118940795974
 51
270.0
  0
ARC
  5
C0
  8
0
 10
193.3085186482129
 20
207.7951586308462
 30
0.0
 40
1.8
 50
270.0
 51
344.99999999999892
  0
ARC
  5
C1
  8
0
 10
193.30851864821241
 20
87.440320355078327
 30
0.0
 40
1.8
 50
15.00000000000038
 51
90.0
  0
ARC
  5
C2
  8
0
 10
182.40711093195841
 20
87.440320355078256
 30
0.0
 40
1.8
 50
90.0
 51
162.98810592040161
  0
LINE
  5
C3
  8
0
 10
182.4071109319583
 20
89.240320355078282
 30
0.0
 11
193.30851864821241
 21
89.240320355078325
 31
0.0
  0
LINE
  5
C4
  8
0
 10
183.31520293142171
 20
80.242679890007835
 30
0.0
 11
192.65486613915169
 21
80.242679890007921
 31
0.0
  0
LINE
  5
C5
  8
0
 10
182.2712516372967
 20
67.706425648415959
 30
0.0
 11
193.69881743327619
 21
67.706425648416044
 31
0.0
  0
LINE
  5
C6
  8
0
 10
182.10989140622311
 20
54.376395228663917
 30
0.0
 11
193.86017766435069
 21
54.376395228664009
 31
0.0
  0
LINE
  5
C7
  8
0
 10
183.07890590897139
 20
46.628564161717343
 30
0.0
 11
192.89116316160209
 21
46.628564161717421
 31
0.0
  0
ARC
  5
C8
  8
0
 10
210.791666101055
 20
42.79388636567996
 30
0.0
 40
17.306631565768189
 50
160.01356715629561
 51
180.0000001399867
  0
ARC
  5
C9
  8
0
 10
205.2234257374671
 20
82.315822442604855
 30
0.0
 40
11.73839120218061
 50
150.6303260969768
 51
198.0659134377058
  0
ARC
  5
CA
  8
0
 10
207.27504350068151
 20
61.04141035175455
 30
0.0
 40
13.849268810468001
 50
162.1682221939754
 51
201.78235799272159
  0
ARC
  5
CB
  8
0
 10
173.4045092641926
 20
71.936760617863101
 30
0.0
 40
21.730525271093938
 50
342.1682580149664
 51
18.065875463944561
  0
ARC
  5
CC
  8
0
 10
185.04504757988889
 20
52.157984887152523
 30
0.0
 40
10.089986955397761
 50
340.01357049629308
 51
21.782359874701019
  0
ARC
  5
CD
  8
0
 10
165.1784029695186
 20
42.793886365679647
 30
0.0
 40
17.306631565768189
 50
359.99999986001399
 51
19.986432843704328
  0
ARC
  5
CE
  8
0
 10
190.92502149068449
 20
52.157984887152551
 30
0.0
 40
10.089986955397761
 50
158.21764012529891
 51
199.9864295037068
  0
ARC
  5
CF
  8
0
 10
170.74664333310591
 20
82.315822442604585
 30
0.0
 40
11.73839120218061
 50
341.93408656229502
 51
30.7467297632537
  0
ARC
  5
D0
  8
0
 10
202.56555980638061
 20
71.9367606178633
 30
0.0
 40
21.730525271093938
 50
161.9341245360562
 51
197.8317419850346
  0
ARC
  5
D1
  8
0
 10
168.69502556989181
 20
61.041410351754273
 30
0.0
 40
13.849268810468001
 50
338.2176420072783
 51
17.83177780602561
  0
ARC
  5
D2
  8
0
 10
192.43856503208261
 20
44.287031450704212
 30
0.0
 40
1.8
 50
270.0
 51
345.0000000000004
  0
ARC
  5
D3
  8
0
 10
183.49027959436231
 20
44.287031450704163
 30
0.0
 40
1.8
 50
199.8875944414124
 51
270.0
  0
LINE
  5
D4
  8
0
 10
183.49027959436231
 20
42.487031450704151
 30
0.0
 11
192.43856503208261
 21
42.487031450704208
 31
0.0
  0
LINE
  5
D5
  8
0
 10
178.29828364043249
 20
57.787031450704077
 30
0.0
 11
178.2982836404324
 21
77.187031450704112
 31
0.0
  0
LINE
  5
D6
  8
0
 10
196.29828364043229
 20
76.987031450704265
 30
0.0
 11
208.99828364043239
 21
76.987031450704322
 31
0.0
  0
LINE
  5
D7
  8
0
 10
209.99828364043239
 20
73.987031450704322
 30
0.0
 11
210.2982836404324
 21
73.987031450704322
 31
0.0
  0
LINE
  5
D8
  8
0
 10
209.9982836404325
 20
58.98703145070435
 30
0.0
 11
209.99828364043239
 21
75.987031450704322
 31
0.0
  0
LINE
  5
D9
  8
0
 10
208.9982836404325
 20
57.987031450704322
 30
0.0
 11
209.9982836404325
 21
58.987031450704322
 31
0.0
  0
LINE
  5
DA
  8
0
 10
209.99828364043239
 20
75.987031450704322
 30
0.0
 11
208.99828364043239
 21
76.987031450704322
 31
0.0
  0
LINE
  5
DB
  8
0
 10
208.99828364043239
 20
76.987031450704322
 30
0.0
 11
208.9982836404325
 21
57.987031450704322
 31
0.0
  0
LINE
  5
DC
  8
0
 10
196.2982836404326
 20
51.737031450704301
 30
0.0
 11
196.29828364043229
 21
83.237031450704208
 31
0.0
  0
ARC
  5
DD
  8
0
 10
247.62295457365789
 20
67.487031450704606
 30
0.0
 40
70.0
 50
162.98810592040161
 51
172.03481059321859
  0
LINE
  5
DE
  8
0
 10
196.29828364043229
 20
83.237031450704237
 30
0.0
 11
195.04718513553269
 21
87.906194636262867
 31
0.0
  0
LINE
  5
DF
  8
0
 10
196.29828364043249
 20
51.737031450704229
 30
0.0
 11
194.17723151940291
 21
43.821157169519672
 31
0.0
  0
ARC
  5
E0
  8
0
 10
247.62295457365789
 20
67.487031450704606
 30
0.0
 40
70.0
 50
187.96518940678209
 51
199.8875944414124
  0
LINE
  5
E1
  8
0
 10
208.9982836404325
 20
57.987031450704322
 30
0.0
 11
196.29828364043249
 21
57.987031450704229
 31
0.0
  0
LINE
  5
E2
  8
0
 10
209.9982836404325
 20
60.987031450704322
 30
0.0
 11
210.29828364043249
 21
60.987031450704322
 31
0.0
  0
LINE
  5
E3
  8
0
 10
182.56327937761529
 20
165.61008878193439
 30
0.0
 11
193.40678969295871
 21
165.61008878193439
 31
0.0
  0
LINE
  5
E4
  8
0
 10
183.46080417942039
 20
157.61008878193439
 30
0.0
 11
192.50926489115369
 21
157.61008878193439
 31
0.0
  0
ARC
  5
E5
  8
0
 10
174.45473829186639
 20
166.95906902283929
 30
0.0
 40
20.0
 50
346.85352347401641
 51
12.20092867357006
  0
ARC
  5
E6
  8
0
 10
210.48503453528701
 20
158.54374059125971
 30
0.0
 40
17.0
 50
166.85352116781891
 51
197.17536561024821
  0
ARC
  5
E7
  8
0
 10
201.51533077870761
 20
166.95906902283929
 30
0.0
 40
20.0
 50
167.374832291177
 51
193.14647652598359
  0
ARC
  5
E8
  8
0
 10
165.48503453528701
 20
158.54374059125971
 30
0.0
 40
17.0
 50
342.82463438975179
 51
13.146478832181019
  0
ARC
  5
E9
  8
0
 10
183.1953647485081
 20
169.98570026997999
 30
0.0
 40
1.8
 50
90.0
 51
160.85402926862531
  0
ARC
  5
EA
  8
0
 10
192.66150926995189
 20
169.98570026997999
 30
0.0
 40
1.8
 50
14.99999999999959
 51
90.0
  0
LINE
  5
EB
  8
0
 10
196.2982836404328
 20
163.36773949296219
 30
0.0
 11
194.40017575727219
 21
170.45157455116441
 31
0.0
  0
ARC
  5
EC
  8
0
 10
247.62295457365829
 20
147.61773949296219
 30
0.0
 40
70.0
 50
160.85402926862531
 51
172.03481059321859
  0
LINE
  5
ED
  8
0
 10
209.9982836404329
 20
156.11773949296219
 30
0.0
 11
208.9982836404329
 21
157.11773949296219
 31
0.0
  0
LINE
  5
EE
  8
0
 10
209.9982836404329
 20
154.11773949296219
 30
0.0
 11
210.2982836404328
 21
154.11773949296219
 31
0.0
  0
LINE
  5
EF
  8
0
 10
196.2982836404328
 20
157.1177394929623
 30
0.0
 11
208.9982836404329
 21
157.11773949296219
 31
0.0
  0
LINE
  5
F0
  8
0
 10
183.1953647485081
 20
171.78570026997991
 30
0.0
 11
192.66150926995189
 21
171.78570026997991
 31
0.0
  0
ARC
  5
F1
  8
0
 10
174.45473829186639
 20
128.2764099630852
 30
0.0
 40
20.0
 50
347.79907132643001
 51
13.14647652598361
  0
LINE
  5
F2
  8
0
 10
182.56327937761529
 20
129.62539020399009
 30
0.0
 11
193.40678969295871
 21
129.62539020399009
 31
0.0
  0
ARC
  5
F3
  8
0
 10
201.51533077870761
 20
128.2764099630852
 30
0.0
 40
20.0
 50
166.85352347401641
 51
192.62516770882289
  0
ARC
  5
F4
  8
0
 10
165.48503453528701
 20
136.6917383946647
 30
0.0
 40
17.0
 50
346.853521167819
 51
17.175365610248232
  0
LINE
  5
F5
  8
0
 10
183.46080417942039
 20
137.62539020399009
 30
0.0
 11
192.50926489115361
 21
137.62539020399009
 31
0.0
  0
ARC
  5
F6
  8
0
 10
210.48503453528701
 20
136.6917383946647
 30
0.0
 40
17.0
 50
162.82463438975171
 51
193.146478832181
  0
LINE
  5
F7
  8
0
 10
209.9982836404329
 20
141.11773949296219
 30
0.0
 11
210.2982836404328
 21
141.11773949296219
 31
0.0
  0
LINE
  5
F8
  8
0
 10
208.99828364043279
 20
138.11773949296219
 30
0.0
 11
196.2982836404328
 21
138.11773949296219
 31
0.0
  0
ARC
  5
F9
  8
0
 10
175.13503453528699
 20
147.61773949296219
 30
0.0
 40
20.000000000000011
 50
342.82463519156238
 51
17.175368709261502
  0
ARC
  5
FA
  8
0
 10
200.83503453528701
 20
147.61773949296219
 30
0.0
 40
20.000000000000011
 50
162.82463129073849
 51
197.17536436846771
  0
ARC
  5
FB
  8
0
 10
247.62295457365829
 20
147.61773949296219
 30
0.0
 40
70.0
 50
187.96518940678129
 51
199.1459707313746
  0
LINE
  5
FC
  8
0
 10
196.2982836404328
 20
131.86773949296219
 30
0.0
 11
194.40017575727219
 21
124.78390443476
 31
0.0
  0
ARC
  5
FD
  8
0
 10
192.66150926995189
 20
125.2497787159444
 30
0.0
 40
1.8
 50
270.0
 51
345.0000000000004
  0
ARC
  5
FE
  8
0
 10
183.1953647485081
 20
125.2497787159444
 30
0.0
 40
1.8
 50
199.1459707313746
 51
270.0
  0
LINE
  5
FF
  8
0
 10
196.2982836404328
 20
131.8677394929623
 30
0.0
 11
196.2982836404328
 21
163.36773949296219
 31
0.0
  0
LINE
  5
100
  8
0
 10
208.9982836404329
 20
157.11773949296219
 30
0.0
 11
208.99828364043279
 21
138.11773949296219
 31
0.0
  0
LINE
  5
101
  8
0
 10
208.99828364043279
 20
138.11773949296219
 30
0.0
 11
209.9982836404329
 21
139.11773949296219
 31
0.0
  0
LINE
  5
102
  8
0
 10
209.9982836404329
 20
139.11773949296219
 30
0.0
 11
209.9982836404329
 21
156.11773949296219
 31
0.0
  0
LINE
  5
103
  8
0
 10
183.1953647485081
 20
123.4497787159444
 30
0.0
 11
192.66150926995189
 21
123.4497787159444
 31
0.0
  0
LINE
  5
104
  8
0
 10
178.2982836404328
 20
137.9177394929622
 30
0.0
 11
178.2982836404328
 21
157.3177394929622
 31
0.0
  0
CIRCLE
  5
105
  8
0
 10
79.563439370303513
 20
147.6177394929623
 30
0.0
 40
4.1879999999999988
  0
CIRCLE
  5
106
  8
3
 10
79.563439370303513
 20
147.6177394929623
 30
0.0
 40
5.0
  0
CIRCLE
  5
107
  8
0
 10
79.563439370303513
 20
147.6177394929623
 30
0.0
 40
8.0
  0
CIRCLE
  5
108
  8
0
 10
79.563439370303513
 20
147.6177394929623
 30
0.0
 40
9.1999999999999886
  0
LINE
  5
109
  8
1
 10
79.563439370303513
 20
177.6177394929623
 30
0.0
 11
79.563439370303513
 21
117.6177394929624
 31
0.0
  0
LINE
  5
10A
  8
1
 10
49.563439370303513
 20
147.6177394929623
 30
0.0
 11
109.5634393703035
 21
147.6177394929623
 31
0.0
  0
ARC
  5
10B
  8
0
 10
74.310150465929382
 20
163.78570026998
 30
0.0
 40
8.0
 50
46.836281342183163
 51
169.16372303132539
  0
ARC
  5
10C
  8
0
 10
62.563439370303513
 20
147.6177394929623
 30
0.0
 40
8.0
 50
118.8362769441754
 51
241.1637502368105
  0
ARC
  5
10D
  8
0
 10
74.310150465929382
 20
131.4497787159446
 30
0.0
 40
8.0
 50
190.83626980220379
 51
313.16372046700212
  0
ARC
  5
10E
  8
0
 10
93.3167282746777
 20
137.62539020399029
 30
0.0
 40
8.0
 50
262.83624966446672
 51
25.163729598244899
  0
ARC
  5
10F
  8
0
 10
93.316728274677814
 20
157.61008878193451
 30
0.0
 40
8.0
 50
334.83628177671761
 51
97.163732909724843
  0
ARC
  5
110
  8
0
 10
51.229192567702057
 20
168.20377479405221
 30
0.0
 40
15.5
 50
298.8362734143135
 51
349.16372679805221
  0
ARC
  5
111
  8
0
 10
51.229192567702057
 20
127.03170419187251
 30
0.0
 40
15.5
 50
10.83627341431303
 51
61.163726798053339
  0
ARC
  5
112
  8
0
 10
90.386158603269266
 20
114.30883468219371
 30
0.0
 40
15.5
 50
82.836273414313098
 51
133.16372679805161
  0
ARC
  5
113
  8
0
 10
114.586494509575
 20
147.6177394929623
 30
0.0
 40
15.5
 50
154.83627341431341
 51
205.1637267980534
  0
ARC
  5
114
  8
0
 10
90.386158603269223
 20
180.92664430373091
 30
0.0
 40
15.5
 50
226.8362734143127
 51
277.16372679805221
  0
LINE
  5
115
  8
3
 10
212.2982836404324
 20
63.407031450704821
 30
0.0
 11
228.29828364043249
 21
63.407031450704622
 31
0.0
  0
LINE
  5
116
  8
3
 10
212.29828364043249
 20
71.567031450704391
 30
0.0
 11
228.29828364043249
 21
71.567031450704306
 31
0.0
  0
LINE
  5
117
  8
0
 10
228.29828364043249
 20
72.487031450704265
 30
0.0
 11
228.29828364043249
 21
62.487031450704258
 31
0.0
  0
LINE
  5
118
  8
0
 10
210.29828364043249
 20
77.487031450704322
 30
0.0
 11
212.29828364043249
 21
77.487031450704322
 31
0.0
  0
LINE
  5
119
  8
0
 10
210.29828364043249
 20
77.487031450704322
 30
0.0
 11
210.29828364043249
 21
57.487031450704322
 31
0.0
  0
LINE
  5
11A
  8
0
 10
212.29828364043249
 20
77.487031450704322
 30
0.0
 11
212.29828364043249
 21
57.487031450704322
 31
0.0
  0
LINE
  5
11B
  8
0
 10
210.29828364043249
 20
57.487031450704322
 30
0.0
 11
212.29828364043249
 21
57.487031450704322
 31
0.0
  0
LINE
  5
11C
  8
0
 10
228.2982836404328
 20
152.61773949296219
 30
0.0
 11
228.2982836404328
 21
142.61773949296219
 31
0.0
  0
LINE
  5
11D
  8
3
 10
212.2982836404328
 20
143.53773949296269
 30
0.0
 11
228.2982836404328
 21
143.53773949296249
 31
0.0
  0
LINE
  5
11E
  8
3
 10
212.2982836404328
 20
151.69773949296231
 30
0.0
 11
228.2982836404328
 21
151.6977394929622
 31
0.0
  0
LINE
  5
11F
  8
0
 10
210.2982836404328
 20
137.61773949296219
 30
0.0
 11
212.2982836404328
 21
137.61773949296219
 31
0.0
  0
LINE
  5
120
  8
0
 10
212.2982836404328
 20
157.61773949296219
 30
0.0
 11
212.2982836404328
 21
137.61773949296219
 31
0.0
  0
LINE
  5
121
  8
0
 10
210.2982836404328
 20
157.61773949296219
 30
0.0
 11
210.2982836404328
 21
137.61773949296219
 31
0.0
  0
LINE
  5
122
  8
0
 10
210.2982836404328
 20
157.61773949296219
 30
0.0
 11
212.2982836404328
 21
157.61773949296219
 31
0.0
  0
LINE
  5
123
  8
0
 10
297.58341392855323
 20
131.61873949296191
 30
0.0
 11
297.58341392855323
 21
130.5167394929619
 31
0.0
  0
LINE
  5
124
  8
0
 10
297.49828364043242
 20
131.61873949296191
 30
0.0
 11
297.49828364043242
 21
130.5167394929619
 31
0.0
  0
ARC
  5
125
  8
0
 10
296.17831232055221
 20
69.465516357025294
 30
0.0
 40
1.6432317535349961
 50
84.411992318649141
 51
162.71552714490599
  0
ARC
  5
126
  8
0
 10
296.49718347417507
 20
72.736362620787759
 30
0.0
 40
1.6431211485279571
 50
264.45179661445718
 51
319.01144081943812
  0
CIRCLE
  5
127
  8
0
 10
296.17828364043248
 20
65.508431450703938
 30
0.0
 40
0.7500000000000002
  0
CIRCLE
  5
128
  8
0
 10
296.17828364043248
 20
69.465631450703995
 30
0.0
 40
0.7500000000000002
  0
LINE
  5
129
  8
0
 10
294.28337561430698
 20
68.387033450703939
 30
0.0
 11
297.37995095546739
 21
68.387033450703939
 31
0.0
  0
LINE
  5
12A
  8
0
 10
212.29828364043291
 20
152.6177394929623
 30
0.0
 11
291.57447834566892
 21
152.6177394929619
 31
0.0
  0
LINE
  5
12B
  8
0
 10
291.57447834566881
 20
142.6177394929619
 30
0.0
 11
212.29828364043291
 21
142.6177394929623
 31
0.0
  0
ARC
  5
12C
  8
0
 10
302.2982836404326
 20
147.6177394929619
 30
0.0
 40
9.9999999999999911
 50
323.13010235415612
 51
36.869897645843857
  0
ARC
  5
12D
  8
0
 10
291.57447834566881
 20
138.6177394929619
 30
0.0
 40
4.000000000000008
 50
48.590377890727893
 51
90.0
  0
ARC
  5
12E
  8
0
 10
291.57447834566898
 20
156.6177394929619
 30
0.0
 40
4.0000000000000142
 50
270.0
 51
311.40962210926978
  0
LINE
  5
12F
  8
2
 10
307.29828364043249
 20
153.61773949296179
 30
0.0
 11
307.29828364043249
 21
141.61773949296179
 31
0.0
  0
LINE
  5
132
  8
2
 10
297.29828364043249
 20
141.6177394929619
 30
0.0
 11
297.29828364043249
 21
153.6177394929619
 31
0.0
  0
LINE
  5
133
  8
0
 10
294.63842271560139
 20
153.6177394929619
 30
0.0
 11
310.2982836404326
 21
153.61773949296179
 31
0.0
  0
LINE
  5
134
  8
0
 10
291.57447834566892
 20
152.6177394929619
 30
0.0
 11
291.57447834566881
 21
142.6177394929619
 31
0.0
  0
LINE
  5
135
  8
0
 10
294.63842271560151
 20
141.6177394929619
 30
0.0
 11
294.63842271560162
 21
153.6177394929619
 31
0.0
  0
POLYLINE
  5
136
  8
0
 66
     1
 10
0.0
 20
0.0
 30
0.0
  0
VERTEX
  5
2AA
  8
0
 10
294.63842271560139
 20
153.6177394929619
 30
0.0
  0
VERTEX
  5
2AB
  8
0
 10
294.5261746322771
 20
153.6177394929619
 30
0.0
  0
VERTEX
  5
2AC
  8
0
 10
294.40851559517807
 20
153.6177394929619
 30
0.0
  0
VERTEX
  5
2AD
  8
0
 10
294.37873547272591
 20
153.6177394929619
 30
0.0
  0
VERTEX
  5
2AE
  8
0
 10
294.35104354027061
 20
153.6177394929619
 30
0.0
  0
VERTEX
  5
2AF
  8
0
 10
294.33804144221301
 20
153.6177394929619
 30
0.0
  0
VERTEX
  5
2B0
  8
0
 10
294.32563248454329
 20
153.6177394929619
 30
0.0
  0
VERTEX
  5
2B1
  8
0
 10
294.30267885675499
 20
153.6177394929619
 30
0.0
  0
VERTEX
  5
2B2
  8
0
 10
294.28233900541579
 20
153.6177394929619
 30
0.0
  0
VERTEX
  5
2B3
  8
0
 10
294.26474527087947
 20
153.6177394929619
 30
0.0
  0
VERTEX
  5
2B4
  8
0
 10
294.25000345058652
 20
153.6177394929619
 30
0.0
  0
VERTEX
  5
2B5
  8
0
 10
294.23819002094928
 20
153.6177394929619
 30
0.0
  0
VERTEX
  5
2B6
  8
0
 10
294.23339656268251
 20
153.6177394929619
 30
0.0
  0
VERTEX
  5
2B7
  8
0
 10
294.22934908693969
 20
153.6177394929619
 30
0.0
  0
VERTEX
  5
2B8
  8
0
 10
294.22349041169701
 20
153.6177394929619
 30
0.0
  0
VERTEX
  5
2B9
  8
0
 10
294.22058880500163
 20
153.6177394929619
 30
0.0
  0
VERTEX
  5
2BA
  8
0
 10
294.22022965673352
 20
153.6177394929619
 30
0.0
  0
SEQEND
  5
2BB
  8
0
  0
POLYLINE
  5
137
  8
0
 66
     1
 10
0.0
 20
0.0
 30
0.0
  0
VERTEX
  5
2BC
  8
0
 10
294.22022965673352
 20
153.6177394929619
 30
0.0
  0
VERTEX
  5
2BD
  8
0
 10
294.22058880500163
 20
153.6177394929619
 30
0.0
  0
VERTEX
  5
2BE
  8
0
 10
294.22349041169701
 20
153.6177394929619
 30
0.0
  0
VERTEX
  5
2BF
  8
0
 10
294.22934908693969
 20
153.6177394929619
 30
0.0
  0
VERTEX
  5
2C0
  8
0
 10
294.23339656268251
 20
153.6177394929619
 30
0.0
  0
VERTEX
  5
2C1
  8
0
 10
294.23819002094928
 20
153.6177394929619
 30
0.0
  0
VERTEX
  5
2C2
  8
0
 10
294.25000345058652
 20
153.6177394929619
 30
0.0
  0
VERTEX
  5
2C3
  8
0
 10
294.26474527087947
 20
153.6177394929619
 30
0.0
  0
VERTEX
  5
2C4
  8
0
 10
294.28233900541579
 20
153.6177394929619
 30
0.0
  0
VERTEX
  5
2C5
  8
0
 10
294.30267885675499
 20
153.6177394929619
 30
0.0
  0
VERTEX
  5
2C6
  8
0
 10
294.32563248454329
 20
153.6177394929619
 30
0.0
  0
VERTEX
  5
2C7
  8
0
 10
294.33804144221301
 20
153.6177394929619
 30
0.0
  0
VERTEX
  5
2C8
  8
0
 10
294.35104354027061
 20
153.6177394929619
 30
0.0
  0
VERTEX
  5
2C9
  8
0
 10
294.37873547272591
 20
153.6177394929619
 30
0.0
  0
VERTEX
  5
2CA
  8
0
 10
294.40851559517807
 20
153.6177394929619
 30
0.0
  0
VERTEX
  5
2CB
  8
0
 10
294.5261746322771
 20
153.6177394929619
 30
0.0
  0
VERTEX
  5
2CC
  8
0
 10
294.63842271560139
 20
153.6177394929619
 30
0.0
  0
SEQEND
  5
2CD
  8
0
  0
POLYLINE
  5
138
  8
0
 66
     1
 10
0.0
 20
0.0
 30
0.0
  0
VERTEX
  5
2CE
  8
0
 10
294.63842271560128
 20
141.6177394929619
 30
0.0
  0
VERTEX
  5
2CF
  8
0
 10
294.5261746322771
 20
141.6177394929619
 30
0.0
  0
VERTEX
  5
2D0
  8
0
 10
294.40851559517807
 20
141.6177394929619
 30
0.0
  0
VERTEX
  5
2D1
  8
0
 10
294.37873547272591
 20
141.6177394929619
 30
0.0
  0
VERTEX
  5
2D2
  8
0
 10
294.35104354027061
 20
141.6177394929619
 30
0.0
  0
VERTEX
  5
2D3
  8
0
 10
294.3380414422129
 20
141.6177394929619
 30
0.0
  0
VERTEX
  5
2D4
  8
0
 10
294.32563248454318
 20
141.6177394929619
 30
0.0
  0
VERTEX
  5
2D5
  8
0
 10
294.30267885675499
 20
141.6177394929619
 30
0.0
  0
VERTEX
  5
2D6
  8
0
 10
294.28233900541579
 20
141.6177394929619
 30
0.0
  0
VERTEX
  5
2D7
  8
0
 10
294.26474527087947
 20
141.6177394929619
 30
0.0
  0
VERTEX
  5
2D8
  8
0
 10
294.25000345058641
 20
141.6177394929619
 30
0.0
  0
VERTEX
  5
2D9
  8
0
 10
294.23819002094922
 20
141.6177394929619
 30
0.0
  0
VERTEX
  5
2DA
  8
0
 10
294.2333965626824
 20
141.6177394929619
 30
0.0
  0
VERTEX
  5
2DB
  8
0
 10
294.22934908693958
 20
141.6177394929619
 30
0.0
  0
VERTEX
  5
2DC
  8
0
 10
294.22349041169701
 20
141.6177394929619
 30
0.0
  0
VERTEX
  5
2DD
  8
0
 10
294.22058880500151
 20
141.6177394929619
 30
0.0
  0
VERTEX
  5
2DE
  8
0
 10
294.22022965673352
 20
141.6177394929619
 30
0.0
  0
SEQEND
  5
2DF
  8
0
  0
POLYLINE
  5
139
  8
0
 66
     1
 10
0.0
 20
0.0
 30
0.0
  0
VERTEX
  5
2E0
  8
0
 10
294.22022965673352
 20
141.6177394929619
 30
0.0
  0
VERTEX
  5
2E1
  8
0
 10
294.22058880500151
 20
141.6177394929619
 30
0.0
  0
VERTEX
  5
2E2
  8
0
 10
294.22349041169701
 20
141.6177394929619
 30
0.0
  0
VERTEX
  5
2E3
  8
0
 10
294.22934908693958
 20
141.6177394929619
 30
0.0
  0
VERTEX
  5
2E4
  8
0
 10
294.2333965626824
 20
141.6177394929619
 30
0.0
  0
VERTEX
  5
2E5
  8
0
 10
294.23819002094922
 20
141.6177394929619
 30
0.0
  0
VERTEX
  5
2E6
  8
0
 10
294.25000345058641
 20
141.6177394929619
 30
0.0
  0
VERTEX
  5
2E7
  8
0
 10
294.26474527087947
 20
141.6177394929619
 30
0.0
  0
VERTEX
  5
2E8
  8
0
 10
294.28233900541579
 20
141.6177394929619
 30
0.0
  0
VERTEX
  5
2E9
  8
0
 10
294.30267885675499
 20
141.6177394929619
 30
0.0
  0
VERTEX
  5
2EA
  8
0
 10
294.32563248454318
 20
141.6177394929619
 30
0.0
  0
VERTEX
  5
2EB
  8
0
 10
294.3380414422129
 20
141.6177394929619
 30
0.0
  0
VERTEX
  5
2EC
  8
0
 10
294.35104354027061
 20
141.6177394929619
 30
0.0
  0
VERTEX
  5
2ED
  8
0
 10
294.37873547272591
 20
141.6177394929619
 30
0.0
  0
VERTEX
  5
2EE
  8
0
 10
294.40851559517807
 20
141.6177394929619
 30
0.0
  0
VERTEX
  5
2EF
  8
0
 10
294.5261746322771
 20
141.6177394929619
 30
0.0
  0
VERTEX
  5
2F0
  8
0
 10
294.63842271560128
 20
141.6177394929619
 30
0.0
  0
SEQEND
  5
2F1
  8
0
  0
LINE
  5
13A
  8
0
 10
294.63842271560128
 20
141.6177394929619
 30
0.0
 11
310.29828364043249
 21
141.61773949296179
 31
0.0
  0
LINE
  5
13B
  8
0
 10
307.29828364043249
 20
153.61773949296179
 30
0.0
 11
297.29828364043249
 21
153.6177394929619
 31
0.0
  0
LINE
  5
13C
  8
0
 10
307.29828364043249
 20
141.61773949296179
 30
0.0
 11
297.29828364043249
 21
141.6177394929619
 31
0.0
  0
LINE
  5
13D
  8
1
 10
316.13122462092019
 20
147.6177394929619
 30
0.0
 11
170.82221240512339
 21
147.6177394929623
 31
0.0
  0
LINE
  5
13E
  8
1
 10
302.29828364043237
 20
126.3271767615235
 30
0.0
 11
302.2982836404326
 21
168.90830222440019
 31
0.0
  0
LINE
  5
13F
  8
0
 10
307.29828364043237
 20
130.11773949296179
 30
0.0
 11
306.29828364043237
 21
129.1177394929619
 31
0.0
  0
LINE
  5
140
  8
0
 10
298.29828364043237
 20
129.1177394929619
 30
0.0
 11
297.29828364043232
 21
130.1177394929619
 31
0.0
  0
LINE
  5
141
  8
0
 10
297.49828364043259
 20
163.6167394929619
 30
0.0
 11
297.49828364043259
 21
164.7187394929619
 31
0.0
  0
LINE
  5
142
  8
0
 10
307.2982836404326
 20
165.11773949296179
 30
0.0
 11
307.2982836404326
 21
164.71873949296179
 31
0.0
  0
LINE
  5
143
  8
0
 10
297.2982836404326
 20
164.7187394929619
 30
0.0
 11
297.2982836404326
 21
165.1177394929619
 31
0.0
  0
LINE
  5
144
  8
0
 10
306.2982836404326
 20
166.1177394929619
 30
0.0
 11
307.2982836404326
 21
165.11773949296179
 31
0.0
  0
LINE
  5
145
  8
0
 10
297.2982836404326
 20
165.1177394929619
 30
0.0
 11
298.2982836404326
 21
166.1177394929619
 31
0.0
  0
LINE
  5
146
  8
0
 10
307.2982836404326
 20
163.61673949296181
 30
0.0
 11
307.29828364043249
 21
153.61773949296179
 31
0.0
  0
LINE
  5
147
  8
2
 10
307.29828364043249
 20
153.61773949296179
 30
0.0
 11
307.29828364043249
 21
141.61773949296179
 31
0.0
  0
LINE
  5
148
  8
0
 10
307.29828364043249
 20
141.61773949296179
 30
0.0
 11
307.29828364043249
 21
131.61873949296191
 31
0.0
  0
LINE
  5
149
  8
0
 10
297.29828364043249
 20
131.61873949296191
 30
0.0
 11
297.29828364043249
 21
141.6177394929619
 31
0.0
  0
LINE
  5
14A
  8
2
 10
297.29828364043249
 20
141.6177394929619
 30
0.0
 11
297.29828364043249
 21
153.6177394929619
 31
0.0
  0
LINE
  5
14B
  8
0
 10
297.29828364043249
 20
153.6177394929619
 30
0.0
 11
297.2982836404326
 21
163.6167394929619
 31
0.0
  0
LINE
  5
14C
  8
0
 10
308.89831864043259
 20
164.71873949296179
 30
0.0
 11
308.89831864043259
 21
163.61673949296181
 31
0.0
  0
LINE
  5
14D
  8
0
 10
296.9282836404326
 20
164.7187394929619
 30
0.0
 11
296.9282836404326
 21
163.6167394929619
 31
0.0
  0
LINE
  5
14E
  8
0
 10
295.4282836404326
 20
163.6167394929619
 30
0.0
 11
295.4282836404326
 21
164.7187394929619
 31
0.0
  0
LINE
  5
14F
  8
0
 10
307.29828364043237
 20
130.51673949296179
 30
0.0
 11
307.29828364043237
 21
130.11773949296179
 31
0.0
  0
LINE
  5
150
  8
0
 10
297.29828364043232
 20
130.1177394929619
 30
0.0
 11
297.29828364043232
 21
130.5167394929619
 31
0.0
  0
LINE
  5
151
  8
0
 10
308.89831864043242
 20
131.61873949296191
 30
0.0
 11
308.89831864043242
 21
130.51673949296179
 31
0.0
  0
LINE
  5
152
  8
0
 10
296.92828364043243
 20
131.61873949296191
 30
0.0
 11
296.92828364043243
 21
130.5167394929619
 31
0.0
  0
LINE
  5
153
  8
0
 10
295.42828364043243
 20
130.5167394929619
 30
0.0
 11
295.42828364043243
 21
131.61873949296191
 31
0.0
  0
LINE
  5
154
  8
0
 10
306.29828364043237
 20
129.1177394929619
 30
0.0
 11
298.29828364043237
 21
129.1177394929619
 31
0.0
  0
LINE
  5
155
  8
0
 10
307.2982836404326
 20
165.11773949296179
 30
0.0
 11
297.2982836404326
 21
165.1177394929619
 31
0.0
  0
LINE
  5
156
  8
0
 10
306.2982836404326
 20
166.1177394929619
 30
0.0
 11
298.2982836404326
 21
166.1177394929619
 31
0.0
  0
LINE
  5
157
  8
0
 10
296.337739087719
 20
164.7187394929619
 30
0.0
 11
296.337739087719
 21
163.6167394929619
 31
0.0
  0
LINE
  5
158
  8
0
 10
297.5834139285534
 20
163.6167394929619
 30
0.0
 11
297.5834139285534
 21
164.7187394929619
 31
0.0
  0
LINE
  5
159
  8
0
 10
308.89831864043259
 20
163.61673949296181
 30
0.0
 11
294.28337561430709
 21
163.61673949296201
 31
0.0
  0
LINE
  5
15A
  8
0
 10
294.60928668975612
 20
164.7187394929619
 30
0.0
 11
294.60928668975612
 21
163.61673949296201
 31
0.0
  0
LINE
  5
15B
  8
0
 10
297.73747797361619
 20
164.7187394929619
 30
0.0
 11
297.73747797361608
 21
163.6167394929619
 31
0.0
  0
LINE
  5
15C
  8
0
 10
296.33832134065
 20
164.7187394929619
 30
0.0
 11
296.33832134064988
 21
163.6167394929619
 31
0.0
  0
LINE
  5
15D
  8
0
 10
294.28337561430709
 20
164.7187394929619
 30
0.0
 11
308.89831864043259
 21
164.71873949296179
 31
0.0
  0
LINE
  5
15E
  8
0
 10
294.28337561430709
 20
164.7187394929619
 30
0.0
 11
294.28337561430709
 21
163.61673949296201
 31
0.0
  0
LINE
  5
15F
  8
0
 10
307.29828364043237
 20
130.11773949296179
 30
0.0
 11
297.29828364043232
 21
130.1177394929619
 31
0.0
  0
LINE
  5
160
  8
0
 10
296.33773908771877
 20
131.61873949296191
 30
0.0
 11
296.33773908771877
 21
130.5167394929619
 31
0.0
  0
LINE
  5
161
  8
0
 10
308.89831864043242
 20
130.51673949296179
 30
0.0
 11
294.28337561430692
 21
130.5167394929619
 31
0.0
  0
LINE
  5
162
  8
0
 10
294.609286689756
 20
131.61873949296191
 30
0.0
 11
294.60928668975589
 21
130.5167394929619
 31
0.0
  0
LINE
  5
163
  8
0
 10
297.73747797361591
 20
131.61873949296191
 30
0.0
 11
297.73747797361591
 21
130.5167394929619
 31
0.0
  0
LINE
  5
164
  8
0
 10
296.33832134064983
 20
131.61873949296191
 30
0.0
 11
296.33832134064983
 21
130.5167394929619
 31
0.0
  0
LINE
  5
165
  8
0
 10
294.28337561430692
 20
131.61873949296191
 30
0.0
 11
308.89831864043242
 21
131.61873949296191
 31
0.0
  0
LINE
  5
166
  8
0
 10
294.28337561430692
 20
131.61873949296191
 30
0.0
 11
294.28337561430692
 21
130.5167394929619
 31
0.0
  0
POINT
  5
167
  8
0
 10
302.29828364043249
 20
147.6177394929619
 30
0.0
210
-1.0
220
0.0000000000000059
230
0.0
  0
POINT
  5
168
  8
0
 10
302.29828364043249
 20
147.6177394929619
 30
0.0
210
1.0
220
-0.0000000000000059
230
0.0
  0
POINT
  5
169
  8
0
 10
302.29828364043249
 20
147.6177394929619
 30
0.0
210
1.0
220
-0.0000000000000059
230
0.0
  0
POINT
  5
16A
  8
0
 10
302.2982836404326
 20
153.6177394929619
 30
-0.0000000000000007
210
0.0000000000000059
220
1.0
230
-0.0000000000000001
  0
POINT
  5
16B
  8
0
 10
302.29828364043249
 20
147.6177394929619
 30
0.0
210
-0.0000000000000059
220
-1.0
230
0.0000000000000001
  0
LINE
  5
16C
  8
0
 10
212.29828364043249
 20
72.487031450704293
 30
0.0
 11
291.57447834566881
 21
72.487031450703967
 31
0.0
  0
LINE
  5
16D
  8
0
 10
291.57447834566881
 20
62.487031450703967
 30
0.0
 11
212.29828364043249
 21
62.487031450704279
 31
0.0
  0
ARC
  5
16E
  8
0
 10
302.29828364043249
 20
67.487031450703967
 30
0.0
 40
10.0
 50
220.00520088486061
 51
139.9947991151389
  0
ARC
  5
16F
  8
0
 10
291.57447834566881
 20
58.487031450703967
 30
0.0
 40
4.0000000000000098
 50
40.005200884860557
 51
90.0
  0
ARC
  5
170
  8
0
 10
291.57447834566892
 20
76.487031450703967
 30
0.0
 40
4.0
 50
270.0
 51
319.9947991151389
  0
LINE
  5
171
  8
0
 10
291.57447834566921
 20
72.487031450703967
 30
0.0
 11
291.57447834566852
 21
62.487031450703967
 31
0.0
  0
LINE
  5
172
  8
0
 10
294.63842271560151
 20
69.794959225190155
 30
0.0
 11
294.63842271560151
 21
70.042217762185146
 31
0.0
  0
LINE
  5
173
  8
0
 10
294.63842271560168
 20
73.915602879275411
 30
0.0
 11
294.63842271560151
 21
69.794959225190155
 31
0.0
  0
LINE
  5
174
  8
0
 10
294.63842271560122
 20
65.179103676217665
 30
0.0
 11
294.63842271560088
 21
61.058460022132522
 31
0.0
  0
LINE
  5
175
  8
0
 10
294.63842271560122
 20
64.931852339855695
 30
0.0
 11
294.63842271560122
 21
65.179103676217665
 31
0.0
  0
POLYLINE
  5
176
  8
0
 66
     1
 10
0.0
 20
0.0
 30
0.0
  0
VERTEX
  5
2F2
  8
0
 10
294.63842271560139
 20
69.794959225190183
 30
0.0
  0
VERTEX
  5
2F3
  8
0
 10
294.56952180079668
 20
69.56193343172751
 30
0.0
  0
VERTEX
  5
2F4
  8
0
 10
294.4417249691615
 20
69.091925254595282
 30
0.0
  0
VERTEX
  5
2F5
  8
0
 10
294.33582460368928
 20
68.620082153764344
 30
0.0
  0
VERTEX
  5
2F6
  8
0
 10
294.29411645063902
 20
68.384949021476274
 30
0.0
  0
SEQEND
  5
2F7
  8
0
  0
POLYLINE
  5
177
  8
0
 66
     1
 10
0.0
 20
0.0
 30
0.0
  0
VERTEX
  5
2F8
  8
0
 10
294.29411645063902
 20
68.384949021476274
 30
0.0
  0
VERTEX
  5
2F9
  8
0
 10
294.2862058220835
 20
68.334116414802537
 30
0.0
  0
VERTEX
  5
2FA
  8
0
 10
294.27166126539151
 20
68.232673502109691
 30
0.0
  0
VERTEX
  5
2FB
  8
0
 10
294.25886455901519
 20
68.131572845790032
 30
0.0
  0
VERTEX
  5
2FC
  8
0
 10
294.25313622518701
 20
68.081169004915949
 30
0.0
  0
VERTEX
  5
2FD
  8
0
 10
294.24786090341871
 20
68.030872944834215
 30
0.0
  0
VERTEX
  5
2FE
  8
0
 10
294.2386836775201
 20
67.930635618032483
 30
0.0
  0
VERTEX
  5
2FF
  8
0
 10
294.23135357151682
 20
67.830925083757819
 30
0.0
  0
VERTEX
  5
300
  8
0
 10
294.22587800420553
 20
67.731806907228943
 30
0.0
  0
VERTEX
  5
301
  8
0
 10
294.22225086658148
 20
67.633346830278725
 30
0.0
  0
VERTEX
  5
302
  8
0
 10
294.22045261909869
 20
67.535609504564462
 30
0.0
  0
VERTEX
  5
303
  8
0
 10
294.22022965673352
 20
67.487031450703924
 30
0.0
  0
VERTEX
  5
304
  8
0
 10
294.22045261909869
 20
67.438453396843414
 30
0.0
  0
VERTEX
  5
305
  8
0
 10
294.22225086658148
 20
67.340716071129151
 30
0.0
  0
VERTEX
  5
306
  8
0
 10
294.22587800420553
 20
67.242255994178905
 30
0.0
  0
VERTEX
  5
307
  8
0
 10
294.23135357151682
 20
67.143137817650114
 30
0.0
  0
VERTEX
  5
308
  8
0
 10
294.2386836775201
 20
67.043427283375394
 30
0.0
  0
VERTEX
  5
309
  8
0
 10
294.24786090341871
 20
66.943189956573661
 30
0.0
  0
VERTEX
  5
30A
  8
0
 10
294.25313622518701
 20
66.892893896491927
 30
0.0
  0
VERTEX
  5
30B
  8
0
 10
294.25886455901519
 20
66.842490055617901
 30
0.0
  0
VERTEX
  5
30C
  8
0
 10
294.27166126539151
 20
66.741389399298185
 30
0.0
  0
VERTEX
  5
30D
  8
0
 10
294.2862058220835
 20
66.639946486605396
 30
0.0
  0
VERTEX
  5
30E
  8
0
 10
294.29411645063902
 20
66.589113879931602
 30
0.0
  0
SEQEND
  5
30F
  8
0
  0
POLYLINE
  5
178
  8
0
 66
     1
 10
0.0
 20
0.0
 30
0.0
  0
VERTEX
  5
310
  8
0
 10
294.29411645063902
 20
66.589113879931602
 30
0.0
  0
VERTEX
  5
311
  8
0
 10
294.33582460368928
 20
66.353980747643533
 30
0.0
  0
VERTEX
  5
312
  8
0
 10
294.4417249691615
 20
65.882137646812595
 30
0.0
  0
VERTEX
  5
313
  8
0
 10
294.56952180079668
 20
65.412129469680366
 30
0.0
  0
VERTEX
  5
314
  8
0
 10
294.63842271560128
 20
65.179103676217693
 30
0.0
  0
SEQEND
  5
315
  8
0
  0
ARC
  5
179
  8
0
 10
302.29828364043249
 20
67.487031450703967
 30
0.0
 40
8.0
 50
201.83840232070861
 51
158.1624151816558
  0
CIRCLE
  5
17A
  8
0
 10
302.29828364043249
 20
67.487031450703967
 30
0.0
 40
5.0
  0
LINE
  5
17B
  8
1
 10
316.13122462092019
 20
67.487031450703853
 30
0.0
 11
170.82221240512339
 21
67.487031450704464
 31
0.0
  0
LINE
  5
17C
  8
1
 10
302.2982836404326
 20
81.319972431191616
 30
0.0
 11
302.29828364043237
 21
53.654090470216317
 31
0.0
  0
CIRCLE
  5
17D
  8
0
 10
302.29828364043249
 20
67.487031450703967
 30
0.0
 40
4.0
  0
ARC
  5
17E
  8
0
 10
302.29828364043249
 20
67.487031450703967
 30
0.0
 40
4.7999999999999892
 50
169.19305282085111
 51
190.80694717914889
  0
LINE
  5
17F
  8
0
 10
297.37995095546739
 20
66.587029450703994
 30
0.0
 11
297.58341392855328
 21
66.587029450703994
 31
0.0
  0
LINE
  5
180
  8
0
 10
297.37995095546739
 20
68.387033450703939
 30
0.0
 11
297.58341392855328
 21
68.387033450703939
 31
0.0
  0
CIRCLE
  5
181
  8
0
 10
302.29828364043249
 20
67.487031450703967
 30
0.0
 40
5.0
  0
ARC
  5
182
  8
0
 10
302.53828860280811
 20
67.487031450703967
 30
0.0
 40
6.3600300376244068
 50
220.98853240724031
 51
139.01146759275969
  0
ARC
  5
183
  8
0
 10
296.49725064536148
 20
62.237794917400379
 30
0.0
 40
1.6430083721685049
 50
40.987604457753903
 51
95.571339490964263
  0
ARC
  5
184
  8
0
 10
296.17823049300557
 20
65.508373193326861
 30
0.0
 40
1.6430920701028069
 50
197.27915464923731
 51
275.57095098334952
  0
ARC
  5
185
  8
0
 10
302.53933827303621
 20
67.487197449231743
 30
0.0
 40
8.304881441073487
 50
186.2225276152337
 51
197.27980244058861
  0
LINE
  5
186
  8
0
 10
297.37995095546739
 20
66.587029450703994
 30
0.0
 11
294.28338567356508
 21
66.587029450703994
 31
0.0
  0
ARC
  5
187
  8
0
 10
302.53934378226472
 20
67.486864581166515
 30
0.0
 40
8.3048970122461743
 50
162.72012513519959
 51
173.7774780529713
  0
TEXT
  5
21B
  8
0
 62
     3
 10
0.0
 20
0.0
 30
0.0
 40
10.0
  1
RWK10100
  7
STANDARD1
  0
ENDSEC
  0
EOF
