  0
SECTION
  2
HEADER
  9
$ACADVER
  1
AC1009
  9
$INSBASE
 10
0.0
 20
0.0
 30
0.0
  9
$EXTMIN
 10
0.0
 20
-2.960436562073669
 30
0.0
  9
$EXTMAX
 10
1368.4962845786549
 20
979.5958233413246
 30
0.0
  9
$LIMMIN
 10
0.0
 20
0.0
  9
$LIMMAX
 10
1500.0
 20
1080.0
  9
$ORTHOMODE
 70
     1
  9
$REGENMODE
 70
     1
  9
$FILLMODE
 70
     1
  9
$QTEXTMODE
 70
     0
  9
$MIRRTEXT
 70
     0
  9
$DRAGMODE
 70
     2
  9
$LTSCALE
 40
40.0
  9
$OSMODE
 70
    55
  9
$ATTMODE
 70
     1
  9
$TEXTSIZE
 40
0.2
  9
$TRACEWID
 40
0.05
  9
$TEXTSTYLE
  7
K50
  9
$CLAYER
  8
0
  9
$CELTYPE
  6
BYLAYER
  9
$CECOLOR
 62
   256
  9
$DIMSCALE
 40
4.0
  9
$DIMASZ
 40
3.0
  9
$DIMEXO
 40
2.0
  9
$DIMDLI
 40
0.3799999999999999
  9
$DIMRND
 40
0.0
  9
$DIMDLE
 40
0.0
  9
$DIMEXE
 40
2.0
  9
$DIMTP
 40
0.0
  9
$DIMTM
 40
0.0
  9
$DIMTXT
 40
3.2000000000000002
  9
$DIMCEN
 40
0.09
  9
$DIMTSZ
 40
0.0
  9
$DIMTOL
 70
     0
  9
$DIMLIM
 70
     0
  9
$DIMTIH
 70
     0
  9
$DIMTOH
 70
     0
  9
$DIMSE1
 70
     0
  9
$DIMSE2
 70
     0
  9
$DIMTAD
 70
     1
  9
$DIMZIN
 70
     0
  9
$DIMBLK
  1

  9
$DIMASO
 70
     1
  9
$DIMSHO
 70
     0
  9
$DIMPOST
  1

  9
$DIMAPOST
  1

  9
$DIMALT
 70
     0
  9
$DIMALTD
 70
     2
  9
$DIMALTF
 40
25.399999999999999
  9
$DIMLFAC
 40
1.0
  9
$DIMTOFL
 70
     0
  9
$DIMTVP
 40
1.6000000000000001
  9
$DIMTIX
 70
     1
  9
$DIMSOXD
 70
     0
  9
$DIMSAH
 70
     0
  9
$DIMBLK1
  1

  9
$DIMBLK2
  1

  9
$DIMSTYLE
  2
STANDARD
  9
$DIMCLRD
 70
     0
  9
$DIMCLRE
 70
     0
  9
$DIMCLRT
 70
     0
  9
$DIMTFAC
 40
1.0
  9
$DIMGAP
 40
0.09
  9
$LUNITS
 70
     2
  9
$LUPREC
 70
     4
  9
$SKETCHINC
 40
0.1
  9
$FILLETRAD
 40
0.0
  9
$AUNITS
 70
     0
  9
$AUPREC
 70
     0
  9
$MENU
  1
E:\r13\win\SUPPORT\ACAD
  9
$ELEVATION
 40
0.0
  9
$PELEVATION
 40
0.0
  9
$THICKNESS
 40
0.0
  9
$LIMCHECK
 70
     0
  9
$BLIPMODE
 70
     0
  9
$CHAMFERA
 40
0.0
  9
$CHAMFERB
 40
0.0
  9
$SKPOLY
 70
     0
  9
$TDCREATE
 40
2449840.5982291671
  9
$TDUPDATE
 40
2456598.6023650351
  9
$TDINDWG
 40
0.0002976505
  9
$TDUSRTIMER
 40
0.0002976505
  9
$USRTIMER
 70
     1
  9
$ANGBASE
 50
0.0
  9
$ANGDIR
 70
     0
  9
$PDMODE
 70
     0
  9
$PDSIZE
 40
0.0
  9
$PLINEWID
 40
0.0
  9
$COORDS
 70
     1
  9
$SPLFRAME
 70
     0
  9
$SPLINETYPE
 70
     6
  9
$SPLINESEGS
 70
     8
  9
$ATTDIA
 70
     0
  9
$ATTREQ
 70
     1
  9
$HANDLING
 70
     1
  9
$HANDSEED
  5
3A0
  9
$SURFTAB1
 70
     6
  9
$SURFTAB2
 70
     6
  9
$SURFTYPE
 70
     6
  9
$SURFU
 70
     6
  9
$SURFV
 70
     6
  9
$UCSNAME
  2

  9
$UCSORG
 10
0.0
 20
0.0
 30
0.0
  9
$UCSXDIR
 10
1.0
 20
0.0
 30
0.0
  9
$UCSYDIR
 10
0.0
 20
1.0
 30
0.0
  9
$PUCSNAME
  2

  9
$PUCSORG
 10
0.0
 20
0.0
 30
0.0
  9
$PUCSXDIR
 10
1.0
 20
0.0
 30
0.0
  9
$PUCSYDIR
 10
0.0
 20
1.0
 30
0.0
  9
$USERI1
 70
     0
  9
$USERI2
 70
     1
  9
$USERI3
 70
     1
  9
$USERI4
 70
     0
  9
$USERI5
 70
     0
  9
$USERR1
 40
0.0
  9
$USERR2
 40
0.0
  9
$USERR3
 40
0.0
  9
$USERR4
 40
0.0
  9
$USERR5
 40
0.0
  9
$WORLDVIEW
 70
     1
  9
$SHADEDGE
 70
     3
  9
$SHADEDIF
 70
    70
  9
$TILEMODE
 70
     1
  9
$MAXACTVP
 70
    16
  9
$PLIMCHECK
 70
     0
  9
$PEXTMIN
 10
1.0000000000000000E+020
 20
1.0000000000000000E+020
 30
1.0000000000000000E+020
  9
$PEXTMAX
 10
-1.0000000000000000E+020
 20
-1.0000000000000000E+020
 30
-1.0000000000000000E+020
  9
$PLIMMIN
 10
0.0
 20
0.0
  9
$PLIMMAX
 10
12.0
 20
9.0
  9
$UNITMODE
 70
     0
  9
$VISRETAIN
 70
     0
  9
$PLINEGEN
 70
     0
  9
$PSLTSCALE
 70
     0
  0
ENDSEC
  0
SECTION
  2
TABLES
  0
TABLE
  2
VPORT
 70
     1
  0
VPORT
  2
*ACTIVE
 70
     0
 10
0.0
 20
0.0
 11
1.0
 21
1.0
 12
749.97711356260913
 22
781.59298064494135
 13
0.0
 23
0.0
 14
40.0
 24
40.0
 15
40.0
 25
40.0
 16
0.0
 26
0.0
 36
1.0
 17
0.0
 27
0.0
 37
0.0
 40
1584.3667241118301
 41
1.7807262569832401
 42
50.0
 43
0.0
 44
0.0
 50
0.0
 51
0.0
 71
     0
 72
   500
 73
     1
 74
     0
 75
     0
 76
     0
 77
     0
 78
     2
  0
ENDTAB
  0
TABLE
  2
LTYPE
 70
     4
  0
LTYPE
  2
CONTINUOUS
 70
     0
  3
Solid Line
 72
    65
 73
     0
 40
0.0
  0
LTYPE
  2
CENTER
 70
     0
  3
____ _ ____ _ ____ _ ____ _ ____ _ ____ _ ____
 72
    65
 73
     4
 40
2.0
 49
1.25
 49
-0.25
 49
0.25
 49
-0.25
  0
LTYPE
  2
HIDDEN
 70
     0
  3
_ _ _ _ _ _ _ _ _ _ _ _ _ _ _ _ _ _ _ _ _ _ _
 72
    65
 73
     2
 40
0.375
 49
0.25
 49
-0.125
  0
LTYPE
  2
PHANTOM2
 70
     0
  3
___ _ _ ___ _ _ ___ _ _ ___ _ _
 72
    65
 73
     6
 40
1.25
 49
0.625
 49
-0.125
 49
0.125
 49
-0.125
 49
0.125
 49
-0.125
  0
ENDTAB
  0
TABLE
  2
LAYER
 70
     4
  0
LAYER
  2
0
 70
     0
 62
     7
  6
CONTINUOUS
  0
LAYER
  2
1
 70
     0
 62
     1
  6
CENTER
  0
LAYER
  2
3
 70
     0
 62
     3
  6
CONTINUOUS
  0
LAYER
  2
2
 70
     0
 62
     2
  6
HIDDEN
  0
ENDTAB
  0
TABLE
  2
STYLE
 70
     4
  0
STYLE
  2
STANDARD
 70
     0
 40
0.0
 41
1.0
 50
0.0
 71
     0
 42
0.2
  3
romans.shx
  4

  0
STYLE
  2
K70
 70
     0
 40
0.0
 41
1.0
 50
0.0
 71
     0
 42
0.2
  3
romans.shx
  4

  0
STYLE
  2
K50
 70
     0
 40
0.0
 41
1.0
 50
0.0
 71
     0
 42
0.2
  3
romans.shx
  4

  0
STYLE
  2
STANDARD1
 70
     0
 40
0.0
 41
1.0
 50
0.0
 71
     0
 42
3.0
  3
txt
  4

  0
ENDTAB
  0
TABLE
  2
VIEW
 70
     1
  0
VIEW
  2
ALL
 70
     0
 40
1080.0
 10
883.96638655462186
 20
540.0
 41
0.0
 11
0.0
 21
0.0
 31
1.0
 12
0.0
 22
0.0
 32
0.0
 42
0.0
 43
0.0
 44
0.0
 50
0.0
 71
     0
  0
ENDTAB
  0
TABLE
  2
UCS
 70
     0
  0
ENDTAB
  0
TABLE
  2
APPID
 70
     3
  0
APPID
  2
ACAD
 70
     0
  0
APPID
  2
ACAD_MLEADERVER
 70
     0
  0
APPID
  2
ACAD_NAV_VCDISPLAY
 70
     0
  0
ENDTAB
  0
TABLE
  2
DIMSTYLE
 70
     1
  0
DIMSTYLE
  2
STANDARD
 70
     0
  3

  4

  5

  6

  7

 40
1.0
 41
0.18
 42
0.0625
 43
0.38
 44
0.18
 45
0.0
 46
0.0
 47
0.0
 48
0.0
140
0.18
141
0.09
142
0.0
143
25.399999999999999
144
1.0
145
0.0
146
1.0
147
0.09
 71
     0
 72
     0
 73
     1
 74
     1
 75
     0
 76
     0
 77
     0
 78
     0
170
     0
171
     2
172
     0
173
     0
174
     0
175
     0
176
     0
177
     0
178
     0
  0
ENDTAB
  0
ENDSEC
  0
SECTION
  2
BLOCKS
  0
BLOCK
  8
0
  2
$MODEL_SPACE
 70
     0
 10
0.0
 20
0.0
 30
0.0
  3
$MODEL_SPACE
  1

  0
ENDBLK
  5
20A
  8
0
  0
BLOCK
 67
     1
  8
0
  2
$PAPER_SPACE
 70
     0
 10
0.0
 20
0.0
 30
0.0
  3
$PAPER_SPACE
  1

  0
ENDBLK
  5
208
 67
     1
  8
0
  0
ENDSEC
  0
SECTION
  2
ENTITIES
  0
CIRCLE
  5
40
  8
0
 10
276.58328770292218
 20
615.17136290967233
 30
0.0
 40
14.0
  0
LINE
  5
41
  8
1
 10
310.58328770292218
 20
615.17136290967233
 30
0.0
 11
242.5832877029226
 21
615.17136290967233
 31
0.0
  0
ARC
  5
42
  8
0
 10
276.58328770292292
 20
515.1713629096721
 30
0.0
 40
29.999999999999549
 50
193.03393607355
 51
202.96606392645049
  0
ARC
  5
43
  8
0
 10
243.45924139136119
 20
507.50340647073511
 30
0.0
 40
4.0
 50
13.03393607355004
 51
70.237589283579595
  0
ARC
  5
44
  8
0
 10
245.27825960437809
 20
501.90504406270958
 30
0.0
 40
4.0
 50
325.76241071641982
 51
22.966063926450111
  0
LINE
  5
45
  8
0
 10
244.81172369616419
 20
511.26781766177078
 30
0.0
 11
195.0864032009257
 21
529.13319226022634
 31
0.0
  0
ARC
  5
46
  8
0
 10
191.70519743891811
 20
519.72216428263698
 30
0.0
 40
10.0
 50
70.237589283579695
 51
176.9309830782413
  0
ARC
  5
47
  8
0
 10
276.58328770292292
 20
515.17136290967233
 30
0.0
 40
95.00000000000415
 50
176.93098307824141
 51
219.0690169217587
  0
LINE
  5
48
  8
0
 10
248.5851061552105
 20
499.65454058809621
 30
0.0
 11
218.85748053947501
 21
455.97333887445433
 31
0.0
  0
ARC
  5
49
  8
0
 10
210.5903641623936
 20
461.5995975609876
 30
0.0
 40
10.0
 50
219.0690169217591
 51
325.76241071642062
  0
ARC
  5
4A
  8
0
 10
276.58328770292292
 20
515.17136290967187
 30
0.0
 40
29.999999999999549
 50
121.03393607355
 51
130.9660639264504
  0
ARC
  5
4B
  8
0
 10
259.05473453226909
 20
544.30467414858686
 30
0.0
 40
4.0
 50
301.03393607355002
 51
358.23758928357961
  0
ARC
  5
4C
  8
0
 10
254.29248302443429
 20
540.84469589908804
 30
0.0
 40
4.0
 50
253.76241071641979
 51
310.96606392645009
  0
LINE
  5
4D
  8
0
 10
263.0528423422935
 20
544.18165407127537
 30
0.0
 11
264.67785418643888
 21
596.99394851493412
 31
0.0
  0
ARC
  5
4E
  8
0
 10
254.68258466137789
 20
597.30149870821288
 30
0.0
 40
10.0
 50
358.23758928357972
 51
104.9309830782413
  0
ARC
  5
4F
  8
0
 10
276.58328770292297
 20
515.1713629096721
 30
0.0
 40
95.00000000000415
 50
104.9309830782414
 51
147.06901692175859
  0
LINE
  5
50
  8
0
 10
253.17399881195581
 20
537.00425411897527
 30
0.0
 11
202.44436576491529
 21
551.77867251056773
 31
0.0
  0
ARC
  5
51
  8
0
 10
205.24057629611141
 20
561.37977696084965
 30
0.0
 40
10.0
 50
147.06901692175899
 51
253.76241071642059
  0
ARC
  5
52
  8
0
 10
276.58328770292269
 20
515.1713629096721
 30
0.0
 40
29.999999999999549
 50
49.033936073550038
 51
58.966063926450417
  0
ARC
  5
53
  8
0
 10
298.87409238141061
 20
540.84469589908781
 30
0.0
 40
4.0
 50
229.03393607355011
 51
286.23758928357961
  0
ARC
  5
54
  8
0
 10
294.11184087357651
 20
544.30467414858754
 30
0.0
 40
4.0
 50
181.76241071641979
 51
238.96606392645009
  0
LINE
  5
55
  8
0
 10
299.99257659388923
 20
537.00425411897504
 30
0.0
 11
350.72220964093071
 21
551.77867251056773
 31
0.0
  0
ARC
  5
56
  8
0
 10
347.92599910973451
 20
561.37977696084999
 30
0.0
 40
10.0
 50
286.23758928357972
 51
32.930983078241269
  0
ARC
  5
57
  8
0
 10
276.58328770292292
 20
515.17136290967187
 30
0.0
 40
95.00000000000415
 50
32.930983078241432
 51
75.069016921758674
  0
LINE
  5
58
  8
0
 10
290.1137330635521
 20
544.18165407127606
 30
0.0
 11
288.48872121940673
 21
596.99394851493366
 31
0.0
  0
ARC
  5
59
  8
0
 10
298.4839907444678
 20
597.30149870821265
 30
0.0
 40
10.0
 50
75.06901692175903
 51
181.7624107164205
  0
ARC
  5
5A
  8
0
 10
276.58328770292269
 20
515.17136290967221
 30
0.0
 40
29.999999999999549
 50
337.03393607355002
 51
346.96606392645037
  0
ARC
  5
5B
  8
0
 10
307.88831580146717
 20
501.90504406271009
 30
0.0
 40
4.0
 50
157.03393607355
 51
214.23758928357961
  0
ARC
  5
5C
  8
0
 10
309.70733401448501
 20
507.50340647073529
 30
0.0
 40
4.0
 50
109.76241071641979
 51
166.96606392645009
  0
LINE
  5
5D
  8
0
 10
304.5814692506346
 20
499.65454058809678
 30
0.0
 11
334.3090948663708
 21
455.97333887445399
 31
0.0
  0
ARC
  5
5E
  8
0
 10
342.57621124345212
 20
461.59959756098732
 30
0.0
 40
10.0
 50
214.23758928357969
 51
320.93098307824118
  0
ARC
  5
5F
  8
0
 10
276.58328770292258
 20
515.1713629096721
 30
0.0
 40
95.00000000000415
 50
320.93098307824141
 51
3.0690169217586791
  0
LINE
  5
60
  8
0
 10
308.35485170968212
 20
511.26781766177101
 30
0.0
 11
358.08017220491951
 21
529.133192260226
 31
0.0
  0
ARC
  5
61
  8
0
 10
361.4613779669271
 20
519.72216428263687
 30
0.0
 40
10.0
 50
3.0690169217590348
 51
109.7624107164205
  0
ARC
  5
62
  8
0
 10
279.52652099774008
 20
481.29899396724011
 30
0.0
 40
4.0
 50
37.762410716419787
 51
94.966063926450104
  0
ARC
  5
63
  8
0
 10
273.64005440810593
 20
481.29899396724062
 30
0.0
 40
4.0
 50
85.033936073550066
 51
142.23758928357961
  0
ARC
  5
64
  8
0
 10
246.02644606113131
 20
435.8537770356732
 30
0.0
 40
10.0
 50
142.23758928357969
 51
248.9309830782413
  0
ARC
  5
65
  8
0
 10
307.14012934471413
 20
435.85377703567349
 30
0.0
 40
10.0
 50
291.06901692175899
 51
37.762410716420533
  0
LINE
  5
66
  8
0
 10
282.68874877421348
 20
483.74854810824212
 30
0.0
 11
315.0456987858974
 21
441.9776623881786
 31
0.0
  0
LINE
  5
67
  8
0
 10
270.47782663163252
 20
483.74854810824269
 30
0.0
 11
238.12087661994801
 21
441.97766238817837
 31
0.0
  0
ARC
  5
68
  8
0
 10
298.56451090449872
 20
614.26261290967216
 30
0.0
 40
10.0
 50
77.492713247682403
 51
149.49509352794919
  0
ARC
  5
69
  8
0
 10
254.60206450134689
 20
614.26261290967216
 30
0.0
 40
10.0
 50
30.504906472059091
 51
102.5072867523174
  0
CIRCLE
  5
6A
  8
0
 10
276.5832877029228
 20
515.1713629096721
 30
0.0
 40
18.999999999998352
  0
CIRCLE
  5
6B
  8
0
 10
276.58328770292292
 20
515.17136290967221
 30
0.0
 40
124.9999999999971
  0
ARC
  5
6C
  8
0
 10
276.58328770292292
 20
515.17136290967221
 30
0.0
 40
29.999999999999549
 50
265.03393607355002
 51
274.96606392645037
  0
ARC
  5
6D
  8
0
 10
276.58328770292269
 20
515.17136290967221
 30
0.0
 40
95.00000000000415
 50
248.93098307824141
 51
291.0690169217587
  0
ARC
  5
6E
  8
0
 10
276.5832877029228
 20
515.17136290967221
 30
0.0
 40
111.5
 50
94.333400298917795
 51
85.666599701082845
  0
LINE
  5
6F
  8
1
 10
764.41030945687203
 20
660.17136290966914
 30
0.0
 11
764.41030945687203
 21
370.17136290967437
 31
0.0
  0
LINE
  5
70
  8
1
 10
626.41030945687112
 20
615.17136290967233
 30
0.0
 11
791.91030945687226
 21
615.17136290967233
 31
0.0
  0
LINE
  5
71
  8
1
 10
731.91030945687203
 20
515.17136290967233
 30
0.0
 11
833.91030945687226
 21
515.17136290967233
 31
0.0
  0
LINE
  5
72
  8
1
 10
421.58328770292002
 20
515.17136290967221
 30
0.0
 11
131.5832877029257
 21
515.17136290967221
 31
0.0
  0
LINE
  5
73
  8
1
 10
276.58328770292292
 20
660.17136290966937
 30
0.0
 11
276.58328770292292
 21
370.171362909675
 31
0.0
  0
CIRCLE
  5
74
  8
0
 10
1223.4962845786549
 20
515.17136290967233
 30
0.0
 40
21.0
  0
CIRCLE
  5
75
  8
0
 10
1223.4962845786549
 20
515.17136290967233
 30
0.0
 40
22.0
  0
CIRCLE
  5
76
  8
0
 10
1223.4962845786549
 20
515.17136290967233
 30
0.0
 40
25.0
  0
LINE
  5
77
  8
1
 10
1223.4962845786549
 20
660.17136290967221
 30
0.0
 11
1223.4962845786549
 21
370.17136290967221
 31
0.0
  0
LINE
  5
78
  8
1
 10
1368.4962845786549
 20
515.17136290967221
 30
0.0
 11
1078.4962845786549
 21
515.17136290967221
 31
0.0
  0
CIRCLE
  5
79
  8
0
 10
1223.4962845786549
 20
515.17136290967221
 30
0.0
 40
111.5
  0
CIRCLE
  5
7A
  8
0
 10
1223.4962845786549
 20
515.17136290967221
 30
0.0
 40
125.0
  0
ARC
  5
7B
  8
0
 10
1190.3722382670931
 20
507.50340647075183
 30
0.0
 40
4.0
 50
13.03393607354989
 51
70.237589283580235
  0
ARC
  5
7C
  8
0
 10
1192.191256480111
 20
501.90504406272669
 30
0.0
 40
4.0
 50
325.76241071642039
 51
22.966063926449959
  0
ARC
  5
7D
  8
0
 10
1223.4962845786549
 20
515.17136290968881
 30
0.0
 40
29.999999999999549
 50
265.03393607354963
 51
270.00000000000011
  0
ARC
  5
7E
  8
0
 10
1220.5530512838379
 20
481.29899396725671
 30
0.0
 40
4.0
 50
85.033936073549896
 51
142.23758928358021
  0
ARC
  5
7F
  8
0
 10
1223.4962845786549
 20
515.17136290968881
 30
0.0
 40
95.00000000000415
 50
248.93098307824141
 51
269.99999999999989
  0
LINE
  5
80
  8
0
 10
1217.3908235073641
 20
483.74854810825872
 30
0.0
 11
1185.0338734956799
 21
441.9776623881952
 31
0.0
  0
ARC
  5
81
  8
0
 10
1192.939442936864
 20
435.85377703569009
 30
0.0
 40
10.0
 50
142.2375892835795
 51
248.93098307824101
  0
ARC
  5
82
  8
0
 10
1157.5033610381261
 20
461.59959756100392
 30
0.0
 40
10.0
 50
219.06901692175879
 51
325.76241071642039
  0
ARC
  5
83
  8
0
 10
1223.4962845786549
 20
515.17136290968847
 30
0.0
 40
95.00000000000415
 50
176.9309830782413
 51
219.06901692175859
  0
ARC
  5
84
  8
0
 10
1138.6181943146501
 20
519.72216428265347
 30
0.0
 40
10.0
 50
70.237589283579496
 51
176.9309830782409
  0
LINE
  5
85
  8
0
 10
1195.498103030943
 20
499.65454058811338
 30
0.0
 11
1165.7704774152071
 21
455.97333887447058
 31
0.0
  0
ARC
  5
86
  8
0
 10
1223.4962845786549
 20
515.17136290968881
 30
0.0
 40
29.999999999999549
 50
193.0339360735496
 51
202.96606392645
  0
LINE
  5
87
  8
0
 10
1191.724720571895
 20
511.26781766178749
 30
0.0
 11
1141.999400076658
 21
529.13319226024259
 31
0.0
  0
ARC
  5
88
  8
0
 10
1152.1535731718429
 20
561.37977696086637
 30
0.0
 40
10.0
 50
147.0690169217587
 51
253.76241071642039
  0
LINE
  5
89
  8
0
 10
1200.0869956876879
 20
537.00425411899153
 30
0.0
 11
1149.3573626406469
 21
551.77867251058444
 31
0.0
  0
ARC
  5
8A
  8
0
 10
1201.2054799001669
 20
540.84469589910441
 30
0.0
 40
4.0
 50
253.7624107164205
 51
310.96606392644998
  0
ARC
  5
8B
  8
0
 10
1223.4962845786549
 20
515.1713629096887
 30
0.0
 40
29.999999999999549
 50
121.0339360735496
 51
130.96606392645
  0
ARC
  5
8C
  8
0
 10
1205.9677314080011
 20
544.30467414860425
 30
0.0
 40
4.0
 50
301.03393607355002
 51
358.23758928358018
  0
LINE
  5
8D
  8
0
 10
1209.9658392180249
 20
544.18165407129266
 30
0.0
 11
1211.5908510621709
 21
596.99394851495026
 31
0.0
  0
ARC
  5
8E
  8
0
 10
1223.4962845786549
 20
515.17136290968847
 30
0.0
 40
95.00000000000415
 50
104.9309830782413
 51
147.06901692175859
  0
ARC
  5
8F
  8
0
 10
1201.5955815371101
 20
597.30149870822925
 30
0.0
 40
10.0
 50
358.2375892835795
 51
104.930983078241
  0
LINE
  5
90
  8
0
 10
1280.8202364052031
 20
533.7970439240238
 30
0.0
 11
1278.680359243539
 21
533.10175568668035
 31
0.0
  0
TEXT
  5
91
  8
0
 10
1270.780309753419
 20
526.64187182401145
 30
0.0
 40
6.9000000000000004
  1
R
 50
18.0
 41
0.7
  7
K70
 72
     1
 11
1273.186482739645
 21
527.42368481978008
 31
0.0
  0
TEXT
  5
92
  8
0
 10
1275.141607661488
 20
528.05894341548253
 30
0.0
 40
6.9000000000000004
  1
P
 50
18.0
 41
0.7
  7
K70
 72
     1
 11
1277.5477806477149
 21
528.84075641125105
 31
0.0
  0
TEXT
  5
93
  8
0
 10
1290.656579788402
 20
533.6395577027622
 30
0.0
 40
6.3499999999999988
  1
0
 50
18.0
 41
0.7
  7
K70
 72
     1
 11
1292.6696494145599
 21
534.29364367418918
 31
0.0
  0
TEXT
  5
94
  8
0
 10
1286.3677270260109
 20
532.24602496601835
 30
0.0
 40
6.3499999999999988
  1
5
 50
18.0
 41
0.7
  7
K70
 72
     1
 11
1288.380796652169
 21
532.90011093744545
 31
0.0
  0
TEXT
  5
95
  8
0
 10
1281.8615388265839
 20
530.78187566509257
 30
0.0
 40
6.3499999999999988
  1
2
 50
18.0
 41
0.7
  7
K70
 72
     1
 11
1283.8746084527429
 21
531.43596163651955
 31
0.0
  0
ARC
  5
96
  8
0
 10
1254.0531262204461
 20
435.85377703569009
 30
0.0
 40
10.0
 50
291.06901692175899
 51
37.762410716420533
  0
LINE
  5
97
  8
0
 10
1229.6017456499451
 20
483.74854810825872
 30
0.0
 11
1261.958695661629
 21
441.9776623881952
 31
0.0
  0
ARC
  5
98
  8
0
 10
1223.4962845786549
 20
515.17136290968881
 30
0.0
 40
95.00000000000415
 50
270.00000000000023
 51
291.0690169217587
  0
ARC
  5
99
  8
0
 10
1226.4395178734719
 20
481.29899396725671
 30
0.0
 40
4.0
 50
37.762410716419787
 51
94.966063926450104
  0
ARC
  5
9A
  8
0
 10
1223.4962845786549
 20
515.17136290968881
 30
0.0
 40
29.999999999999549
 50
270.0
 51
274.96606392645037
  0
ARC
  5
9B
  8
0
 10
1223.4962845786549
 20
515.17136290968847
 30
0.0
 40
95.00000000000415
 50
320.93098307824141
 51
3.0690169217586791
  0
LINE
  5
9C
  8
0
 10
1255.267848585414
 20
511.26781766178749
 30
0.0
 11
1304.9931690806509
 21
529.13319226024259
 31
0.0
  0
ARC
  5
9D
  8
0
 10
1308.3743748426591
 20
519.72216428265347
 30
0.0
 40
10.0
 50
3.0690169217590348
 51
109.7624107164205
  0
LINE
  5
9E
  8
0
 10
1251.4944661263669
 20
499.65454058811338
 30
0.0
 11
1281.222091742103
 21
455.97333887447058
 31
0.0
  0
ARC
  5
9F
  8
0
 10
1289.489208119184
 20
461.59959756100392
 30
0.0
 40
10.0
 50
214.23758928357969
 51
320.93098307824118
  0
ARC
  5
A0
  8
0
 10
1223.4962845786549
 20
515.17136290968881
 30
0.0
 40
29.999999999999549
 50
337.03393607355002
 51
346.96606392645037
  0
ARC
  5
A1
  8
0
 10
1254.8013126771989
 20
501.90504406272669
 30
0.0
 40
4.0
 50
157.03393607355
 51
214.23758928357961
  0
ARC
  5
A2
  8
0
 10
1256.620330890217
 20
507.50340647075183
 30
0.0
 40
4.0
 50
109.76241071641979
 51
166.96606392645009
  0
ARC
  5
A3
  8
0
 10
1223.4962845786549
 20
515.1713629096887
 30
0.0
 40
29.999999999999549
 50
49.033936073550038
 51
58.966063926450417
  0
ARC
  5
A4
  8
0
 10
1245.787089257143
 20
540.84469589910441
 30
0.0
 40
4.0
 50
229.03393607355011
 51
286.23758928357961
  0
LINE
  5
A5
  8
0
 10
1246.905573469621
 20
537.00425411899153
 30
0.0
 11
1297.6352065166629
 21
551.77867251058444
 31
0.0
  0
ARC
  5
A6
  8
0
 10
1241.0248377493081
 20
544.30467414860425
 30
0.0
 40
4.0
 50
181.76241071641979
 51
238.96606392645009
  0
LINE
  5
A7
  8
0
 10
1237.026729939284
 20
544.18165407129266
 30
0.0
 11
1235.4017180951389
 21
596.99394851495026
 31
0.0
  0
ARC
  5
A8
  8
0
 10
1294.838995985466
 20
561.37977696086637
 30
0.0
 40
10.0
 50
286.23758928357972
 51
32.930983078241269
  0
ARC
  5
A9
  8
0
 10
1223.4962845786549
 20
515.17136290968847
 30
0.0
 40
95.00000000000415
 50
32.930983078241432
 51
75.069016921758674
  0
ARC
  5
AA
  8
0
 10
1245.3969876202
 20
597.30149870822925
 30
0.0
 40
10.0
 50
75.06901692175903
 51
181.7624107164205
  0
ARC
  5
AB
  8
0
 10
1245.477507780231
 20
614.26261290968876
 30
0.0
 40
10.0
 50
77.492713247682403
 51
177.6326201023868
  0
ARC
  5
AC
  8
0
 10
1201.5150613770791
 20
614.26261290968876
 30
0.0
 40
10.0
 50
2.3673798976131
 51
102.5072867523174
  0
ARC
  5
AD
  8
0
 10
1223.4962845786549
 20
615.17136290968881
 30
0.0
 40
12.0
 50
182.36737989761309
 51
357.63262010238691
  0
CIRCLE
  5
AE
  8
0
 10
1223.4962845786549
 20
615.17136290968881
 30
0.0
 40
5.052999999999999
  0
LINE
  5
AF
  8
1
 10
1250.996284578659
 20
615.17136290968881
 30
0.0
 11
1195.996284578654
 21
615.17136290968881
 31
0.0
  0
CIRCLE
  5
B0
  8
3
 10
1223.4962845786549
 20
615.17136290968881
 30
0.0
 40
6.0
  0
CIRCLE
  5
B1
  8
0
 10
1223.4962845786549
 20
615.17136290968881
 30
0.0
 40
7.5
  0
LINE
  5
B2
  8
3
 10
751.91030945687191
 20
609.98677035094624
 30
0.0
 11
742.91030945687203
 21
621.65210360808021
 31
0.0
  0
LINE
  5
B3
  8
3
 10
751.91030945687191
 20
620.35595546839829
 30
0.0
 11
742.91030945687203
 21
608.69062221126455
 31
0.0
  0
LINE
  5
B4
  8
0
 10
742.91030945687203
 20
621.65210360808021
 30
0.0
 11
742.91030945687203
 21
608.69062221126455
 31
0.0
  0
ARC
  5
B5
  8
0
 10
737.41030945687203
 20
625.29323986035945
 30
0.0
 40
2.5
 50
360.0
 51
87.137594773887955
  0
ARC
  5
B6
  8
0
 10
737.41030945687203
 20
605.0494859589852
 30
0.0
 40
2.5
 50
272.86240522611212
 51
360.0
  0
LINE
  5
B7
  8
0
 10
740.41030945687203
 20
603.67136290967233
 30
0.0
 11
740.41030945687203
 21
626.67136290967244
 31
0.0
  0
LINE
  5
B8
  8
0
 10
651.01042081558455
 20
601.17136290967255
 30
0.0
 11
709.91030945687226
 21
601.17136290967255
 31
0.0
  0
LINE
  5
B9
  8
0
 10
651.01042081558455
 20
629.1713629096721
 30
0.0
 11
709.91030945687203
 21
629.1713629096721
 31
0.0
  0
LINE
  5
BA
  8
0
 10
740.41030945687203
 20
603.67136290967233
 30
0.0
 11
739.91030945687203
 21
604.17136290967233
 31
0.0
  0
LINE
  5
BB
  8
0
 10
740.41030945687203
 20
626.67136290967244
 30
0.0
 11
739.91030945687203
 21
626.17136290967244
 31
0.0
  0
LINE
  5
BC
  8
0
 10
751.91030945687191
 20
603.67136290967233
 30
0.0
 11
740.41030945687203
 21
603.67136290967233
 31
0.0
  0
LINE
  5
BD
  8
0
 10
751.91030945687191
 20
626.67136290967244
 30
0.0
 11
740.41030945687203
 21
626.67136290967244
 31
0.0
  0
LINE
  5
BE
  8
0
 10
739.91030945687203
 20
625.29323986035945
 30
0.0
 11
739.91030945687203
 21
605.0494859589852
 31
0.0
  0
LINE
  5
BF
  8
0
 10
751.91030945687191
 20
621.65210360808021
 30
0.0
 11
742.91030945687203
 21
621.65210360808021
 31
0.0
  0
LINE
  5
C0
  8
0
 10
751.91030945687191
 20
608.69062221126455
 30
0.0
 11
742.91030945687203
 21
608.69062221126455
 31
0.0
  0
ARC
  5
C1
  8
0
 10
695.91030945687203
 20
615.17136290967244
 30
0.0
 40
49.999999999999972
 50
167.44414220141411
 51
192.55585779858569
  0
ARC
  5
C2
  8
0
 10
651.01042081558455
 20
625.1713629096721
 30
0.0
 40
4.0
 50
89.999999999999574
 51
167.44414220141411
  0
ARC
  5
C3
  8
0
 10
651.01042081558455
 20
605.17136290967255
 30
0.0
 40
4.0
 50
192.55585779858589
 51
270.0
  0
LINE
  5
C4
  8
0
 10
737.5351534992318
 20
627.79012070755414
 30
0.0
 11
709.91030945687203
 21
629.1713629096721
 31
0.0
  0
LINE
  5
C5
  8
0
 10
709.91030945687226
 20
601.17136290967255
 30
0.0
 11
737.5351534992318
 21
602.55260511179063
 31
0.0
  0
LINE
  5
C6
  8
0
 10
709.91030945687203
 20
629.1713629096721
 30
0.0
 11
709.91030945687226
 21
601.17136290967255
 31
0.0
  0
POLYLINE
  5
C7
  8
0
 66
     1
 10
0.0
 20
0.0
 30
0.0
  0
VERTEX
  5
C8
  8
0
 10
790.42713822270457
 20
167.21520698916311
 30
0.0
 42
0.0032219519999287
  0
VERTEX
  5
C9
  8
0
 10
790.42654857056891
 20
167.30671145826841
 30
0.0
 42
0.0995311171035952
  0
SEQEND
  5
CA
  8
0
  0
POLYLINE
  5
CB
  8
0
 66
     1
 10
0.0
 20
0.0
 30
0.0
  0
VERTEX
  5
CC
  8
0
 10
790.42713822270457
 20
224.2785979668721
 30
0.0
 42
-0.0032219519999287
  0
VERTEX
  5
CD
  8
0
 10
790.42654857056891
 20
224.1870934977668
 30
0.0
 42
-0.0995311171035952
  0
SEQEND
  5
CE
  8
0
  0
LINE
  5
CF
  8
0
 10
776.91030945687237
 20
124.996404230189
 30
0.0
 11
790.07142862939975
 21
164.9960266892023
 31
0.0
  0
POLYLINE
  5
D0
  8
0
 66
     1
 10
0.0
 20
0.0
 30
0.0
  0
VERTEX
  5
D1
  8
0
 10
790.07142862939975
 20
164.99602668918541
 30
0.0
 42
0.0796360971234759
 50
44.173721489301791
  0
VERTEX
  5
D2
  8
0
 10
790.42713822270457
 20
167.21520698916311
 30
0.0
 42
0.1010927548382086
  0
SEQEND
  5
D3
  8
0
  0
POLYLINE
  5
D4
  8
0
 66
     1
 10
0.0
 20
0.0
 30
0.0
  0
VERTEX
  5
D5
  8
0
 10
790.07142862939975
 20
226.49777826684979
 30
0.0
 42
-0.0796360971234759
  0
VERTEX
  5
D6
  8
0
 10
790.42713822270457
 20
224.2785979668721
 30
0.0
 42
-0.1010927548382086
  0
SEQEND
  5
D7
  8
0
  0
LINE
  5
D8
  8
0
 10
776.91030945687237
 20
266.49740072584621
 30
0.0
 11
790.07142862939975
 21
226.49777826683291
 31
0.0
  0
POLYLINE
  5
D9
  8
0
 66
     1
 10
0.0
 20
0.0
 30
0.0
  0
VERTEX
  5
DA
  8
0
 10
789.06298716552851
 20
218.61147692067871
 30
0.0
 42
-0.0505126198924368
 70
     2
 50
309.59859157568781
  0
VERTEX
  5
DB
  8
0
 10
789.83565746666068
 20
216.9313729844408
 30
0.0
 42
-0.0827158962560239
  0
VERTEX
  5
DC
  8
0
 10
790.42713822270457
 20
213.380460046792
 30
0.0
 42
-0.082715896255991
  0
SEQEND
  5
DD
  8
0
  0
POLYLINE
  5
DE
  8
0
 66
     1
 10
0.0
 20
0.0
 30
0.0
  0
VERTEX
  5
DF
  8
0
 10
782.91030945687203
 20
200.46145422934461
 30
0.0
 42
-0.1670617146136003
  0
VERTEX
  5
E0
  8
0
 10
780.55370090010797
 20
201.2714592923397
 30
0.0
 42
-0.1054483411535438
  0
VERTEX
  5
E1
  8
0
 10
778.05622539018464
 20
204.24534342708651
 30
0.0
 42
-0.0361064897834233
 70
     2
 50
117.9846266851127
  0
VERTEX
  5
E2
  8
0
 10
777.15601176216364
 20
206.28168983800171
 30
0.0
 42
-0.0542141372540676
  0
SEQEND
  5
E3
  8
0
  0
LINE
  5
E4
  8
0
 10
776.91030945687203
 20
206.96741111266081
 30
0.0
 11
777.15601176216364
 21
206.28168983798639
 31
0.0
  0
LINE
  5
E5
  8
0
 10
776.91030945687203
 20
239.2584165703561
 30
0.0
 11
789.06298716552851
 21
218.61147692070031
 31
0.0
  0
POLYLINE
  5
E6
  8
0
 66
     1
 10
0.0
 20
0.0
 30
0.0
  0
VERTEX
  5
E7
  8
0
 10
790.42713822270457
 20
213.380460046792
 30
0.0
 42
-0.0591932482740621
  0
VERTEX
  5
E8
  8
0
 10
789.81113873880872
 20
208.1953997758354
 30
0.0
 42
-0.0727440279551554
  0
VERTEX
  5
E9
  8
0
 10
788.22551005021046
 20
204.24534342708651
 30
0.0
 42
-0.1066938847241266
 70
     2
 50
239.80732906073891
  0
VERTEX
  5
EA
  8
0
 10
785.37370906433375
 20
201.1192449791248
 30
0.0
 42
-0.1807973155212762
  0
VERTEX
  5
EB
  8
0
 10
782.91030945687203
 20
200.46145422933361
 30
0.0
 42
-0.1559121509251523
  0
SEQEND
  5
EC
  8
0
  0
ARC
  5
ED
  8
2
 10
777.91030945687203
 20
221.74690247801701
 30
0.0
 40
4.0
 50
90.000000000000014
 51
180.0
  0
LINE
  5
EE
  8
2
 10
782.91030945684474
 20
225.74690247801701
 30
0.0
 11
777.91030945687203
 21
225.74690247801701
 31
0.0
  0
LINE
  5
EF
  8
0
 10
812.91030945687191
 20
217.7469024780174
 30
0.0
 11
813.91030945687214
 21
216.7469024780174
 31
0.0
  0
LINE
  5
F0
  8
0
 10
812.91030945687191
 20
217.7469024780174
 30
0.0
 11
795.91030945687203
 21
217.7469024780174
 31
0.0
  0
ARC
  5
F1
  8
2
 10
782.68005004489055
 20
205.7482280068626
 30
0.0
 40
20.0
 50
83.518878228784715
 51
89.340340801739785
  0
ARC
  5
F2
  8
0
 10
782.68005004489055
 20
205.7482280068626
 30
0.0
 40
20.0
 50
48.58463714750026
 51
83.518878228784715
  0
ARC
  5
F3
  8
0
 10
782.68005004489055
 20
185.7455769491726
 30
0.0
 40
20.0
 50
276.48112177121533
 51
311.41536285249981
  0
ARC
  5
F4
  8
2
 10
782.68005004489055
 20
185.7455769491726
 30
0.0
 40
20.0
 50
270.65965919826021
 51
276.48112177121533
  0
LINE
  5
F5
  8
0
 10
812.91030945687191
 20
217.7469024780178
 30
0.0
 11
812.91030945687191
 21
173.7469024780178
 31
0.0
  0
LINE
  5
F6
  8
1
 10
626.41030945687112
 20
195.7469024780176
 30
0.0
 11
833.91030945687203
 21
195.7469024780176
 31
0.0
  0
LINE
  5
F7
  8
0
 10
751.91030945687203
 20
308.24690247801442
 30
0.0
 11
751.91030945687203
 21
83.246902478021084
 31
0.0
  0
LINE
  5
F8
  8
0
 10
812.91030945687191
 20
173.7469024780178
 30
0.0
 11
795.91030945687203
 21
173.7469024780178
 31
0.0
  0
LINE
  5
F9
  8
0
 10
812.91030945687191
 20
173.7469024780178
 30
0.0
 11
813.91030945687214
 21
174.7469024780178
 31
0.0
  0
LINE
  5
FA
  8
0
 10
813.91030945687214
 20
174.7469024780178
 30
0.0
 11
813.91030945687214
 21
216.7469024780178
 31
0.0
  0
LINE
  5
FB
  8
1
 10
764.41030945687203
 20
340.74690247801561
 30
0.0
 11
764.41030945687203
 21
50.74690247802021
 31
0.0
  0
LINE
  5
FC
  8
0
 10
776.91030945687203
 20
308.24690247801442
 30
0.0
 11
776.91030945687203
 21
83.246902478021084
 31
0.0
  0
ARC
  5
FD
  8
0
 10
764.41030945687203
 20
83.246902478021127
 30
0.0
 40
12.5
 50
180.0000000000002
 51
359.99999999999972
  0
ARC
  5
FE
  8
0
 10
764.41030945687203
 20
308.24690247801442
 30
0.0
 40
12.5
 50
0.0000000000002544
 51
179.99999999999969
  0
LINE
  5
FF
  8
2
 10
773.91030945687203
 20
169.7469024780182
 30
0.0
 11
773.91030945687248
 21
221.74690247801169
 31
0.0
  0
LINE
  5
100
  8
0
 10
795.91030945687203
 20
220.7469024780176
 30
0.0
 11
795.91030945687203
 21
170.74690247801709
 31
0.0
  0
LINE
  5
101
  8
2
 10
782.91030945684474
 20
165.7469024780182
 30
0.0
 11
777.91030945687203
 21
165.7469024780182
 31
0.0
  0
ARC
  5
102
  8
2
 10
777.91030945687203
 20
169.7469024780182
 30
0.0
 40
4.0
 50
180.0
 51
270.0
  0
POLYLINE
  5
103
  8
0
 66
     1
 10
0.0
 20
0.0
 30
0.0
  0
VERTEX
  5
104
  8
0
 10
790.42713822270457
 20
178.11334490924321
 30
0.0
 42
0.0591932482740621
  0
VERTEX
  5
105
  8
0
 10
789.81113873880872
 20
183.29840518019969
 30
0.0
 42
0.0727440279551554
  0
VERTEX
  5
106
  8
0
 10
788.22551005021046
 20
187.2484615289487
 30
0.0
 42
0.1066938847241266
 70
     2
 50
120.19267093926111
  0
VERTEX
  5
107
  8
0
 10
785.37370906433375
 20
190.3745599769104
 30
0.0
 42
0.1807973155212762
 50
120.19267093926111
  0
VERTEX
  5
108
  8
0
 10
782.91030945687203
 20
191.03235072670159
 30
0.0
 42
0.1559121509251523
  0
SEQEND
  5
109
  8
0
  0
LINE
  5
10A
  8
0
 10
776.91030945687203
 20
152.2353883856791
 30
0.0
 11
789.06298716552851
 21
172.88232803533489
 31
0.0
  0
LINE
  5
10B
  8
0
 10
776.91030945687203
 20
184.52639384337439
 30
0.0
 11
777.15601176216364
 21
185.21211511804881
 31
0.0
  0
POLYLINE
  5
10C
  8
0
 66
     1
 10
0.0
 20
0.0
 30
0.0
  0
VERTEX
  5
10D
  8
0
 10
782.91030945687203
 20
191.03235072669059
 30
0.0
 42
0.1670617146136003
  0
VERTEX
  5
10E
  8
0
 10
780.55370090010797
 20
190.22234566369551
 30
0.0
 42
0.1054483411535438
  0
VERTEX
  5
10F
  8
0
 10
778.05622539018464
 20
187.2484615289487
 30
0.0
 42
0.0361064897834233
 70
     2
 50
242.0153733148874
  0
VERTEX
  5
110
  8
0
 10
777.15601176216364
 20
185.21211511803349
 30
0.0
 42
0.0542141372540676
 50
242.0153733148874
  0
SEQEND
  5
111
  8
0
  0
POLYLINE
  5
112
  8
0
 66
     1
 10
0.0
 20
0.0
 30
0.0
  0
VERTEX
  5
113
  8
0
 10
789.06298716552851
 20
172.88232803535649
 30
0.0
 42
0.0505126198924368
 70
     2
 50
50.40140842431218
  0
VERTEX
  5
114
  8
0
 10
789.83565746666068
 20
174.56243197159429
 30
0.0
 42
0.0827158962560239
 50
50.40140842431218
  0
VERTEX
  5
115
  8
0
 10
790.42713822270457
 20
178.11334490924321
 30
0.0
 42
0.082715896255991
  0
SEQEND
  5
116
  8
0
  0
ARC
  5
11F
  8
2
 10
782.68005004489055
 20
824.59449781248225
 30
0.0
 40
20.0
 50
270.65965919826021
 51
292.78815057506711
  0
LINE
  5
120
  8
0
 10
812.91030945687191
 20
812.59582334132745
 30
0.0
 11
795.91030945687203
 21
812.59582334132745
 31
0.0
  0
LINE
  5
121
  8
0
 10
812.91030945687191
 20
812.59582334132745
 30
0.0
 11
813.91030945687214
 21
813.59582334132745
 31
0.0
  0
LINE
  5
122
  8
2
 10
782.91030945684474
 20
804.59582334132779
 30
0.0
 11
777.91030945687203
 21
804.59582334132779
 31
0.0
  0
ARC
  5
123
  8
2
 10
777.91030945687203
 20
808.5958233413279
 30
0.0
 40
4.0
 50
180.0
 51
270.0
  0
POLYLINE
  5
124
  8
0
 66
     1
 10
0.0
 20
0.0
 30
0.0
  0
VERTEX
  5
125
  8
0
 10
790.42713822270457
 20
806.06412785247267
 30
0.0
 42
0.1010927548382086
  0
VERTEX
  5
126
  8
0
 10
789.85831788216115
 20
808.84873463545875
 30
0.0
 42
0.0995311171035952
  0
VERTEX
  5
127
  8
0
 10
788.22551005021046
 20
811.22819352947715
 30
0.0
 42
0.097399406342826
 70
     2
 50
135.8262785106983
  0
VERTEX
  5
128
  8
0
 10
785.58206220007673
 20
812.94799694384415
 30
0.0
 42
0.1139717207482245
  0
VERTEX
  5
129
  8
0
 10
782.91030945687203
 20
813.36721956988799
 30
0.0
 42
0.0959438503452841
  0
SEQEND
  5
12A
  8
0
  0
LINE
  5
12B
  8
0
 10
776.91030945687203
 20
763.84532509349856
 30
0.0
 11
790.07142862939975
 21
803.84494755251194
 31
0.0
  0
POLYLINE
  5
12C
  8
0
 66
     1
 10
0.0
 20
0.0
 30
0.0
  0
VERTEX
  5
12D
  8
0
 10
790.07142862939975
 20
803.844947552495
 30
0.0
 42
0.0796360971234759
  0
VERTEX
  5
12E
  8
0
 10
790.42713822270457
 20
806.06412785247267
 30
0.0
 42
0.1010927548382086
  0
SEQEND
  5
12F
  8
0
  0
LINE
  5
130
  8
0
 10
776.91030945687203
 20
821.66971422207928
 30
0.0
 11
782.91030945687203
 21
820.99552454522814
 31
0.0
  0
POLYLINE
  5
131
  8
0
 66
     1
 10
0.0
 20
0.0
 30
0.0
  0
VERTEX
  5
132
  8
0
 10
782.91030945687203
 20
820.99552454524564
 30
0.0
 42
0.1621860283554694
  0
VERTEX
  5
133
  8
0
 10
785.51252420565027
 20
821.86241320134332
 30
0.0
 42
0.1060806816701391
  0
VERTEX
  5
134
  8
0
 10
788.22551005021046
 20
824.97895983645469
 30
0.0
 42
0.025137401486799
 70
     2
 50
61.070753099653373
  0
VERTEX
  5
135
  8
0
 10
788.92713822270446
 20
826.41437350100546
 30
0.0
 42
0.0563234015197202
  0
SEQEND
  5
136
  8
0
  0
POLYLINE
  5
137
  8
0
 66
     1
 10
0.0
 20
0.0
 30
0.0
  0
VERTEX
  5
138
  8
0
 10
782.91030945687203
 20
813.36721956987776
 30
0.0
 42
0.1041400564558798
  0
VERTEX
  5
139
  8
0
 10
780.30416470160321
 20
812.81846006610817
 30
0.0
 42
0.1006544273591242
  0
VERTEX
  5
13A
  8
0
 10
778.05622539018418
 20
811.22819352947704
 30
0.0
 42
0.0612044441268699
 70
     2
 50
226.77228067556061
  0
VERTEX
  5
13B
  8
0
 10
776.91030945687203
 20
809.6638128070166
 30
0.0
 42
0.0248289351401802
  0
SEQEND
  5
13C
  8
0
  0
ARC
  5
13D
  8
0
 10
782.68005004489055
 20
824.59449781248225
 30
0.0
 40
20.0
 50
292.78815057506711
 51
311.41536285249981
  0
ARC
  5
13E
  8
0
 10
782.68005004489055
 20
844.59714887017219
 30
0.0
 40
20.0
 50
48.58463714750026
 51
67.211849424932907
  0
POLYLINE
  5
13F
  8
0
 66
     1
 10
0.0
 20
0.0
 30
0.0
  0
VERTEX
  5
140
  8
0
 10
782.91030945687203
 20
855.82442711277668
 30
0.0
 42
-0.1041400564558798
  0
VERTEX
  5
141
  8
0
 10
780.30416470160321
 20
856.37318661654626
 30
0.0
 42
-0.1006544273591242
  0
VERTEX
  5
142
  8
0
 10
778.05622539018418
 20
857.96345315317728
 30
0.0
 42
-0.0612044441268699
 70
     2
 50
133.22771932443939
  0
VERTEX
  5
143
  8
0
 10
776.91030945687203
 20
859.52783387563784
 30
0.0
 42
-0.0248289351401802
  0
SEQEND
  5
144
  8
0
  0
POLYLINE
  5
145
  8
0
 66
     1
 10
0.0
 20
0.0
 30
0.0
  0
VERTEX
  5
146
  8
0
 10
782.91030945687203
 20
848.19612213740879
 30
0.0
 42
-0.1621860283554694
  0
VERTEX
  5
147
  8
0
 10
785.51252420565027
 20
847.32923348131135
 30
0.0
 42
-0.1060806816701391
  0
VERTEX
  5
148
  8
0
 10
788.22551005021046
 20
844.21268684619986
 30
0.0
 42
-0.025137401486799
 70
     2
 50
298.9292469003467
  0
VERTEX
  5
149
  8
0
 10
788.92713822270446
 20
842.77727318164887
 30
0.0
 42
-0.0563234015197202
  0
SEQEND
  5
14A
  8
0
  0
LINE
  5
14B
  8
0
 10
776.91030945687203
 20
847.52193246057504
 30
0.0
 11
782.91030945687203
 21
848.19612213742641
 31
0.0
  0
POLYLINE
  5
14C
  8
0
 66
     1
 10
0.0
 20
0.0
 30
0.0
  0
VERTEX
  5
14D
  8
0
 10
790.07142862939975
 20
865.34669913015955
 30
0.0
 42
-0.0796360971234759
  0
VERTEX
  5
14E
  8
0
 10
790.42713822270457
 20
863.12751883018166
 30
0.0
 42
-0.1010927548382086
  0
SEQEND
  5
14F
  8
0
  0
LINE
  5
150
  8
0
 10
776.91030945687203
 20
905.34632158915588
 30
0.0
 11
790.07142862939975
 21
865.34669913014261
 31
0.0
  0
POLYLINE
  5
151
  8
0
 66
     1
 10
0.0
 20
0.0
 30
0.0
  0
VERTEX
  5
152
  8
0
 10
790.42713822270457
 20
863.12751883018166
 30
0.0
 42
-0.1010927548382086
  0
VERTEX
  5
153
  8
0
 10
789.85831788216115
 20
860.34291204719568
 30
0.0
 42
-0.0995311171035952
  0
VERTEX
  5
154
  8
0
 10
788.22551005021046
 20
857.96345315317728
 30
0.0
 42
-0.097399406342826
 70
     2
 50
224.17372148930181
  0
VERTEX
  5
155
  8
0
 10
785.58206220007673
 20
856.24364973881029
 30
0.0
 42
-0.1139717207482245
  0
VERTEX
  5
156
  8
0
 10
782.91030945687203
 20
855.82442711276644
 30
0.0
 42
-0.0959438503452841
  0
SEQEND
  5
157
  8
0
  0
ARC
  5
158
  8
2
 10
777.91030945687203
 20
860.59582334132665
 30
0.0
 40
4.0
 50
90.000000000000014
 51
180.0
  0
LINE
  5
159
  8
2
 10
782.91030945684474
 20
864.59582334132654
 30
0.0
 11
777.91030945687203
 21
864.59582334132654
 31
0.0
  0
LINE
  5
15A
  8
0
 10
812.91030945687191
 20
856.5958233413271
 30
0.0
 11
813.91030945687214
 21
855.5958233413271
 31
0.0
  0
LINE
  5
15B
  8
0
 10
812.91030945687191
 20
856.5958233413271
 30
0.0
 11
795.91030945687203
 21
856.5958233413271
 31
0.0
  0
ARC
  5
15C
  8
2
 10
782.68005004489055
 20
844.59714887017219
 30
0.0
 40
20.0
 50
67.211849424932907
 51
89.340340801739785
  0
LINE
  5
15D
  8
0
 10
795.91030945687203
 20
809.59582334132745
 30
0.0
 11
795.91030945687203
 21
859.59582334132767
 31
0.0
  0
LINE
  5
15E
  8
2
 10
773.91030945687203
 20
860.59582334132665
 30
0.0
 11
773.91030945687248
 21
808.59582334133324
 31
0.0
  0
ARC
  5
15F
  8
0
 10
764.41030945687203
 20
722.09582334133052
 30
0.0
 40
12.5
 50
180.00000000000031
 51
359.99999999999972
  0
ARC
  5
160
  8
0
 10
764.41030945687203
 20
947.09582334132358
 30
0.0
 40
12.5
 50
0.0000000000002685
 51
179.9999999999998
  0
LINE
  5
161
  8
0
 10
776.91030945687203
 20
722.09582334133052
 30
0.0
 11
776.91030945687203
 21
947.09582334132381
 31
0.0
  0
LINE
  5
162
  8
1
 10
764.41030945687203
 20
689.59582334132961
 30
0.0
 11
764.41030945687203
 21
979.5958233413246
 31
0.0
  0
LINE
  5
163
  8
0
 10
813.91030945687214
 20
855.5958233413271
 30
0.0
 11
813.91030945687214
 21
813.5958233413271
 31
0.0
  0
LINE
  5
164
  8
0
 10
751.91030945687203
 20
722.09582334133052
 30
0.0
 11
751.91030945687203
 21
947.09582334132381
 31
0.0
  0
LINE
  5
165
  8
1
 10
626.41030945687112
 20
834.59582334132722
 30
0.0
 11
833.91030945687203
 21
834.59582334132745
 31
0.0
  0
LINE
  5
166
  8
0
 10
812.91030945687191
 20
812.5958233413271
 30
0.0
 11
812.91030945687191
 21
856.5958233413271
 31
0.0
  0
POLYLINE
  5
168
  8
0
 66
     1
 10
0.0
 20
0.0
 30
0.0
  0
VERTEX
  5
169
  8
0
 10
777.98176522707774
 20
542.76221290420494
 30
0.0
 42
0.0040042693569871
  0
VERTEX
  5
16A
  8
0
 10
778.05622539019168
 20
542.73115841124013
 30
0.0
 42
0.0550119729336432
 70
     2
 50
337.81969814859548
  0
VERTEX
  5
16B
  8
0
 10
780.11282723632939
 20
542.14598964779725
 30
0.0
 42
0.0418476477636255
 50
337.81969814859548
  0
VERTEX
  5
16C
  8
0
 10
782.91030945687191
 20
541.91144280217065
 30
0.0
 42
0.0418476477636221
  0
SEQEND
  5
16D
  8
0
  0
POLYLINE
  5
16E
  8
0
 66
     1
 10
0.0
 20
0.0
 30
0.0
  0
VERTEX
  5
16F
  8
0
 10
790.32109771173509
 20
526.43904640051085
 30
0.0
 42
0.0373315443023482
  0
VERTEX
  5
170
  8
0
 10
789.81559700202263
 20
529.20568675293521
 30
0.0
 42
0.0769004073601363
  0
VERTEX
  5
171
  8
0
 10
788.22551005021035
 20
532.87573478085005
 30
0.0
 42
0.0660606784103543
 70
     2
 50
122.2200090642626
  0
VERTEX
  5
172
  8
0
 10
786.62884525165202
 20
534.79353875994082
 30
0.0
 42
0.1700023876473516
 50
122.2200090642626
  0
SEQEND
  5
173
  8
0
  0
POLYLINE
  5
174
  8
0
 66
     1
 10
0.0
 20
0.0
 30
0.0
  0
VERTEX
  5
175
  8
0
 10
782.91030945687191
 20
510.49984923382419
 30
0.0
 42
0.1652534876442858
  0
VERTEX
  5
176
  8
0
 10
785.49884974001145
 20
511.37939923364769
 30
0.0
 42
0.1056981601202317
  0
VERTEX
  5
177
  8
0
 10
788.22551005021035
 20
514.58337337559055
 30
0.0
 42
0.0687973997356378
 70
     2
 50
61.668715426143748
  0
VERTEX
  5
178
  8
0
 10
789.80739584263313
 20
518.82332108118931
 30
0.0
 42
0.0355434240506591
 50
61.668715426143748
  0
VERTEX
  5
179
  8
0
 10
790.34955351828467
 20
522.44336493957906
 30
0.0
 42
0.0549846953440544
  0
SEQEND
  5
17A
  8
0
  0
POLYLINE
  5
17B
  8
0
 66
     1
 10
0.0
 20
0.0
 30
0.0
  0
VERTEX
  5
17C
  8
0
 10
778.90575153700331
 20
513.16658513063658
 30
0.0
 42
0.0622449701770243
 70
     2
 50
296.21450750258708
  0
VERTEX
  5
17D
  8
0
 10
780.59277726801531
 20
511.34502064189968
 30
0.0
 42
0.1766527411489686
 50
296.21450750258708
  0
VERTEX
  5
17E
  8
0
 10
782.91030945687191
 20
510.49984923382419
 30
0.0
 42
0.1766527411489604
  0
SEQEND
  5
17F
  8
0
  0
LINE
  5
180
  8
0
 10
776.91030945687191
 20
543.74960770898235
 30
0.0
 11
786.62884525165202
 21
534.79353875994309
 31
0.0
  0
LINE
  5
181
  8
0
 10
776.91030945687191
 20
515.94553390059832
 30
0.0
 11
778.90575153700331
 21
513.16658513063464
 31
0.0
  0
ARC
  5
182
  8
0
 10
782.68005004489044
 20
505.1700373808273
 30
0.0
 40
20.0
 50
287.50201861753737
 51
311.41536285249981
  0
POLYLINE
  5
183
  8
0
 66
     1
 10
0.0
 20
0.0
 30
0.0
  0
VERTEX
  5
184
  8
0
 10
782.91030945687191
 20
501.53223890480427
 30
0.0
 42
0.1435672647906566
  0
VERTEX
  5
185
  8
0
 10
780.45837347291945
 20
500.81338675563018
 30
0.0
 42
0.1071767114426694
  0
VERTEX
  5
186
  8
0
 10
778.05622539019168
 20
498.4183780896679
 30
0.0
 42
0.055908682048512
 70
     2
 50
237.14957155011831
  0
VERTEX
  5
187
  8
0
 10
776.91030945687191
 20
496.11503785986753
 30
0.0
 42
0.0654285487639601
 50
237.14957155011831
  0
SEQEND
  5
188
  8
0
  0
POLYLINE
  5
189
  8
0
 66
     1
 10
0.0
 20
0.0
 30
0.0
  0
VERTEX
  5
18A
  8
0
 10
790.29367132006394
 20
492.89639475556112
 30
0.0
 42
0.0378513059527604
  0
VERTEX
  5
18B
  8
0
 10
789.82309340380925
 20
495.11254385196821
 30
0.0
 42
0.0828228282431443
  0
VERTEX
  5
18C
  8
0
 10
788.22551005021035
 20
498.4183780896679
 30
0.0
 42
0.1067570954106749
 70
     2
 50
125.26188808633
  0
VERTEX
  5
18D
  8
0
 10
785.64038856443324
 20
500.79142632822379
 30
0.0
 42
0.1332664293095277
 50
125.26188808633
  0
VERTEX
  5
18E
  8
0
 10
782.91030945687191
 20
501.53223890480427
 30
0.0
 42
0.1332664293095421
  0
SEQEND
  5
18F
  8
0
  0
LINE
  5
190
  8
0
 10
776.91030945687191
 20
459.8981627450371
 30
0.0
 11
789.97941730610012
 21
488.95161066623058
 31
0.0
  0
ARC
  5
191
  8
2
 10
782.68005004489044
 20
525.17268843851718
 30
0.0
 40
20.0
 50
67.210017164389726
 51
89.340340801661554
  0
POLYLINE
  5
192
  8
0
 66
     1
 10
0.0
 20
0.0
 30
0.0
  0
VERTEX
  5
193
  8
0
 10
782.91030945687191
 20
541.91144280217065
 30
0.0
 42
0.0233537825489853
  0
VERTEX
  5
194
  8
0
 10
786.00771882991069
 20
542.05619419938739
 30
0.0
 42
0.0322617037692372
  0
VERTEX
  5
195
  8
0
 10
788.22551005021035
 20
542.40932126280393
 30
0.0
 42
0.0694439019490547
 70
     2
 50
12.7425942281312
  0
VERTEX
  5
196
  8
0
 10
790.21637868668279
 20
543.16111247774734
 30
0.0
 42
0.3276306284829465
 50
12.7425942281312
  0
VERTEX
  5
197
  8
0
 10
790.42713822261351
 20
543.61130619487801
 30
0.0
 42
0.2743549688810195
  0
SEQEND
  5
198
  8
0
  0
LINE
  5
199
  8
0
 10
812.91030945687191
 20
537.17136290967255
 30
0.0
 11
812.91030945687191
 21
493.17136290967261
 31
0.0
  0
ARC
  5
19A
  8
2
 10
777.91030945687226
 20
541.17136290966641
 30
0.0
 40
4.0
 50
90.0
 51
179.99999999999989
  0
LINE
  5
19B
  8
0
 10
751.91030945687191
 20
627.67136290966914
 30
0.0
 11
751.91030945687191
 21
402.67136290967568
 31
0.0
  0
LINE
  5
19C
  8
0
 10
812.91030945687191
 20
493.17136290967261
 30
0.0
 11
795.9103094568718
 21
493.17136290967261
 31
0.0
  0
LINE
  5
19D
  8
0
 10
812.91030945687191
 20
493.17136290967261
 30
0.0
 11
813.91030945687191
 21
494.1713629096725
 31
0.0
  0
LINE
  5
19E
  8
0
 10
812.91030945687191
 20
537.17136290967255
 30
0.0
 11
813.91030945687191
 21
536.17136290967255
 31
0.0
  0
LINE
  5
19F
  8
0
 10
812.91030945687191
 20
537.17136290967255
 30
0.0
 11
795.9103094568718
 21
537.17136290967233
 31
0.0
  0
LINE
  5
1A0
  8
0
 10
813.91030945687191
 20
494.1713629096725
 30
0.0
 11
813.91030945687191
 21
536.17136290967255
 31
0.0
  0
LINE
  5
1A1
  8
0
 10
776.91030945687191
 20
627.67136290966914
 30
0.0
 11
776.91030945687191
 21
402.67136290967568
 31
0.0
  0
ARC
  5
1A2
  8
0
 10
764.41030945687191
 20
402.67136290967579
 30
0.0
 40
12.5
 50
180.0000000000002
 51
359.99999999999972
  0
ARC
  5
1A3
  8
0
 10
764.41030945687191
 20
627.67136290966914
 30
0.0
 40
12.5
 50
0.0000000000002544
 51
179.99999999999969
  0
LINE
  5
1A4
  8
2
 10
773.91030945687191
 20
489.17136290967289
 30
0.0
 11
773.91030945687226
 21
541.17136290966641
 31
0.0
  0
ARC
  5
1A5
  8
2
 10
782.68005004489044
 20
505.1700373808273
 30
0.0
 40
20.0
 50
270.65965919833837
 51
287.50201861753737
  0
ARC
  5
1A6
  8
0
 10
782.68005004489044
 20
525.17268843851718
 30
0.0
 40
20.0
 50
48.584637147500253
 51
67.210017164389726
  0
LINE
  5
1A7
  8
0
 10
795.9103094568718
 20
540.17136290967233
 30
0.0
 11
795.9103094568718
 21
490.17136290967181
 31
0.0
  0
LINE
  5
1A8
  8
2
 10
782.91030945684463
 20
485.17136290967289
 30
0.0
 11
777.91030945687191
 21
485.17136290967289
 31
0.0
  0
LINE
  5
1A9
  8
2
 10
782.91030945687191
 20
545.17136290966641
 30
0.0
 11
777.91030945687226
 21
545.17136290966641
 31
0.0
  0
ARC
  5
1AA
  8
2
 10
777.91030945687191
 20
489.17136290967289
 30
0.0
 40
4.0
 50
180.0
 51
269.99999999999841
  0
LINE
  5
1AB
  8
0
 10
776.91030945687191
 20
588.56570931830618
 30
0.0
 11
790.42713822270446
 21
543.61130619487801
 31
0.0
  0
LINE
  5
1AC
  8
0
 10
709.91030945687191
 20
848.59582334132688
 30
0.0
 11
709.91030945687214
 21
820.59582334132733
 31
0.0
  0
LINE
  5
1AD
  8
0
 10
709.91030945687214
 20
820.59582334132733
 30
0.0
 11
737.53515349923168
 21
821.97706554344529
 31
0.0
  0
LINE
  5
1AE
  8
0
 10
737.53515349923168
 20
847.2145811392088
 30
0.0
 11
709.91030945687191
 21
848.59582334132688
 31
0.0
  0
ARC
  5
1AF
  8
0
 10
651.01042081558455
 20
824.59582334132722
 30
0.0
 40
4.0
 50
192.55585779858589
 51
270.0
  0
ARC
  5
1B0
  8
0
 10
651.01042081558455
 20
844.59582334132699
 30
0.0
 40
4.0
 50
89.999999999999574
 51
167.44414220141411
  0
ARC
  5
1B1
  8
0
 10
695.9103094568718
 20
834.59582334132722
 30
0.0
 40
49.999999999999972
 50
167.44414220141411
 51
192.55585779858569
  0
LINE
  5
1B2
  8
0
 10
739.91030945687191
 20
845.5958233413271
 30
0.0
 11
739.91030945687191
 21
823.59582334132688
 31
0.0
  0
LINE
  5
1B3
  8
0
 10
740.41030945687191
 20
846.09582334132722
 30
0.0
 11
739.91030945687191
 21
845.5958233413271
 31
0.0
  0
LINE
  5
1B4
  8
0
 10
740.41030945687191
 20
823.09582334132722
 30
0.0
 11
739.91030945687191
 21
823.5958233413271
 31
0.0
  0
LINE
  5
1B5
  8
0
 10
651.01042081558455
 20
848.59582334132688
 30
0.0
 11
709.91030945687191
 21
848.59582334132688
 31
0.0
  0
LINE
  5
1B6
  8
0
 10
651.01042081558455
 20
820.59582334132733
 30
0.0
 11
709.91030945687214
 21
820.59582334132733
 31
0.0
  0
LINE
  5
1B7
  8
0
 10
740.41030945687191
 20
823.09582334132722
 30
0.0
 11
740.41030945687191
 21
846.09582334132722
 31
0.0
  0
ARC
  5
1B8
  8
0
 10
737.4103094568718
 20
824.47394639063998
 30
0.0
 40
2.5
 50
272.86240522611212
 51
360.0
  0
ARC
  5
1B9
  8
0
 10
737.4103094568718
 20
844.71770029201446
 30
0.0
 40
2.5
 50
360.0
 51
87.137594773887955
  0
LINE
  5
1BA
  8
0
 10
742.91030945687191
 20
846.09582334132722
 30
0.0
 11
742.91030945687191
 21
844.09582334132722
 31
0.0
  0
LINE
  5
1BB
  8
0
 10
742.91030945687191
 20
846.09582334132722
 30
0.0
 11
740.41030945687191
 21
846.09582334132722
 31
0.0
  0
LINE
  5
1BC
  8
0
 10
742.91030945687203
 20
823.09582334132722
 30
0.0
 11
740.41030945687191
 21
823.09582334132722
 31
0.0
  0
LINE
  5
1BD
  8
0
 10
742.91030945687191
 20
844.09582334132722
 30
0.0
 11
751.91030945687203
 21
844.09582334132722
 31
0.0
  0
LINE
  5
1BE
  8
0
 10
742.91030945687191
 20
825.0958233413271
 30
0.0
 11
751.91030945687191
 21
825.09582334132745
 31
0.0
  0
LINE
  5
1BF
  8
0
 10
742.91030945687203
 20
825.09582334132733
 30
0.0
 11
742.91030945687203
 21
823.09582334132722
 31
0.0
  0
LINE
  5
1C0
  8
0
 10
742.91030945687203
 20
186.2469024780178
 30
0.0
 11
742.91030945687203
 21
184.24690247801749
 31
0.0
  0
LINE
  5
1C1
  8
0
 10
742.91030945687191
 20
186.2469024780176
 30
0.0
 11
751.91030945687191
 21
186.24690247801789
 31
0.0
  0
LINE
  5
1C2
  8
0
 10
742.91030945687191
 20
205.2469024780176
 30
0.0
 11
751.91030945687203
 21
205.2469024780176
 31
0.0
  0
LINE
  5
1C3
  8
0
 10
742.91030945687203
 20
184.24690247801749
 30
0.0
 11
740.41030945687191
 21
184.24690247801749
 31
0.0
  0
LINE
  5
1C4
  8
0
 10
742.91030945687191
 20
207.2469024780176
 30
0.0
 11
740.41030945687191
 21
207.2469024780176
 31
0.0
  0
LINE
  5
1C5
  8
0
 10
742.91030945687191
 20
207.2469024780176
 30
0.0
 11
742.91030945687191
 21
205.2469024780176
 31
0.0
  0
ARC
  5
1C6
  8
0
 10
737.4103094568718
 20
205.86877942870481
 30
0.0
 40
2.5
 50
360.0
 51
87.137594773887955
  0
ARC
  5
1C7
  8
0
 10
737.4103094568718
 20
185.62502552733039
 30
0.0
 40
2.5
 50
272.86240522611212
 51
360.0
  0
LINE
  5
1C8
  8
0
 10
740.41030945687191
 20
184.24690247801749
 30
0.0
 11
740.41030945687191
 21
207.2469024780176
 31
0.0
  0
LINE
  5
1C9
  8
0
 10
651.01042081558455
 20
181.74690247801769
 30
0.0
 11
709.91030945687214
 21
181.74690247801769
 31
0.0
  0
LINE
  5
1CA
  8
0
 10
651.01042081558455
 20
209.7469024780174
 30
0.0
 11
709.91030945687191
 21
209.7469024780174
 31
0.0
  0
LINE
  5
1CB
  8
0
 10
740.41030945687191
 20
184.24690247801749
 30
0.0
 11
739.91030945687191
 21
184.74690247801749
 31
0.0
  0
LINE
  5
1CC
  8
0
 10
740.41030945687191
 20
207.2469024780176
 30
0.0
 11
739.91030945687191
 21
206.74690247801769
 31
0.0
  0
LINE
  5
1CD
  8
0
 10
739.91030945687191
 20
206.74690247801769
 30
0.0
 11
739.91030945687191
 21
184.7469024780174
 31
0.0
  0
ARC
  5
1CE
  8
0
 10
695.9103094568718
 20
195.7469024780176
 30
0.0
 40
49.999999999999972
 50
167.44414220141411
 51
192.55585779858569
  0
ARC
  5
1CF
  8
0
 10
651.01042081558455
 20
205.74690247801749
 30
0.0
 40
4.0
 50
89.999999999999574
 51
167.44414220141411
  0
ARC
  5
1D0
  8
0
 10
651.01042081558455
 20
185.74690247801769
 30
0.0
 40
4.0
 50
192.55585779858589
 51
270.0
  0
LINE
  5
1D1
  8
0
 10
737.53515349923168
 20
208.36566027589939
 30
0.0
 11
709.91030945687191
 21
209.7469024780174
 31
0.0
  0
LINE
  5
1D2
  8
0
 10
709.91030945687214
 20
181.74690247801769
 30
0.0
 11
737.53515349923168
 21
183.12814468013579
 31
0.0
  0
LINE
  5
1D3
  8
0
 10
709.91030945687191
 20
209.7469024780174
 30
0.0
 11
709.91030945687214
 21
181.74690247801769
 31
0.0
  0
TEXT
  5
30A
  8
0
 62
     3
 10
0.0
 20
0.0
 30
0.0
 40
10.0
  1
RP250ER-SUS
  7
STANDARD1
  0
ENDSEC
  0
EOF
