  0
SECTION
  2
HEADER
  9
$ACADVER
  1
AC1009
  9
$INSBASE
 10
0.0
 20
0.0
 30
0.0
  9
$EXTMIN
 10
0.0
 20
-2.960436562073669
 30
0.0
  9
$EXTMAX
 10
649.94060557751754
 20
485.13489208632541
 30
0.0
  9
$LIMMIN
 10
0.0
 20
0.0
  9
$LIMMAX
 10
750.0
 20
540.0
  9
$ORTHOMODE
 70
     1
  9
$REGENMODE
 70
     1
  9
$FILLMODE
 70
     1
  9
$QTEXTMODE
 70
     0
  9
$MIRRTEXT
 70
     0
  9
$DRAGMODE
 70
     2
  9
$LTSCALE
 40
20.0
  9
$OSMODE
 70
    55
  9
$ATTMODE
 70
     1
  9
$TEXTSIZE
 40
0.2
  9
$TRACEWID
 40
0.05
  9
$TEXTSTYLE
  7
K50
  9
$CLAYER
  8
0
  9
$CELTYPE
  6
BYLAYER
  9
$CECOLOR
 62
   256
  9
$DIMSCALE
 40
2.0
  9
$DIMASZ
 40
3.0
  9
$DIMEXO
 40
2.0
  9
$DIMDLI
 40
0.3799999999999999
  9
$DIMRND
 40
0.0
  9
$DIMDLE
 40
0.0
  9
$DIMEXE
 40
2.0
  9
$DIMTP
 40
0.0
  9
$DIMTM
 40
0.0
  9
$DIMTXT
 40
3.2000000000000002
  9
$DIMCEN
 40
0.09
  9
$DIMTSZ
 40
0.0
  9
$DIMTOL
 70
     0
  9
$DIMLIM
 70
     0
  9
$DIMTIH
 70
     0
  9
$DIMTOH
 70
     0
  9
$DIMSE1
 70
     0
  9
$DIMSE2
 70
     0
  9
$DIMTAD
 70
     1
  9
$DIMZIN
 70
     0
  9
$DIMBLK
  1

  9
$DIMASO
 70
     1
  9
$DIMSHO
 70
     0
  9
$DIMPOST
  1

  9
$DIMAPOST
  1

  9
$DIMALT
 70
     0
  9
$DIMALTD
 70
     2
  9
$DIMALTF
 40
25.399999999999999
  9
$DIMLFAC
 40
1.0
  9
$DIMTOFL
 70
     0
  9
$DIMTVP
 40
1.6000000000000001
  9
$DIMTIX
 70
     1
  9
$DIMSOXD
 70
     0
  9
$DIMSAH
 70
     0
  9
$DIMBLK1
  1

  9
$DIMBLK2
  1

  9
$DIMSTYLE
  2
STANDARD
  9
$DIMCLRD
 70
     0
  9
$DIMCLRE
 70
     0
  9
$DIMCLRT
 70
     0
  9
$DIMTFAC
 40
1.0
  9
$DIMGAP
 40
0.09
  9
$LUNITS
 70
     2
  9
$LUPREC
 70
     4
  9
$SKETCHINC
 40
0.1
  9
$FILLETRAD
 40
0.0
  9
$AUNITS
 70
     0
  9
$AUPREC
 70
     0
  9
$MENU
  1
E:\r13\win\SUPPORT\ACAD
  9
$ELEVATION
 40
0.0
  9
$PELEVATION
 40
0.0
  9
$THICKNESS
 40
0.0
  9
$LIMCHECK
 70
     0
  9
$BLIPMODE
 70
     0
  9
$CHAMFERA
 40
0.0
  9
$CHAMFERB
 40
0.0
  9
$SKPOLY
 70
     0
  9
$TDCREATE
 40
2449840.598090278
  9
$TDUPDATE
 40
2456598.600458588
  9
$TDINDWG
 40
0.0028108449
  9
$TDUSRTIMER
 40
0.0028108449
  9
$USRTIMER
 70
     1
  9
$ANGBASE
 50
0.0
  9
$ANGDIR
 70
     0
  9
$PDMODE
 70
     0
  9
$PDSIZE
 40
0.0
  9
$PLINEWID
 40
0.0
  9
$COORDS
 70
     1
  9
$SPLFRAME
 70
     0
  9
$SPLINETYPE
 70
     6
  9
$SPLINESEGS
 70
     8
  9
$ATTDIA
 70
     0
  9
$ATTREQ
 70
     1
  9
$HANDLING
 70
     1
  9
$HANDSEED
  5
345
  9
$SURFTAB1
 70
     6
  9
$SURFTAB2
 70
     6
  9
$SURFTYPE
 70
     6
  9
$SURFU
 70
     6
  9
$SURFV
 70
     6
  9
$UCSNAME
  2

  9
$UCSORG
 10
0.0
 20
0.0
 30
0.0
  9
$UCSXDIR
 10
1.0
 20
0.0
 30
0.0
  9
$UCSYDIR
 10
0.0
 20
1.0
 30
0.0
  9
$PUCSNAME
  2

  9
$PUCSORG
 10
0.0
 20
0.0
 30
0.0
  9
$PUCSXDIR
 10
1.0
 20
0.0
 30
0.0
  9
$PUCSYDIR
 10
0.0
 20
1.0
 30
0.0
  9
$USERI1
 70
     0
  9
$USERI2
 70
     1
  9
$USERI3
 70
     1
  9
$USERI4
 70
     0
  9
$USERI5
 70
     0
  9
$USERR1
 40
0.0
  9
$USERR2
 40
0.0
  9
$USERR3
 40
0.0
  9
$USERR4
 40
0.0
  9
$USERR5
 40
0.0
  9
$WORLDVIEW
 70
     1
  9
$SHADEDGE
 70
     3
  9
$SHADEDIF
 70
    70
  9
$TILEMODE
 70
     1
  9
$MAXACTVP
 70
    16
  9
$PLIMCHECK
 70
     0
  9
$PEXTMIN
 10
1.0000000000000000E+020
 20
1.0000000000000000E+020
 30
1.0000000000000000E+020
  9
$PEXTMAX
 10
-1.0000000000000000E+020
 20
-1.0000000000000000E+020
 30
-1.0000000000000000E+020
  9
$PLIMMIN
 10
0.0
 20
0.0
  9
$PLIMMAX
 10
12.0
 20
9.0
  9
$UNITMODE
 70
     0
  9
$VISRETAIN
 70
     0
  9
$PLINEGEN
 70
     0
  9
$PSLTSCALE
 70
     0
  0
ENDSEC
  0
SECTION
  2
TABLES
  0
TABLE
  2
VPORT
 70
     1
  0
VPORT
  2
*ACTIVE
 70
     0
 10
0.0
 20
0.0
 11
1.0
 21
1.0
 12
374.98855678130462
 22
390.38782554515711
 13
0.0
 23
0.0
 14
20.0
 24
20.0
 15
20.0
 25
20.0
 16
0.0
 26
0.0
 36
1.0
 17
0.0
 27
0.0
 37
0.0
 40
794.35313298118172
 41
1.7807262569832401
 42
50.0
 43
0.0
 44
0.0
 50
0.0
 51
0.0
 71
     0
 72
   500
 73
     1
 74
     0
 75
     0
 76
     0
 77
     0
 78
     1
  0
ENDTAB
  0
TABLE
  2
LTYPE
 70
     4
  0
LTYPE
  2
CONTINUOUS
 70
     0
  3
Solid Line
 72
    65
 73
     0
 40
0.0
  0
LTYPE
  2
CENTER
 70
     0
  3
____ _ ____ _ ____ _ ____ _ ____ _ ____ _ ____
 72
    65
 73
     4
 40
2.0
 49
1.25
 49
-0.25
 49
0.25
 49
-0.25
  0
LTYPE
  2
HIDDEN
 70
     0
  3
_ _ _ _ _ _ _ _ _ _ _ _ _ _ _ _ _ _ _ _ _ _ _
 72
    65
 73
     2
 40
0.375
 49
0.25
 49
-0.125
  0
LTYPE
  2
PHANTOM2
 70
     0
  3
___ _ _ ___ _ _ ___ _ _ ___ _ _
 72
    65
 73
     6
 40
1.25
 49
0.625
 49
-0.125
 49
0.125
 49
-0.125
 49
0.125
 49
-0.125
  0
ENDTAB
  0
TABLE
  2
LAYER
 70
     4
  0
LAYER
  2
0
 70
     0
 62
     7
  6
CONTINUOUS
  0
LAYER
  2
1
 70
     0
 62
     1
  6
CENTER
  0
LAYER
  2
3
 70
     0
 62
     3
  6
CONTINUOUS
  0
LAYER
  2
2
 70
     0
 62
     2
  6
HIDDEN
  0
ENDTAB
  0
TABLE
  2
STYLE
 70
     4
  0
STYLE
  2
STANDARD
 70
     0
 40
0.0
 41
1.0
 50
0.0
 71
     0
 42
0.2
  3
romans.shx
  4

  0
STYLE
  2
K42
 70
     0
 40
0.0
 41
1.0
 50
0.0
 71
     0
 42
0.2
  3
romans.shx
  4

  0
STYLE
  2
K50
 70
     0
 40
0.0
 41
1.0
 50
0.0
 71
     0
 42
0.2
  3
romans.shx
  4

  0
STYLE
  2
STANDARD1
 70
     0
 40
0.0
 41
1.0
 50
0.0
 71
     0
 42
3.0
  3
txt
  4

  0
ENDTAB
  0
TABLE
  2
VIEW
 70
     1
  0
VIEW
  2
ALL
 70
     0
 40
540.0
 10
441.98319327731087
 20
270.0
 41
0.0
 11
0.0
 21
0.0
 31
1.0
 12
0.0
 22
0.0
 32
0.0
 42
0.0
 43
0.0
 44
0.0
 50
0.0
 71
     0
  0
ENDTAB
  0
TABLE
  2
UCS
 70
     0
  0
ENDTAB
  0
TABLE
  2
APPID
 70
     3
  0
APPID
  2
ACAD
 70
     0
  0
APPID
  2
ACAD_MLEADERVER
 70
     0
  0
APPID
  2
ACAD_NAV_VCDISPLAY
 70
     0
  0
ENDTAB
  0
TABLE
  2
DIMSTYLE
 70
     1
  0
DIMSTYLE
  2
STANDARD
 70
     0
  3

  4

  5

  6

  7

 40
1.0
 41
0.18
 42
0.0625
 43
0.38
 44
0.18
 45
0.0
 46
0.0
 47
0.0
 48
0.0
140
0.18
141
0.09
142
0.0
143
25.399999999999999
144
1.0
145
0.0
146
1.0
147
0.09
 71
     0
 72
     0
 73
     1
 74
     1
 75
     0
 76
     0
 77
     0
 78
     0
170
     0
171
     2
172
     0
173
     0
174
     0
175
     0
176
     0
177
     0
178
     0
  0
ENDTAB
  0
ENDSEC
  0
SECTION
  2
BLOCKS
  0
BLOCK
  8
0
  2
$MODEL_SPACE
 70
     0
 10
0.0
 20
0.0
 30
0.0
  3
$MODEL_SPACE
  1

  0
ENDBLK
  5
1AE
  8
0
  0
BLOCK
 67
     1
  8
0
  2
$PAPER_SPACE
 70
     0
 10
0.0
 20
0.0
 30
0.0
  3
$PAPER_SPACE
  1

  0
ENDBLK
  5
1AC
 67
     1
  8
0
  0
ENDSEC
  0
SECTION
  2
ENTITIES
  0
CIRCLE
  5
37
  8
0
 10
160.0
 20
303.10251798561148
 30
0.0
 40
9.0
  0
LINE
  5
38
  8
1
 10
141.0000000000002
 20
303.10251798561148
 30
0.0
 11
178.9999999999998
 21
303.10251798561148
 31
0.0
  0
ARC
  5
39
  8
0
 10
144.68843974145599
 20
298.4596608427546
 30
0.0
 40
8.0
 50
37.8665168724268
 51
116.765500576756
  0
LINE
  5
3A
  8
0
 10
151.88927618383261
 20
283.60948929460199
 30
0.0
 11
152.4597694783287
 21
293.87836859553357
 31
0.0
  0
ARC
  5
3B
  8
0
 10
149.46438841871259
 20
294.04477865440123
 30
0.0
 40
3.0
 50
356.82016988013578
 51
112.10294228054251
  0
ARC
  5
3C
  8
0
 10
159.99999999999989
 20
268.10251798561148
 30
0.0
 40
30.999999999985391
 50
112.10294228054239
 51
187.89705771945759
  0
ARC
  5
3D
  8
0
 10
159.99999999999989
 20
268.10251798561148
 30
0.0
 40
17.499999999999972
 50
117.6112435662657
 51
182.38875643373399
  0
LINE
  5
3E
  8
0
 10
142.5152070025741
 20
267.3731251989966
 30
0.0
 11
133.9073433068192
 21
261.7446238628084
 31
0.0
  0
ARC
  5
3F
  8
0
 10
132.26553743858651
 20
264.25549492501699
 30
0.0
 40
3.0
 50
187.89705771945771
 51
303.17983011986422
  0
LINE
  5
40
  8
0
 10
177.48479299742581
 20
267.37312519899672
 30
0.0
 11
186.09265669318069
 21
261.74462386280862
 31
0.0
  0
ARC
  5
41
  8
0
 10
187.7344625614133
 20
264.25549492501722
 30
0.0
 40
3.0
 50
236.82016988013589
 51
352.10294228054261
  0
ARC
  5
42
  8
0
 10
159.99999999999989
 20
268.1025179856116
 30
0.0
 40
30.999999999985391
 50
352.10294228054238
 51
67.897057719457592
  0
ARC
  5
43
  8
0
 10
159.99999999999989
 20
268.1025179856116
 30
0.0
 40
17.499999999999972
 50
357.61124356626573
 51
62.388756433733967
  0
LINE
  5
44
  8
0
 10
168.11072381616719
 20
283.6094892946021
 30
0.0
 11
167.54023052167099
 21
293.87836859553369
 31
0.0
  0
ARC
  5
45
  8
0
 10
170.5356115812873
 20
294.04477865440128
 30
0.0
 40
3.0
 50
67.897057719457692
 51
183.17983011986419
  0
ARC
  5
46
  8
0
 10
142.80114901987389
 20
246.00728037741629
 30
0.0
 40
3.0
 50
116.82016988013579
 51
232.10294228054261
  0
ARC
  5
47
  8
0
 10
177.198850980126
 20
246.00728037741629
 30
0.0
 40
3.0
 50
307.89705771945768
 51
63.179830119864171
  0
LINE
  5
48
  8
0
 10
169.37406918125851
 20
253.32493946323601
 30
0.0
 11
178.55242617150961
 21
248.68456149849251
 31
0.0
  0
LINE
  5
49
  8
0
 10
150.62593081874141
 20
253.32493946323589
 30
0.0
 11
141.44757382849031
 21
248.68456149849251
 31
0.0
  0
CIRCLE
  5
4A
  8
0
 10
160.0
 20
268.10251798561148
 30
0.0
 40
11.0000000000004
  0
ARC
  5
4B
  8
0
 10
160.0
 20
268.10251798561148
 30
0.0
 40
17.499999999999972
 50
237.6112435662657
 51
302.38875643373387
  0
ARC
  5
4C
  8
0
 10
160.0
 20
268.10251798561148
 30
0.0
 40
42.000000000000171
 50
98.461233116323939
 51
81.538766883675919
  0
ARC
  5
4D
  8
0
 10
160.0
 20
268.10251798561148
 30
0.0
 40
30.999999999985391
 50
232.10294228054241
 51
307.89705771945762
  0
CIRCLE
  5
4E
  8
0
 10
160.0
 20
268.10251798561148
 30
0.0
 40
50.0
  0
ARC
  5
4F
  8
0
 10
175.31156025854401
 20
298.4596608427546
 30
0.0
 40
8.0
 50
63.234499423243932
 51
142.13348312757319
  0
LINE
  5
50
  8
1
 10
385.79687472205512
 20
328.1025179856054
 30
0.0
 11
385.79687472205512
 21
208.10251798561711
 31
0.0
  0
LINE
  5
51
  8
1
 10
303.29687472205552
 20
303.10251798561109
 30
0.0
 11
398.29687472205529
 21
303.10251798561109
 31
0.0
  0
LINE
  5
52
  8
1
 10
368.29687472204859
 20
268.10251798561131
 30
0.0
 11
431.29687472206689
 21
268.10251798561131
 31
0.0
  0
LINE
  5
53
  8
1
 10
220.0
 20
268.10251798561148
 30
0.0
 11
100.0
 21
268.10251798561148
 31
0.0
  0
LINE
  5
54
  8
1
 10
160.0
 20
328.10251798561148
 30
0.0
 11
159.99999999999989
 21
208.10251798561151
 31
0.0
  0
LINE
  5
55
  8
1
 10
589.94060557751754
 20
328.10251798561131
 30
0.0
 11
589.94060557751754
 21
208.10251798561131
 31
0.0
  0
LINE
  5
56
  8
1
 10
649.94060557751754
 20
268.10251798561131
 30
0.0
 11
529.94060557751754
 21
268.10251798561131
 31
0.0
  0
CIRCLE
  5
57
  8
0
 10
589.94060557751754
 20
268.10251798561131
 30
0.0
 40
12.5
  0
CIRCLE
  5
58
  8
0
 10
589.94060557751754
 20
268.10251798561131
 30
0.0
 40
13.5
  0
CIRCLE
  5
59
  8
0
 10
589.94060557751754
 20
268.10251798561131
 30
0.0
 40
15.5
  0
CIRCLE
  5
5A
  8
0
 10
589.94060557751754
 20
268.10251798561131
 30
0.0
 40
42.0
  0
CIRCLE
  5
5B
  8
0
 10
589.94060557751754
 20
268.10251798561131
 30
0.0
 40
50.0
  0
ARC
  5
5C
  8
0
 10
572.74175459739138
 20
246.00728037741979
 30
0.0
 40
3.0
 50
116.82016988013579
 51
232.10294228054261
  0
ARC
  5
5D
  8
0
 10
607.1394565576436
 20
246.00728037741979
 30
0.0
 40
3.0
 50
307.89705771945768
 51
63.179830119864171
  0
LINE
  5
5E
  8
0
 10
599.31467475877605
 20
253.3249394632395
 30
0.0
 11
608.49303174902718
 21
248.68456149849601
 31
0.0
  0
LINE
  5
5F
  8
0
 10
580.56653639625893
 20
253.32493946323939
 30
0.0
 11
571.38817940600779
 21
248.68456149849601
 31
0.0
  0
ARC
  5
60
  8
0
 10
589.94060557751754
 20
268.10251798561512
 30
0.0
 40
17.499999999999972
 50
237.6112435662657
 51
302.38875643373387
  0
ARC
  5
61
  8
0
 10
589.94060557751754
 20
268.10251798561512
 30
0.0
 40
30.999999999985391
 50
232.10294228054241
 51
307.89705771945762
  0
LINE
  5
62
  8
0
 10
581.82988176135007
 20
283.609489294605
 30
0.0
 11
582.40037505584633
 21
293.8783685955367
 31
0.0
  0
ARC
  5
63
  8
0
 10
579.40499399623013
 20
294.0447786544043
 30
0.0
 40
3.0
 50
356.82016988013578
 51
112.10294228054251
  0
ARC
  5
64
  8
0
 10
589.94060557751743
 20
268.1025179856145
 30
0.0
 40
30.999999999985391
 50
112.10294228054239
 51
187.89705771945759
  0
ARC
  5
65
  8
0
 10
589.94060557751743
 20
268.1025179856145
 30
0.0
 40
17.499999999999972
 50
117.6112435662657
 51
182.38875643373399
  0
LINE
  5
66
  8
0
 10
572.45581258009167
 20
267.37312519899967
 30
0.0
 11
563.84794888433657
 21
261.74462386281141
 31
0.0
  0
ARC
  5
67
  8
0
 10
562.20614301610385
 20
264.25549492502012
 30
0.0
 40
3.0
 50
187.89705771945771
 51
303.17983011986422
  0
TEXT
  5
68
  8
0
 10
611.99253274423086
 20
252.9826278186363
 30
0.0
 40
4.0999999999999988
  1
0
 50
329.99999999999977
 41
0.4200000000000001
  7
K42
 72
     1
 11
612.70267357533407
 21
252.57262781863631
 31
0.0
  0
TEXT
  5
69
  8
0
 10
610.62827964696532
 20
253.7702797115854
 30
0.0
 40
4.0999999999999988
  1
1
 50
329.99999999999977
 41
0.4200000000000001
  7
K42
 72
     1
 11
611.23189935340304
 21
253.4217797115854
 31
0.0
  0
TEXT
  5
6A
  8
0
 10
607.53251373793682
 20
255.16822108073751
 30
0.0
 40
4.5
  1
P
 50
329.99999999999977
 41
0.4200000000000001
  7
K42
 72
     1
 11
608.38987888768327
 21
254.67322108073751
 31
0.0
  0
LINE
  5
6B
  8
0
 10
610.64816607846967
 20
256.14700235612929
 30
0.0
 11
611.48624134846216
 21
255.663139373398
 31
0.0
  0
TEXT
  5
6C
  8
0
 10
606.02126976178749
 20
256.04073819717848
 30
0.0
 40
4.5
  1
R
 50
329.99999999999977
 41
0.4200000000000001
  7
K42
 72
     1
 11
606.87863491153405
 21
255.54573819717851
 31
0.0
  0
TEXT
  5
6D
  8
0
 10
613.42147466047618
 20
252.15762781863569
 30
0.0
 40
4.0999999999999988
  1
0
 50
329.99999999999977
 41
0.4200000000000001
  7
K42
 72
     1
 11
614.13161549157951
 21
251.74762781863569
 31
0.0
  0
ARC
  5
6E
  8
0
 10
589.94060557751743
 20
268.10251798561131
 30
0.0
 40
30.999999999985391
 50
352.10294228054238
 51
67.897057719457592
  0
ARC
  5
6F
  8
0
 10
589.94060557751743
 20
268.10251798561131
 30
0.0
 40
17.499999999999972
 50
357.61124356626573
 51
62.388756433733967
  0
LINE
  5
70
  8
0
 10
598.0513293936848
 20
283.60948929460181
 30
0.0
 11
597.48083609918865
 21
293.87836859553352
 31
0.0
  0
ARC
  5
71
  8
0
 10
600.47621715880484
 20
294.04477865440111
 30
0.0
 40
3.0
 50
67.897057719457692
 51
183.17983011986419
  0
LINE
  5
72
  8
0
 10
607.42539857494342
 20
267.37312519899638
 30
0.0
 11
616.03326227069829
 21
261.74462386280823
 31
0.0
  0
ARC
  5
73
  8
0
 10
617.67506813893078
 20
264.25549492501682
 30
0.0
 40
3.0
 50
236.82016988013589
 51
352.10294228054261
  0
ARC
  5
74
  8
0
 10
605.25216583606152
 20
298.45966084275432
 30
0.0
 40
8.0
 50
63.234499423243939
 51
163.1313528660603
  0
ARC
  5
75
  8
0
 10
574.62904531897357
 20
298.45966084275432
 30
0.0
 40
8.0
 50
16.868647133939461
 51
116.765500576756
  0
ARC
  5
76
  8
0
 10
589.94060557751754
 20
303.10251798561131
 30
0.0
 40
8.0
 50
196.86864713393959
 51
227.64933208647409
  0
CIRCLE
  5
77
  8
0
 10
589.94060557751754
 20
303.10251798561131
 30
0.0
 40
3.3235000000000001
  0
CIRCLE
  5
78
  8
3
 10
589.94060557751754
 20
303.10251798561131
 30
0.0
 40
4.0
  0
LINE
  5
79
  8
1
 10
574.94060557751561
 20
303.10251798561131
 30
0.0
 11
604.94060557751936
 21
303.10251798561131
 31
0.0
  0
CIRCLE
  5
7A
  8
0
 10
589.94060557751754
 20
303.10251798561131
 30
0.0
 40
5.0
  0
ARC
  5
7B
  8
0
 10
589.94060557751754
 20
303.10251798561131
 30
0.0
 40
8.0
 50
312.35066791352591
 51
343.13135286606052
  0
POLYLINE
  5
7C
  8
0
 66
     1
 10
0.0
 20
0.0
 30
0.0
  0
VERTEX
  5
7D
  8
0
 10
597.48083609918865
 20
293.87836859553352
 30
0.0
 42
0.146804391748326
  0
VERTEX
  5
7E
  8
0
 10
596.97598234752832
 20
295.56078890764888
 30
0.0
 42
0.1071486734694009
  0
VERTEX
  5
7F
  8
0
 10
595.27235371110078
 20
297.22688569704542
 30
0.0
 42
0.0767196403167562
 70
     2
 50
147.86979744382501
  0
VERTEX
  5
80
  8
0
 10
592.95288728675962
 20
298.2284927957752
 30
0.0
 42
0.0243404063110827
 50
147.86979744382501
  0
VERTEX
  5
81
  8
0
 10
591.81323364563968
 20
298.46643514354719
 30
0.0
 42
0.0637108005624422
  0
SEQEND
  5
82
  8
0
  0
POLYLINE
  5
83
  8
0
 66
     1
 10
0.0
 20
0.0
 30
0.0
  0
VERTEX
  5
84
  8
0
 10
588.06797750939529
 20
298.46643514354719
 30
0.0
 42
0.0243404063110839
  0
VERTEX
  5
85
  8
0
 10
586.92832386827547
 20
298.2284927957752
 30
0.0
 42
0.0767196403167555
  0
VERTEX
  5
86
  8
0
 10
584.6088574439342
 20
297.22688569704542
 30
0.0
 42
0.1071486734694182
 70
     2
 50
212.13020255617499
  0
VERTEX
  5
87
  8
0
 10
582.90522880750666
 20
295.56078890764871
 30
0.0
 42
0.1468043917483355
 50
212.13020255617499
  0
VERTEX
  5
88
  8
0
 10
582.40037505584644
 20
293.87836859553352
 30
0.0
 42
0.1468043917483561
  0
SEQEND
  5
89
  8
0
  0
ARC
  5
8A
  8
3
 10
589.94060557751754
 20
303.10251798561131
 30
0.0
 40
8.0
 50
227.649332086474
 51
312.35066791352591
  0
LINE
  5
8B
  8
0
 10
353.29687472205518
 20
312.10251798561143
 30
0.0
 11
353.29687472205518
 21
294.10251798561097
 31
0.0
  0
LINE
  5
8C
  8
0
 10
378.29687472205518
 20
310.1025179856112
 30
0.0
 11
371.79687472205518
 21
310.1025179856112
 31
0.0
  0
LINE
  5
8D
  8
0
 10
378.29687472205518
 20
296.1025179856112
 30
0.0
 11
371.79687472205518
 21
296.10251798561109
 31
0.0
  0
LINE
  5
8E
  8
0
 10
371.79687472205518
 20
310.1025179856112
 30
0.0
 11
371.29687472205529
 21
309.6025179856112
 31
0.0
  0
LINE
  5
8F
  8
0
 10
371.79687472205518
 20
296.10251798561109
 30
0.0
 11
371.29687472205529
 21
296.6025179856112
 31
0.0
  0
LINE
  5
90
  8
0
 10
378.29687472205518
 20
298.20353850004477
 30
0.0
 11
373.29687472205529
 21
298.20353850004477
 31
0.0
  0
LINE
  5
91
  8
0
 10
378.29687472205518
 20
308.00149747117752
 30
0.0
 11
373.29687472205529
 21
308.00149747117752
 31
0.0
  0
LINE
  5
92
  8
0
 10
371.79687472205518
 20
310.1025179856112
 30
0.0
 11
371.79687472205518
 21
296.1025179856112
 31
0.0
  0
LINE
  5
93
  8
0
 10
371.29687472205529
 20
296.61609633026188
 30
0.0
 11
371.29687472205529
 21
309.58893964096052
 31
0.0
  0
LINE
  5
94
  8
0
 10
316.971981559879
 20
312.10251798561143
 30
0.0
 11
353.29687472205518
 21
312.10251798561143
 31
0.0
  0
LINE
  5
95
  8
0
 10
316.971981559879
 20
294.10251798561097
 30
0.0
 11
353.29687472205518
 21
294.10251798561097
 31
0.0
  0
LINE
  5
96
  8
0
 10
369.78562675345131
 20
311.1864762060892
 30
0.0
 11
353.29687472205518
 21
312.10251798561143
 31
0.0
  0
LINE
  5
97
  8
0
 10
353.29687472205518
 20
294.10251798561097
 30
0.0
 11
369.78562675345131
 21
295.0185597651332
 31
0.0
  0
ARC
  5
98
  8
0
 10
343.29687472205518
 20
303.1025179856112
 30
0.0
 40
30.0
 50
167.1604115930954
 51
192.83958840690451
  0
ARC
  5
99
  8
0
 10
316.971981559879
 20
309.10251798561143
 30
0.0
 40
3.0
 50
89.999999999999986
 51
167.1604115930956
  0
ARC
  5
9A
  8
0
 10
316.971981559879
 20
297.10251798561109
 30
0.0
 40
3.0
 50
192.83958840690471
 51
269.99999999999937
  0
ARC
  5
9B
  8
0
 10
369.69687472205521
 20
309.58893964096052
 30
0.0
 40
1.6000000000000001
 50
360.0
 51
86.820169880135012
  0
ARC
  5
9C
  8
0
 10
369.69687472205521
 20
296.61609633026188
 30
0.0
 40
1.6000000000000001
 50
273.1798301198649
 51
360.0
  0
LINE
  5
9D
  8
0
 10
373.29687472205529
 20
308.00149747117752
 30
0.0
 11
373.29687472205529
 21
298.20353850004477
 31
0.0
  0
LINE
  5
9E
  8
3
 10
378.29687472205518
 20
306.36850430932202
 30
0.0
 11
373.29687472205529
 21
298.20353850004477
 31
0.0
  0
LINE
  5
9F
  8
3
 10
378.29687472205518
 20
299.83653166190038
 30
0.0
 11
373.29687472205529
 21
308.00149747117752
 31
0.0
  0
LINE
  5
A0
  8
0
 10
393.29687472205472
 20
103.35157132633179
 30
0.0
 11
394.29687472205489
 21
103.29554971810219
 31
0.0
  0
LINE
  5
A1
  8
0
 10
393.29687472205472
 20
118.7887164434518
 30
0.0
 11
394.29687472205489
 21
118.8447380516814
 31
0.0
  0
POLYLINE
  5
A2
  8
0
 66
     1
 10
0.0
 20
0.0
 30
0.0
  0
VERTEX
  5
A3
  8
0
 10
407.88215009881429
 20
127.0855561066483
 30
0.0
 42
-0.0111310246702731
 70
     2
 50
344.15908291186861
  0
VERTEX
  5
A4
  8
0
 10
408.14253700128489
 20
126.91557683527451
 30
0.0
 42
-0.2474204761399005
  0
VERTEX
  5
A5
  8
0
 10
408.5062360348237
 20
126.22558845111929
 30
0.0
 42
-0.2474204761399146
  0
SEQEND
  5
A6
  8
0
  0
POLYLINE
  5
A7
  8
0
 66
     1
 10
0.0
 20
0.0
 30
0.0
  0
VERTEX
  5
A8
  8
0
 10
400.29687472205512
 20
120.4442130661494
 30
0.0
 42
-0.1124532351510404
  0
VERTEX
  5
A9
  8
0
 10
398.4276444598807
 20
120.8699994259819
 30
0.0
 42
-0.0891957107405239
  0
VERTEX
  5
AA
  8
0
 10
396.96387767624839
 20
121.92798121068449
 30
0.0
 42
-0.0923823738138937
 70
     2
 50
130.76252904550179
  0
SEQEND
  5
AB
  8
0
  0
LINE
  5
AC
  8
0
 10
393.29687472205512
 20
136.15026310540571
 30
0.0
 11
407.88215009881429
 21
127.0855561066488
 31
0.0
  0
LINE
  5
AD
  8
0
 10
393.29687472205512
 20
125.7322782125042
 30
0.0
 11
396.96387767624839
 21
121.9279812106856
 31
0.0
  0
POLYLINE
  5
AE
  8
0
 66
     1
 10
0.0
 20
0.0
 30
0.0
  0
VERTEX
  5
AF
  8
0
 10
408.5062360348237
 20
126.22558845111929
 30
0.0
 42
-0.1337071489221098
  0
VERTEX
  5
B0
  8
0
 10
407.93490920676311
 20
124.1272979740321
 30
0.0
 42
-0.1067917083770661
  0
VERTEX
  5
B1
  8
0
 10
406.1017697755243
 20
122.1375387118221
 30
0.0
 42
-0.082621311703584
 70
     2
 50
215.1548075852109
  0
VERTEX
  5
B2
  8
0
 10
403.55006139934369
 20
120.90901495812859
 30
0.0
 42
-0.0710770367928076
  0
VERTEX
  5
B3
  8
0
 10
400.29687472205512
 20
120.4442130661494
 30
0.0
 42
-0.0710770367928033
  0
SEQEND
  5
B4
  8
0
  0
LINE
  5
B5
  8
0
 10
420.29687472205512
 20
124.57014388489191
 30
0.0
 11
421.29687472205512
 21
123.57014388489191
 31
0.0
  0
LINE
  5
B6
  8
0
 10
420.29687472205512
 20
124.57014388489191
 30
0.0
 11
411.29687472205512
 21
124.57014388489191
 31
0.0
  0
LINE
  5
B7
  8
2
 10
407.29687472205512
 20
126.57014388489191
 30
0.0
 11
408.4319642453716
 21
126.57014388489191
 31
0.0
  0
LINE
  5
B8
  8
2
 10
400.29687472205512
 20
128.57014388489171
 30
0.0
 11
397.29687472205489
 21
128.57014388489159
 31
0.0
  0
ARC
  5
B9
  8
2
 10
400.08305555168812
 20
114.5717767886056
 30
0.0
 40
14.0
 50
58.984309081245023
 51
89.124899116912985
  0
ARC
  5
BA
  8
2
 10
397.29687472205489
 20
125.57014388489161
 30
0.0
 40
3.0
 50
90.000000000001137
 51
180.0
  0
LINE
  5
BB
  8
2
 10
394.29687472205489
 20
124.6948378151716
 30
0.0
 11
394.29687472205489
 21
125.57014388489161
 31
0.0
  0
LINE
  5
BC
  8
0
 10
408.4319642453716
 20
126.57014388489191
 30
0.0
 11
411.29687472205512
 21
126.57014388489191
 31
0.0
  0
LINE
  5
BD
  8
0
 10
408.4319642453716
 20
95.570143884891706
 30
0.0
 11
411.29687472205512
 21
95.570143884891706
 31
0.0
  0
LINE
  5
BE
  8
2
 10
394.29687472205489
 20
97.445449954612002
 30
0.0
 11
394.29687472205489
 21
96.570143884892047
 31
0.0
  0
LINE
  5
BF
  8
0
 10
393.29687472205512
 20
153.57014388489961
 30
0.0
 11
393.29687472205512
 21
68.570143884883976
 31
0.0
  0
ARC
  5
C0
  8
2
 10
397.29687472205489
 20
96.570143884892047
 30
0.0
 40
3.0
 50
180.0
 51
269.99999999999892
  0
ARC
  5
C1
  8
2
 10
400.08305555168812
 20
107.56851098117799
 30
0.0
 40
14.0
 50
270.8751008830871
 51
301.0156909187549
  0
LINE
  5
C2
  8
2
 10
400.29687472205512
 20
93.570143884891934
 30
0.0
 11
397.29687472205489
 21
93.570143884892033
 31
0.0
  0
LINE
  5
C3
  8
2
 10
407.29687472205512
 20
95.570143884891706
 30
0.0
 11
408.4319642453716
 21
95.570143884891706
 31
0.0
  0
ARC
  5
C4
  8
0
 10
385.79687472205512
 20
68.570143884883976
 30
0.0
 40
7.5000000000000284
 50
180.0
 51
0.0
  0
LINE
  5
C5
  8
1
 10
385.79687472205512
 20
171.07014388488591
 30
0.0
 11
385.79687472205512
 21
51.070143884897618
 31
0.0
  0
LINE
  5
C6
  8
0
 10
394.29687472205512
 20
125.57014388489171
 30
0.0
 11
394.29687472205489
 21
97.445449954612002
 31
0.0
  0
LINE
  5
C7
  8
0
 10
411.29687472205512
 20
126.57014388489191
 30
0.0
 11
411.29687472205512
 21
95.570143884891706
 31
0.0
  0
LINE
  5
C8
  8
0
 10
420.29687472205512
 20
97.570143884891706
 30
0.0
 11
411.29687472205512
 21
97.570143884891706
 31
0.0
  0
LINE
  5
C9
  8
0
 10
421.29687472205512
 20
123.57014388489171
 30
0.0
 11
421.29687472205512
 21
98.570143884891706
 31
0.0
  0
LINE
  5
CA
  8
0
 10
420.29687472205512
 20
97.570143884891706
 30
0.0
 11
421.29687472205512
 21
98.570143884891706
 31
0.0
  0
LINE
  5
CB
  8
0
 10
378.29687472205512
 20
153.57014388489941
 30
0.0
 11
378.29687472205512
 21
68.570143884883862
 31
0.0
  0
LINE
  5
CC
  8
1
 10
303.29687472205552
 20
111.070143884892
 30
0.0
 11
431.29687472206689
 21
111.07014388489181
 31
0.0
  0
LINE
  5
CD
  8
0
 10
420.29687472205512
 20
97.570143884891706
 30
0.0
 11
420.29687472205512
 21
124.57014388489191
 31
0.0
  0
ARC
  5
CE
  8
0
 10
385.79687472205512
 20
153.57014388489961
 30
0.0
 40
7.5000000000000284
 50
0.0
 51
180.0
  0
POLYLINE
  5
CF
  8
0
 66
     1
 10
0.0
 20
0.0
 30
0.0
  0
VERTEX
  5
D0
  8
0
 10
408.5062360348237
 20
95.914699318664304
 30
0.0
 42
0.1337071489221098
  0
VERTEX
  5
D1
  8
0
 10
407.93490920676311
 20
98.012989795751537
 30
0.0
 42
0.1067917083770661
  0
VERTEX
  5
D2
  8
0
 10
406.1017697755243
 20
100.00274905796149
 30
0.0
 42
0.082621311703584
 70
     2
 50
144.8451924147891
  0
VERTEX
  5
D3
  8
0
 10
403.55006139934369
 20
101.231272811655
 30
0.0
 42
0.0710770367928076
 50
144.8451924147891
  0
VERTEX
  5
D4
  8
0
 10
400.29687472205512
 20
101.6960747036341
 30
0.0
 42
0.0710770367928033
  0
SEQEND
  5
D5
  8
0
  0
LINE
  5
D6
  8
0
 10
393.29687472205512
 20
96.408009557279385
 30
0.0
 11
396.96387767624839
 21
100.212306559098
 31
0.0
  0
LINE
  5
D7
  8
0
 10
393.29687472205512
 20
85.990024664377927
 30
0.0
 11
407.88215009881429
 21
95.054731663134874
 31
0.0
  0
POLYLINE
  5
D8
  8
0
 66
     1
 10
0.0
 20
0.0
 30
0.0
  0
VERTEX
  5
D9
  8
0
 10
400.29687472205512
 20
101.6960747036342
 30
0.0
 42
0.1124532351510404
  0
VERTEX
  5
DA
  8
0
 10
398.4276444598807
 20
101.2702883438017
 30
0.0
 42
0.0891957107405239
  0
VERTEX
  5
DB
  8
0
 10
396.96387767624839
 20
100.2123065590991
 30
0.0
 42
0.0923823738138937
 70
     2
 50
229.23747095449821
  0
SEQEND
  5
DC
  8
0
  0
POLYLINE
  5
DD
  8
0
 66
     1
 10
0.0
 20
0.0
 30
0.0
  0
VERTEX
  5
DE
  8
0
 10
407.88215009881429
 20
95.054731663135286
 30
0.0
 42
0.0111310246702731
 70
     2
 50
15.840917088131439
  0
VERTEX
  5
DF
  8
0
 10
408.14253700128489
 20
95.224710934509076
 30
0.0
 42
0.2474204761399005
 50
15.840917088131439
  0
VERTEX
  5
E0
  8
0
 10
408.5062360348237
 20
95.914699318664319
 30
0.0
 42
0.2474204761399146
  0
SEQEND
  5
E1
  8
0
  0
LINE
  5
EA
  8
2
 10
394.29687472205489
 20
417.36029791954172
 30
0.0
 11
394.29687472205489
 21
432.9094862531208
 31
0.0
  0
LINE
  5
EB
  8
0
 10
394.29687472205489
 20
432.9094862531208
 30
0.0
 11
394.29687472205489
 21
439.63489208633098
 31
0.0
  0
ARC
  5
EC
  8
0
 10
397.29687472205489
 20
410.63489208633149
 30
0.0
 40
3.0
 50
180.0
 51
269.99999999999892
  0
ARC
  5
ED
  8
0
 10
400.08305555168812
 20
421.63325918261739
 30
0.0
 40
14.0
 50
270.8751008830871
 51
301.0156909187549
  0
LINE
  5
EE
  8
0
 10
400.29687472205512
 20
407.63489208633132
 30
0.0
 11
397.29687472205489
 21
407.63489208633138
 31
0.0
  0
LINE
  5
EF
  8
0
 10
407.29687472205512
 20
409.63489208633109
 30
0.0
 11
411.29687472205512
 21
409.63489208633109
 31
0.0
  0
LINE
  5
F0
  8
0
 10
420.29687472205512
 20
411.63489208633109
 30
0.0
 11
411.29687472205512
 21
411.63489208633109
 31
0.0
  0
LINE
  5
F1
  8
0
 10
420.29687472205512
 20
411.63489208633109
 30
0.0
 11
421.29687472205512
 21
412.63489208633109
 31
0.0
  0
LINE
  5
F2
  8
0
 10
393.29687472205512
 20
410.47275775871879
 30
0.0
 11
394.29687472205472
 21
411.51019815605127
 31
0.0
  0
LINE
  5
F3
  8
0
 10
393.29687472205512
 20
400.05477286581731
 30
0.0
 11
407.88215009881429
 21
409.11947986457432
 31
0.0
  0
POLYLINE
  5
F4
  8
0
 66
     1
 10
0.0
 20
0.0
 30
0.0
  0
VERTEX
  5
F5
  8
0
 10
407.88215009881429
 20
409.11947986457471
 30
0.0
 42
0.0111310246702731
 70
     2
 50
15.84091708813142
  0
VERTEX
  5
F6
  8
0
 10
408.14253700128489
 20
409.2894591359485
 30
0.0
 42
0.1372466778609097
  0
VERTEX
  5
F7
  8
0
 10
408.4319642453716
 20
409.63489208633109
 30
0.0
 42
0.2474204761399146
  0
SEQEND
  5
F8
  8
0
  0
LINE
  5
F9
  8
0
 10
393.29687472205512
 20
417.41631952777118
 30
0.0
 11
400.29687472205512
 21
417.02416827016413
 31
0.0
  0
POLYLINE
  5
FA
  8
0
 66
     1
 10
0.0
 20
0.0
 30
0.0
  0
VERTEX
  5
FB
  8
0
 10
400.29687472205478
 20
417.02416827016413
 30
0.0
 42
0.0974173220106001
  0
VERTEX
  5
FC
  8
0
 10
403.44314515238329
 20
417.64304396309518
 30
0.0
 42
0.0980399947079394
  0
VERTEX
  5
FD
  8
0
 10
406.10176977552402
 20
419.39974427558809
 30
0.0
 42
0.0650994859355327
 70
     2
 50
44.653712379625873
  0
VERTEX
  5
FE
  8
0
 10
407.5062360348237
 20
421.20405893292769
 30
0.0
 42
0.1179725170503341
  0
SEQEND
  5
FF
  8
0
  0
POLYLINE
  5
100
  8
0
 66
     1
 10
0.0
 20
0.0
 30
0.0
  0
VERTEX
  5
101
  8
0
 10
400.29687472205478
 20
433.24561590249829
 30
0.0
 42
-0.0974173220106001
  0
VERTEX
  5
102
  8
0
 10
403.44314515238329
 20
432.62674020956717
 30
0.0
 42
-0.0980399947079394
  0
VERTEX
  5
103
  8
0
 10
406.10176977552402
 20
430.87003989707438
 30
0.0
 42
-0.0650994859355327
 70
     2
 50
315.34628762037408
  0
VERTEX
  5
104
  8
0
 10
407.5062360348237
 20
429.06572523973472
 30
0.0
 42
-0.1179725170503341
  0
SEQEND
  5
105
  8
0
  0
LINE
  5
106
  8
0
 10
393.29687472205512
 20
432.85346464489129
 30
0.0
 11
400.29687472205512
 21
433.24561590249829
 31
0.0
  0
POLYLINE
  5
107
  8
0
 66
     1
 10
0.0
 20
0.0
 30
0.0
  0
VERTEX
  5
108
  8
0
 10
407.88215009881429
 20
441.15030430808781
 30
0.0
 42
-0.0111310246702731
 70
     2
 50
344.15908291186861
  0
VERTEX
  5
109
  8
0
 10
408.14253700128489
 20
440.98032503671402
 30
0.0
 42
-0.1372466778609097
  0
VERTEX
  5
10A
  8
0
 10
408.4319642453716
 20
440.63489208633132
 30
0.0
 42
-0.2474204761399146
  0
SEQEND
  5
10B
  8
0
  0
LINE
  5
10C
  8
0
 10
393.29687472205512
 20
450.2150113068451
 30
0.0
 11
407.88215009881429
 21
441.15030430808821
 31
0.0
  0
LINE
  5
10D
  8
0
 10
393.29687472205512
 20
439.79702641394368
 30
0.0
 11
394.29687472205472
 21
438.75958601661108
 31
0.0
  0
ARC
  5
10E
  8
0
 10
385.79687472205512
 20
382.63489208632342
 30
0.0
 40
7.5000000000000284
 50
180.0
 51
0.0
  0
LINE
  5
10F
  8
0
 10
420.29687472205512
 20
438.63489208633132
 30
0.0
 11
420.29687472205512
 21
411.63489208633109
 31
0.0
  0
LINE
  5
110
  8
1
 10
303.29687472205552
 20
425.13489208633098
 30
0.0
 11
431.29687472206689
 21
425.13489208633121
 31
0.0
  0
LINE
  5
111
  8
0
 10
378.29687472205512
 20
382.6348920863237
 30
0.0
 11
378.29687472205512
 21
467.63489208633922
 31
0.0
  0
LINE
  5
112
  8
0
 10
420.29687472205512
 20
438.63489208633132
 30
0.0
 11
421.29687472205512
 21
437.63489208633132
 31
0.0
  0
LINE
  5
113
  8
0
 10
421.29687472205512
 20
412.63489208633132
 30
0.0
 11
421.29687472205512
 21
437.63489208633132
 31
0.0
  0
LINE
  5
114
  8
0
 10
420.29687472205512
 20
438.63489208633132
 30
0.0
 11
411.29687472205512
 21
438.63489208633132
 31
0.0
  0
LINE
  5
115
  8
0
 10
411.29687472205512
 20
409.63489208633109
 30
0.0
 11
411.29687472205512
 21
440.63489208633132
 31
0.0
  0
LINE
  5
116
  8
0
 10
394.29687472205512
 20
410.63489208633138
 30
0.0
 11
394.29687472205512
 21
417.36029791954172
 31
0.0
  0
LINE
  5
117
  8
1
 10
385.79687472205512
 20
365.13489208633717
 30
0.0
 11
385.79687472205512
 21
485.13489208632541
 31
0.0
  0
ARC
  5
118
  8
0
 10
385.79687472205512
 20
467.63489208633899
 30
0.0
 40
7.5000000000000284
 50
0.0
 51
180.0
  0
LINE
  5
119
  8
0
 10
407.29687472205512
 20
440.63489208633132
 30
0.0
 11
411.29687472205512
 21
440.63489208633132
 31
0.0
  0
LINE
  5
11A
  8
0
 10
400.29687472205512
 20
442.63489208633109
 30
0.0
 11
397.29687472205489
 21
442.63489208633098
 31
0.0
  0
ARC
  5
11B
  8
0
 10
400.08305555168812
 20
428.63652499004502
 30
0.0
 40
14.0
 50
58.984309081245023
 51
89.124899116912985
  0
ARC
  5
11C
  8
0
 10
397.29687472205489
 20
439.63489208633098
 30
0.0
 40
3.0
 50
90.000000000001137
 51
180.0
  0
LINE
  5
11D
  8
0
 10
393.29687472205512
 20
382.63489208632342
 30
0.0
 11
393.29687472205512
 21
467.63489208633899
 31
0.0
  0
LINE
  5
11F
  8
0
 10
393.29687472205518
 20
310.60251798561887
 30
0.0
 11
393.29687472205518
 21
225.6025179856035
 31
0.0
  0
LINE
  5
120
  8
0
 10
393.29687472205518
 20
286.79781195969178
 30
0.0
 11
395.31311970892
 21
284.85301038682638
 31
0.0
  0
LINE
  5
121
  8
0
 10
408.5062360348237
 20
283.6025179856116
 30
0.0
 11
393.29687472205518
 21
297.26946861146399
 31
0.0
  0
LINE
  5
122
  8
0
 10
411.29687472205512
 20
252.6025179856112
 30
0.0
 11
411.29687472205512
 21
283.60251798561143
 31
0.0
  0
ARC
  5
123
  8
2
 10
397.29687472205501
 20
253.60251798561151
 30
0.0
 40
3.0
 50
180.0
 51
247.3837391998369
  0
ARC
  5
124
  8
0
 10
400.08305555168812
 20
264.6008850818975
 30
0.0
 40
14.0
 50
270.8751008830871
 51
301.0156909187549
  0
LINE
  5
125
  8
0
 10
400.29687472205518
 20
250.6025179856114
 30
0.0
 11
397.29687472205501
 21
250.60251798561151
 31
0.0
  0
LINE
  5
126
  8
0
 10
407.29687472205512
 20
252.6025179856112
 30
0.0
 11
411.29687472205512
 21
252.6025179856112
 31
0.0
  0
ARC
  5
127
  8
0
 10
385.79687472205518
 20
310.60251798561887
 30
0.0
 40
7.5000000000000284
 50
0.0
 51
180.0
  0
ARC
  5
128
  8
0
 10
385.79687472205518
 20
225.6025179856035
 30
0.0
 40
7.5000000000000284
 50
180.0
 51
0.0
  0
LINE
  5
129
  8
0
 10
394.29687472205518
 20
282.6025179856112
 30
0.0
 11
394.29687472205518
 21
264.35562708074639
 31
0.0
  0
LINE
  5
12A
  8
0
 10
420.29687472205512
 20
254.6025179856112
 30
0.0
 11
411.29687472205512
 21
254.6025179856112
 31
0.0
  0
LINE
  5
12B
  8
0
 10
420.29687472205512
 20
281.6025179856112
 30
0.0
 11
411.29687472205512
 21
281.6025179856112
 31
0.0
  0
LINE
  5
12C
  8
0
 10
421.29687472205518
 20
280.6025179856112
 30
0.0
 11
421.29687472205518
 21
255.6025179856112
 31
0.0
  0
LINE
  5
12D
  8
0
 10
420.29687472205512
 20
254.6025179856112
 30
0.0
 11
421.29687472205518
 21
255.6025179856112
 31
0.0
  0
LINE
  5
12E
  8
0
 10
420.29687472205512
 20
281.6025179856112
 30
0.0
 11
421.29687472205518
 21
280.6025179856112
 31
0.0
  0
LINE
  5
12F
  8
0
 10
378.29687472205518
 20
310.60251798561887
 30
0.0
 11
378.29687472205518
 21
225.60251798560341
 31
0.0
  0
LINE
  5
130
  8
0
 10
420.29687472205512
 20
254.6025179856112
 30
0.0
 11
420.29687472205512
 21
281.6025179856112
 31
0.0
  0
LINE
  5
131
  8
2
 10
394.29687472205489
 20
264.35562708074639
 30
0.0
 11
394.29687472205489
 21
253.60251798561151
 31
0.0
  0
ARC
  5
132
  8
0
 10
397.29687472205501
 20
253.60251798561151
 30
0.0
 40
3.0
 50
247.3837391998369
 51
269.99999999999892
  0
LINE
  5
133
  8
0
 10
400.29687472205529
 20
283.60251798561143
 30
0.0
 11
411.29687472205512
 21
283.60251798561143
 31
0.0
  0
ARC
  5
134
  8
2
 10
400.08305555168812
 20
271.60415088932513
 30
0.0
 40
14.0
 50
58.984309081245023
 51
89.124899116912971
  0
ARC
  5
135
  8
2
 10
397.29687472205501
 20
282.60251798561109
 30
0.0
 40
3.0
 50
90.00000000000108
 51
131.39540233921321
  0
LINE
  5
136
  8
2
 10
400.29687472205518
 20
285.6025179856112
 30
0.0
 11
397.29687472205501
 21
285.60251798561109
 31
0.0
  0
ARC
  5
137
  8
0
 10
397.29687472205501
 20
282.60251798561109
 30
0.0
 40
3.0
 50
131.39540233921321
 51
180.0
  0
POLYLINE
  5
138
  8
0
 66
     1
 10
0.0
 20
0.0
 30
0.0
  0
VERTEX
  5
139
  8
0
 10
395.31311970892
 20
284.85301038682638
 30
0.0
 42
0.2623181651233851
  0
VERTEX
  5
13A
  8
0
 10
395.51584742607452
 20
284.49318426372588
 30
0.0
 42
0.0748405267126454
  0
VERTEX
  5
13B
  8
0
 10
396.77282775649491
 20
283.9687787301051
 30
0.0
 42
0.0355846043998379
 70
     2
 50
345.9144955582596
  0
VERTEX
  5
13C
  8
0
 10
398.46413340423032
 20
283.67026587306287
 30
0.0
 42
0.0333180898769687
 50
345.9144955582596
  0
VERTEX
  5
13D
  8
0
 10
400.29687472205518
 20
283.60251798561143
 30
0.0
 42
0.0258957975423373
  0
SEQEND
  5
13E
  8
0
  0
POLYLINE
  5
13F
  8
0
 66
     1
 10
0.0
 20
0.0
 30
0.0
  0
VERTEX
  5
140
  8
0
 10
408.2511484928267
 20
261.33618768596529
 30
0.0
 42
0.0363176905695016
  0
VERTEX
  5
141
  8
0
 10
407.88428829507069
 20
262.41289586524471
 30
0.0
 42
0.0993340217551916
  0
VERTEX
  5
142
  8
0
 10
406.1017697755243
 20
265.02394373543069
 30
0.0
 42
0.0976147870675547
 70
     2
 50
135.66631834141091
  0
VERTEX
  5
143
  8
0
 10
403.21329258865569
 20
266.91289926148107
 30
0.0
 42
0.1145107026890976
 50
135.66631834141091
  0
VERTEX
  5
144
  8
0
 10
400.29687472205518
 20
267.37312519899388
 30
0.0
 42
0.096432939684277
  0
SEQEND
  5
145
  8
0
  0
LINE
  5
146
  8
0
 10
393.29687472205518
 20
249.70098886980179
 30
0.0
 11
404.20912785765898
 21
254.04171629719639
 31
0.0
  0
LINE
  5
147
  8
0
 10
393.29687472205518
 20
263.76776758356038
 30
0.0
 11
398.68250356224979
 21
266.93376064558828
 31
0.0
  0
POLYLINE
  5
148
  8
0
 66
     1
 10
0.0
 20
0.0
 30
0.0
  0
VERTEX
  5
149
  8
0
 10
400.29687472205518
 20
267.3731251989978
 30
0.0
 42
0.1336485269923138
  0
VERTEX
  5
14A
  8
0
 10
398.68250356224979
 20
266.93376064558771
 30
0.0
 42
0.1071183725235413
  0
SEQEND
  5
14B
  8
0
  0
POLYLINE
  5
14C
  8
0
 66
     1
 10
0.0
 20
0.0
 30
0.0
  0
VERTEX
  5
14D
  8
0
 10
404.20912785765898
 20
254.04171629719821
 30
0.0
 42
0.0637707378285199
  0
VERTEX
  5
14E
  8
0
 10
406.1017697755243
 20
255.09037633830559
 30
0.0
 42
0.106354520235099
 70
     2
 50
36.287319103177317
  0
VERTEX
  5
14F
  8
0
 10
408.05796875971981
 20
257.29594433053683
 30
0.0
 42
0.0076613957701156
 50
36.287319103177317
  0
VERTEX
  5
150
  8
0
 10
408.11029223973071
 20
257.39210640781471
 30
0.0
 42
0.1291200338589029
  0
SEQEND
  5
151
  8
0
  0
LINE
  5
152
  8
0
 10
373.29687472205512
 20
432.13489208633132
 30
0.0
 11
373.29687472205512
 21
430.13489208633109
 31
0.0
  0
ARC
  5
153
  8
0
 10
369.69687472205499
 20
418.64847043098177
 30
0.0
 40
1.6000000000000001
 50
273.1798301198649
 51
360.0
  0
ARC
  5
154
  8
0
 10
369.69687472205499
 20
431.62131374168052
 30
0.0
 40
1.6000000000000001
 50
360.0
 51
86.820169880135012
  0
ARC
  5
155
  8
0
 10
316.97198155987871
 20
419.13489208633098
 30
0.0
 40
3.0
 50
192.83958840690471
 51
269.99999999999937
  0
ARC
  5
156
  8
0
 10
316.97198155987871
 20
431.13489208633138
 30
0.0
 40
3.0
 50
89.999999999999986
 51
167.1604115930956
  0
ARC
  5
157
  8
0
 10
343.29687472205501
 20
425.13489208633109
 30
0.0
 40
30.0
 50
167.1604115930954
 51
192.83958840690451
  0
LINE
  5
158
  8
0
 10
353.29687472205501
 20
416.13489208633098
 30
0.0
 11
369.78562675345108
 21
417.05093386585321
 31
0.0
  0
LINE
  5
159
  8
0
 10
369.78562675345108
 20
433.2188503068092
 30
0.0
 11
353.29687472205501
 21
434.13489208633132
 31
0.0
  0
LINE
  5
15A
  8
0
 10
316.97198155987871
 20
416.13489208633098
 30
0.0
 11
353.29687472205501
 21
416.13489208633098
 31
0.0
  0
LINE
  5
15B
  8
0
 10
316.97198155987871
 20
434.13489208633132
 30
0.0
 11
353.29687472205501
 21
434.13489208633132
 31
0.0
  0
LINE
  5
15C
  8
0
 10
371.29687472205501
 20
418.64847043098177
 30
0.0
 11
371.29687472205501
 21
431.62131374168052
 31
0.0
  0
LINE
  5
15D
  8
0
 10
371.79687472205501
 20
432.13489208633121
 30
0.0
 11
371.79687472205501
 21
418.13489208633121
 31
0.0
  0
LINE
  5
15E
  8
0
 10
371.79687472205501
 20
418.13489208633109
 30
0.0
 11
371.29687472205501
 21
418.63489208633109
 31
0.0
  0
LINE
  5
15F
  8
0
 10
371.79687472205501
 20
432.13489208633121
 30
0.0
 11
371.29687472205501
 21
431.63489208633121
 31
0.0
  0
LINE
  5
160
  8
0
 10
353.29687472205501
 20
434.13489208633132
 30
0.0
 11
353.29687472205501
 21
416.13489208633098
 31
0.0
  0
LINE
  5
161
  8
0
 10
373.29687472205512
 20
432.13489208633121
 30
0.0
 11
371.79687472205501
 21
432.13489208633121
 31
0.0
  0
LINE
  5
162
  8
0
 10
373.29687472205489
 20
418.13489208633109
 30
0.0
 11
371.79687472205501
 21
418.13489208633109
 31
0.0
  0
LINE
  5
163
  8
0
 10
373.29687472205501
 20
430.13489208633109
 30
0.0
 11
378.29687472205512
 21
430.13489208633109
 31
0.0
  0
LINE
  5
164
  8
0
 10
373.29687472205489
 20
420.13489208633109
 30
0.0
 11
378.29687472205512
 21
420.13489208633109
 31
0.0
  0
LINE
  5
165
  8
0
 10
373.29687472205489
 20
420.13489208633109
 30
0.0
 11
373.29687472205489
 21
418.13489208633098
 31
0.0
  0
LINE
  5
166
  8
0
 10
373.29687472205438
 20
106.070143884892
 30
0.0
 11
373.29687472205438
 21
104.070143884892
 31
0.0
  0
LINE
  5
167
  8
0
 10
373.29687472205438
 20
106.070143884892
 30
0.0
 11
378.29687472205461
 21
106.070143884892
 31
0.0
  0
LINE
  5
168
  8
0
 10
373.2968747220545
 20
116.0701438848921
 30
0.0
 11
378.29687472205461
 21
116.0701438848921
 31
0.0
  0
LINE
  5
169
  8
0
 10
373.29687472205433
 20
104.070143884892
 30
0.0
 11
371.79687472205438
 21
104.070143884892
 31
0.0
  0
LINE
  5
16A
  8
0
 10
373.2968747220545
 20
118.0701438848921
 30
0.0
 11
371.79687472205438
 21
118.0701438848921
 31
0.0
  0
LINE
  5
16B
  8
0
 10
353.29687472205438
 20
120.0701438848922
 30
0.0
 11
353.29687472205438
 21
102.07014388489191
 31
0.0
  0
LINE
  5
16C
  8
0
 10
371.79687472205438
 20
118.0701438848921
 30
0.0
 11
371.2968747220545
 21
117.5701438848921
 31
0.0
  0
LINE
  5
16D
  8
0
 10
371.79687472205438
 20
104.070143884892
 30
0.0
 11
371.2968747220545
 21
104.570143884892
 31
0.0
  0
LINE
  5
16E
  8
0
 10
371.79687472205438
 20
118.0701438848921
 30
0.0
 11
371.79687472205438
 21
104.0701438848921
 31
0.0
  0
LINE
  5
16F
  8
0
 10
371.2968747220545
 20
104.5837222295428
 30
0.0
 11
371.2968747220545
 21
117.55656554024139
 31
0.0
  0
LINE
  5
170
  8
0
 10
316.9719815598782
 20
120.0701438848922
 30
0.0
 11
353.29687472205438
 21
120.0701438848922
 31
0.0
  0
LINE
  5
171
  8
0
 10
316.9719815598782
 20
102.07014388489191
 30
0.0
 11
353.29687472205438
 21
102.07014388489191
 31
0.0
  0
LINE
  5
172
  8
0
 10
369.78562675345052
 20
119.1541021053701
 30
0.0
 11
353.29687472205438
 21
120.0701438848922
 31
0.0
  0
LINE
  5
173
  8
0
 10
353.29687472205438
 20
102.07014388489191
 30
0.0
 11
369.78562675345052
 21
102.98618566441409
 31
0.0
  0
ARC
  5
174
  8
0
 10
343.29687472205438
 20
111.0701438848921
 30
0.0
 40
30.0
 50
167.1604115930954
 51
192.83958840690451
  0
ARC
  5
175
  8
0
 10
316.9719815598782
 20
117.0701438848922
 30
0.0
 40
3.0
 50
89.999999999999986
 51
167.1604115930956
  0
ARC
  5
176
  8
0
 10
316.9719815598782
 20
105.07014388489191
 30
0.0
 40
3.0
 50
192.83958840690471
 51
269.99999999999937
  0
ARC
  5
177
  8
0
 10
369.69687472205442
 20
117.55656554024139
 30
0.0
 40
1.6000000000000001
 50
360.0
 51
86.820169880135012
  0
ARC
  5
178
  8
0
 10
369.69687472205442
 20
104.5837222295428
 30
0.0
 40
1.6000000000000001
 50
273.1798301198649
 51
360.0
  0
LINE
  5
179
  8
0
 10
373.2968747220545
 20
118.0701438848921
 30
0.0
 11
373.2968747220545
 21
116.0701438848921
 31
0.0
  0
TEXT
  5
2AF
  8
0
 62
     3
 10
0.0
 20
0.0
 30
0.0
 40
10.0
  1
RP100ER
  7
STANDARD1
  0
ENDSEC
  0
EOF
