  0
SECTION
  2
HEADER
  9
$ACADVER
  1
AC1009
  9
$INSBASE
 10
0.0
 20
0.0
 30
0.0
  9
$EXTMIN
 10
0.0
 20
-2.960436562073669
 30
0.0
  9
$EXTMAX
 10
708.242874992883
 20
494.53776978417272
 30
0.0
  9
$LIMMIN
 10
0.0
 20
0.0
  9
$LIMMAX
 10
750.0
 20
540.0
  9
$ORTHOMODE
 70
     1
  9
$REGENMODE
 70
     1
  9
$FILLMODE
 70
     1
  9
$QTEXTMODE
 70
     0
  9
$MIRRTEXT
 70
     0
  9
$DRAGMODE
 70
     2
  9
$LTSCALE
 40
10.0
  9
$OSMODE
 70
    55
  9
$ATTMODE
 70
     1
  9
$TEXTSIZE
 40
0.2
  9
$TRACEWID
 40
0.05
  9
$TEXTSTYLE
  7
STANDARD
  9
$CLAYER
  8
0
  9
$CELTYPE
  6
BYLAYER
  9
$CECOLOR
 62
   256
  9
$DIMSCALE
 40
1.0
  9
$DIMASZ
 40
3.0
  9
$DIMEXO
 40
2.0
  9
$DIMDLI
 40
0.38
  9
$DIMRND
 40
0.0
  9
$DIMDLE
 40
0.0
  9
$DIMEXE
 40
2.0
  9
$DIMTP
 40
0.0
  9
$DIMTM
 40
0.0
  9
$DIMTXT
 40
3.2000000000000002
  9
$DIMCEN
 40
0.0
  9
$DIMTSZ
 40
0.0
  9
$DIMTOL
 70
     0
  9
$DIMLIM
 70
     0
  9
$DIMTIH
 70
     0
  9
$DIMTOH
 70
     0
  9
$DIMSE1
 70
     0
  9
$DIMSE2
 70
     0
  9
$DIMTAD
 70
     1
  9
$DIMZIN
 70
     0
  9
$DIMBLK
  1

  9
$DIMASO
 70
     1
  9
$DIMSHO
 70
     0
  9
$DIMPOST
  1

  9
$DIMAPOST
  1

  9
$DIMALT
 70
     0
  9
$DIMALTD
 70
     2
  9
$DIMALTF
 40
25.399999999999999
  9
$DIMLFAC
 40
1.0
  9
$DIMTOFL
 70
     1
  9
$DIMTVP
 40
1.6000000000000001
  9
$DIMTIX
 70
     1
  9
$DIMSOXD
 70
     0
  9
$DIMSAH
 70
     0
  9
$DIMBLK1
  1

  9
$DIMBLK2
  1

  9
$DIMSTYLE
  2
STANDARD
  9
$DIMCLRD
 70
     0
  9
$DIMCLRE
 70
     0
  9
$DIMCLRT
 70
     0
  9
$DIMTFAC
 40
1.0
  9
$DIMGAP
 40
0.09
  9
$LUNITS
 70
     2
  9
$LUPREC
 70
     4
  9
$SKETCHINC
 40
0.1
  9
$FILLETRAD
 40
0.0
  9
$AUNITS
 70
     0
  9
$AUPREC
 70
     4
  9
$MENU
  1
E:\r13\win\SUPPORT\ACAD
  9
$ELEVATION
 40
0.0
  9
$PELEVATION
 40
0.0
  9
$THICKNESS
 40
0.0
  9
$LIMCHECK
 70
     0
  9
$BLIPMODE
 70
     0
  9
$CHAMFERA
 40
0.0
  9
$CHAMFERB
 40
0.0
  9
$SKPOLY
 70
     0
  9
$TDCREATE
 40
2449840.6180208339
  9
$TDUPDATE
 40
2456598.5975424312
  9
$TDINDWG
 40
0.0001627315
  9
$TDUSRTIMER
 40
0.0001627315
  9
$USRTIMER
 70
     1
  9
$ANGBASE
 50
0.0
  9
$ANGDIR
 70
     0
  9
$PDMODE
 70
     0
  9
$PDSIZE
 40
0.0
  9
$PLINEWID
 40
0.0
  9
$COORDS
 70
     1
  9
$SPLFRAME
 70
     0
  9
$SPLINETYPE
 70
     6
  9
$SPLINESEGS
 70
     8
  9
$ATTDIA
 70
     0
  9
$ATTREQ
 70
     1
  9
$HANDLING
 70
     1
  9
$HANDSEED
  5
2E1
  9
$SURFTAB1
 70
     6
  9
$SURFTAB2
 70
     6
  9
$SURFTYPE
 70
     6
  9
$SURFU
 70
     6
  9
$SURFV
 70
     6
  9
$UCSNAME
  2

  9
$UCSORG
 10
0.0
 20
0.0
 30
0.0
  9
$UCSXDIR
 10
1.0
 20
0.0
 30
0.0
  9
$UCSYDIR
 10
0.0
 20
1.0
 30
0.0
  9
$PUCSNAME
  2

  9
$PUCSORG
 10
0.0
 20
0.0
 30
0.0
  9
$PUCSXDIR
 10
1.0
 20
0.0
 30
0.0
  9
$PUCSYDIR
 10
0.0
 20
1.0
 30
0.0
  9
$USERI1
 70
     0
  9
$USERI2
 70
     1
  9
$USERI3
 70
     1
  9
$USERI4
 70
     0
  9
$USERI5
 70
     0
  9
$USERR1
 40
0.0
  9
$USERR2
 40
0.0
  9
$USERR3
 40
0.0
  9
$USERR4
 40
0.0
  9
$USERR5
 40
0.0
  9
$WORLDVIEW
 70
     1
  9
$SHADEDGE
 70
     3
  9
$SHADEDIF
 70
    70
  9
$TILEMODE
 70
     1
  9
$MAXACTVP
 70
    16
  9
$PLIMCHECK
 70
     0
  9
$PEXTMIN
 10
1.0000000000000000E+020
 20
1.0000000000000000E+020
 30
1.0000000000000000E+020
  9
$PEXTMAX
 10
-1.0000000000000000E+020
 20
-1.0000000000000000E+020
 30
-1.0000000000000000E+020
  9
$PLIMMIN
 10
0.0
 20
0.0
  9
$PLIMMAX
 10
12.0
 20
9.0
  9
$UNITMODE
 70
     0
  9
$VISRETAIN
 70
     0
  9
$PLINEGEN
 70
     0
  9
$PSLTSCALE
 70
     0
  0
ENDSEC
  0
SECTION
  2
TABLES
  0
TABLE
  2
VPORT
 70
     1
  0
VPORT
  2
*ACTIVE
 70
     0
 10
0.0
 20
0.0
 11
1.0
 21
1.0
 12
374.98855678130462
 22
390.38782554515711
 13
0.0
 23
0.0
 14
10.0
 24
10.0
 15
10.0
 25
10.0
 16
0.0
 26
0.0
 36
1.0
 17
0.0
 27
0.0
 37
0.0
 40
794.35313298118172
 41
1.7807262569832401
 42
50.0
 43
0.0
 44
0.0
 50
0.0
 51
0.0
 71
     0
 72
   500
 73
     1
 74
     0
 75
     0
 76
     0
 77
     0
 78
     2
  0
ENDTAB
  0
TABLE
  2
LTYPE
 70
     4
  0
LTYPE
  2
CONTINUOUS
 70
     0
  3
Solid Line
 72
    65
 73
     0
 40
0.0
  0
LTYPE
  2
CENTER
 70
     0
  3
____ _ ____ _ ____ _ ____ _ ____ _ ____ _ ____
 72
    65
 73
     4
 40
2.0
 49
1.25
 49
-0.25
 49
0.25
 49
-0.25
  0
LTYPE
  2
HIDDEN
 70
     0
  3
_ _ _ _ _ _ _ _ _ _ _ _ _ _ _ _ _ _ _ _ _ _ _
 72
    65
 73
     2
 40
0.375
 49
0.25
 49
-0.125
  0
LTYPE
  2
PHANTOM2
 70
     0
  3
___ _ _ ___ _ _ ___ _ _ ___ _ _
 72
    65
 73
     6
 40
1.25
 49
0.625
 49
-0.125
 49
0.125
 49
-0.125
 49
0.125
 49
-0.125
  0
ENDTAB
  0
TABLE
  2
LAYER
 70
     4
  0
LAYER
  2
0
 70
     0
 62
     7
  6
CONTINUOUS
  0
LAYER
  2
1
 70
     0
 62
     1
  6
CENTER
  0
LAYER
  2
2
 70
     0
 62
     2
  6
HIDDEN
  0
LAYER
  2
3
 70
     0
 62
     3
  6
CONTINUOUS
  0
ENDTAB
  0
TABLE
  2
STYLE
 70
     3
  0
STYLE
  2
STANDARD
 70
     0
 40
0.0
 41
1.0
 50
0.0
 71
     0
 42
0.2
  3
TXT
  4
BIGFONT
  0
STYLE
  2
COMPLEX1
 70
     0
 40
10.0
 41
0.4
 50
0.0
 71
     0
 42
4.0
  3
TXT
  4

  0
STYLE
  2
STANDARD1
 70
     0
 40
0.0
 41
1.0
 50
0.0
 71
     0
 42
3.0
  3
txt
  4

  0
ENDTAB
  0
TABLE
  2
VIEW
 70
     1
  0
VIEW
  2
ALL
 70
     0
 40
540.0
 10
441.98319327731087
 20
270.0
 41
0.0
 11
0.0
 21
0.0
 31
1.0
 12
0.0
 22
0.0
 32
0.0
 42
0.0
 43
0.0
 44
0.0
 50
0.0
 71
     0
  0
ENDTAB
  0
TABLE
  2
UCS
 70
     0
  0
ENDTAB
  0
TABLE
  2
APPID
 70
     3
  0
APPID
  2
ACAD
 70
     0
  0
APPID
  2
ACAD_MLEADERVER
 70
     0
  0
APPID
  2
ACAD_NAV_VCDISPLAY
 70
     0
  0
ENDTAB
  0
TABLE
  2
DIMSTYLE
 70
     1
  0
DIMSTYLE
  2
STANDARD
 70
     0
  3

  4

  5

  6

  7

 40
1.0
 41
0.18
 42
0.0625
 43
0.38
 44
0.18
 45
0.0
 46
0.0
 47
0.0
 48
0.0
140
0.18
141
0.09
142
0.0
143
25.399999999999999
144
1.0
145
0.0
146
1.0
147
0.09
 71
     0
 72
     0
 73
     1
 74
     1
 75
     0
 76
     0
 77
     0
 78
     0
170
     0
171
     2
172
     0
173
     0
174
     0
175
     0
176
     0
177
     0
178
     0
  0
ENDTAB
  0
ENDSEC
  0
SECTION
  2
BLOCKS
  0
BLOCK
  8
0
  2
$MODEL_SPACE
 70
     0
 10
0.0
 20
0.0
 30
0.0
  3
$MODEL_SPACE
  1

  0
ENDBLK
  5
160
  8
0
  0
BLOCK
 67
     1
  8
0
  2
$PAPER_SPACE
 70
     0
 10
0.0
 20
0.0
 30
0.0
  3
$PAPER_SPACE
  1

  0
ENDBLK
  5
15E
 67
     1
  8
0
  0
ENDSEC
  0
SECTION
  2
ENTITIES
  0
LINE
  5
37
  8
1
 10
209.06849254992201
 20
459.03776978417261
 30
0.0
 11
549.56849254992244
 21
459.03776978417261
 31
0.0
  0
LINE
  5
38
  8
1
 10
244.56849254992241
 20
494.53776978417272
 30
0.0
 11
244.56849254992241
 21
423.53776978417261
 31
0.0
  0
CIRCLE
  5
39
  8
0
 10
244.56849254992241
 20
459.03776978417261
 30
0.0
 40
21.0
  0
CIRCLE
  5
3A
  8
0
 10
244.56849254992241
 20
459.03776978417261
 30
0.0
 40
28.0
  0
LINE
  5
3B
  8
0
 10
324.5684925499225
 20
474.53776978416539
 30
0.0
 11
322.56849254991528
 21
476.53776978417261
 31
0.0
  0
LINE
  5
3C
  8
0
 10
322.56849254991528
 20
476.53776978417261
 30
0.0
 11
311.56849254992238
 21
476.53776978417261
 31
0.0
  0
LINE
  5
3D
  8
0
 10
311.56849254992238
 20
476.53776978417261
 30
0.0
 11
250.6461694123426
 21
488.92609265374841
 31
0.0
  0
LINE
  5
3E
  8
0
 10
540.56849254992244
 20
473.03776978417261
 30
0.0
 11
324.5684925499225
 21
473.03776978417261
 31
0.0
  0
LINE
  5
3F
  8
0
 10
540.56849254992244
 20
445.03776978417272
 30
0.0
 11
324.5684925499225
 21
445.03776978417272
 31
0.0
  0
LINE
  5
40
  8
0
 10
311.56849254992238
 20
441.53776978417261
 30
0.0
 11
250.6461694123426
 21
429.14944691459692
 31
0.0
  0
LINE
  5
41
  8
0
 10
322.56849254991528
 20
441.53776978417261
 30
0.0
 11
311.56849254992238
 21
441.53776978417261
 31
0.0
  0
LINE
  5
42
  8
0
 10
324.5684925499225
 20
443.53776978417989
 30
0.0
 11
322.56849254991528
 21
441.53776978417261
 31
0.0
  0
LINE
  5
43
  8
0
 10
544.56849254992244
 20
469.03776978417261
 30
0.0
 11
544.56849254992244
 21
449.03776978417272
 31
0.0
  0
ARC
  5
44
  8
0
 10
540.56849254992244
 20
469.03776978417261
 30
0.0
 40
4.0
 50
0.0
 51
90.0
  0
ARC
  5
45
  8
0
 10
540.56849254992244
 20
449.03776978417272
 30
0.0
 40
4.0
 50
270.0
 51
0.0
  0
LINE
  5
46
  8
0
 10
324.5684925499225
 20
474.5377697841655
 30
0.0
 11
324.5684925499225
 21
443.53776978417989
 31
0.0
  0
LINE
  5
47
  8
0
 10
322.56849254991528
 20
476.53776978417261
 30
0.0
 11
322.56849254991528
 21
441.53776978417261
 31
0.0
  0
LINE
  5
48
  8
0
 10
311.56849254992238
 20
441.53776978417261
 30
0.0
 11
311.56849254992238
 21
476.53776978417261
 31
0.0
  0
ARC
  5
49
  8
0
 10
244.56849254992241
 20
459.03776978417261
 30
0.0
 40
30.5
 50
78.505837574895907
 51
281.49416242510409
  0
LINE
  5
4A
  8
0
 10
274.5684925499225
 20
434.01396040580772
 30
0.0
 11
302.16904738801708
 21
445.12253405115342
 31
0.0
  0
LINE
  5
4B
  8
0
 10
274.5684925499225
 20
484.06157916253761
 30
0.0
 11
302.16904738801719
 21
472.95300551719191
 31
0.0
  0
ARC
  5
4C
  8
0
 10
296.56849254992238
 20
459.03776978417261
 30
0.0
 40
15.0
 50
291.92362458095118
 51
68.076375419048659
  0
LINE
  5
4D
  8
0
 10
247.06849254992241
 20
484.86706516751622
 30
0.0
 11
247.06849254992241
 21
479.88842924616557
 31
0.0
  0
CIRCLE
  5
4E
  8
0
 10
249.06849254992241
 20
482.07588051597247
 30
0.0
 40
1.25
  0
ARC
  5
4F
  8
0
 10
249.06849254992241
 20
482.56121818142248
 30
0.0
 40
2.0
 50
0.0
 51
79.074093977612733
  0
ARC
  5
50
  8
0
 10
253.54464608738141
 20
482.90569410066212
 30
0.0
 40
2.5
 50
187.92000445492459
 51
249.1904720410088
  0
ARC
  5
51
  8
0
 10
235.59233901246341
 20
482.90569410066212
 30
0.0
 40
2.5
 50
290.80952795899111
 51
352.07999554507529
  0
ARC
  5
52
  8
0
 10
240.06849254992241
 20
482.56121818142248
 30
0.0
 40
2.0
 50
100.9259060223872
 51
180.0
  0
CIRCLE
  5
53
  8
0
 10
240.06849254992241
 20
482.07588051597247
 30
0.0
 40
1.25
  0
LINE
  5
54
  8
0
 10
242.06849254992241
 20
484.86706516751622
 30
0.0
 11
242.06849254992241
 21
479.88842924616557
 31
0.0
  0
ARC
  5
55
  8
0
 10
244.56849254992241
 20
459.03776978417261
 30
0.0
 40
25.950000000000159
 50
95.528398931007686
 51
100.8371658422932
  0
ARC
  5
56
  8
0
 10
244.56849254992241
 20
459.03776978417261
 30
0.0
 40
25.950000000000159
 50
79.162834157706726
 51
84.471601068992385
  0
ARC
  5
57
  8
0
 10
244.56849255006091
 20
459.03776978412088
 30
0.0
 40
23.0
 50
110.58839614993801
 51
69.411603850707877
  0
LINE
  5
58
  8
0
 10
278.5684925499225
 20
467.53776978417261
 30
0.0
 11
278.5684925499225
 21
450.53776978417261
 31
0.0
  0
LINE
  5
59
  8
0
 10
279.56849254992238
 20
449.53776978417272
 30
0.0
 11
296.56849254992238
 21
449.53776978417272
 31
0.0
  0
LINE
  5
5A
  8
0
 10
297.5684925499225
 20
450.53776978417261
 30
0.0
 11
297.5684925499225
 21
467.53776978417261
 31
0.0
  0
LINE
  5
5B
  8
0
 10
296.56849254992238
 20
468.53776978417261
 30
0.0
 11
279.56849254992238
 21
468.53776978417261
 31
0.0
  0
ARC
  5
5C
  8
0
 10
279.56849254992238
 20
467.53776978417261
 30
0.0
 40
1.0
 50
90.0
 51
180.0
  0
ARC
  5
5D
  8
0
 10
279.56849254992238
 20
450.53776978417261
 30
0.0
 40
1.0
 50
180.0
 51
270.0
  0
ARC
  5
5E
  8
0
 10
296.56849254992238
 20
450.53776978417261
 30
0.0
 40
1.0
 50
270.0
 51
0.0
  0
ARC
  5
5F
  8
0
 10
296.56849254992238
 20
467.53776978417261
 30
0.0
 40
1.0
 50
0.0
 51
90.0
  0
TEXT
  5
60
  8
0
 10
282.06849254992238
 20
455.0377697841742
 30
0.0
 40
10.0
  1
Kipp
 41
0.4
  7
COMPLEX1
 72
     1
 11
288.06849254992238
 21
455.0377697841742
 31
0.0
  0
CIRCLE
  5
61
  8
0
 10
353.16849254992252
 20
459.03776978417261
 30
0.0
 40
2.5
  0
LINE
  5
62
  8
1
 10
353.16849254992252
 20
464.03776978417261
 30
0.0
 11
353.16849254992252
 21
454.03776978417261
 31
0.0
  0
LINE
  5
63
  8
0
 10
311.56849254992238
 20
252.3381294964029
 30
0.0
 11
311.56849254992238
 21
287.33812949640293
 31
0.0
  0
LINE
  5
64
  8
0
 10
322.56849254991528
 20
287.33812949640293
 30
0.0
 11
322.56849254991528
 21
252.3381294964029
 31
0.0
  0
LINE
  5
65
  8
0
 10
324.5684925499225
 20
285.33812949639571
 30
0.0
 11
324.5684925499225
 21
254.33812949641009
 31
0.0
  0
ARC
  5
66
  8
0
 10
540.56849254992244
 20
259.83812949640293
 30
0.0
 40
4.0
 50
270.0
 51
0.0
  0
ARC
  5
67
  8
0
 10
540.56849254992244
 20
279.83812949640293
 30
0.0
 40
4.0
 50
0.0
 51
90.0
  0
LINE
  5
68
  8
0
 10
544.56849254992244
 20
279.83812949640293
 30
0.0
 11
544.56849254992244
 21
259.83812949640293
 31
0.0
  0
LINE
  5
69
  8
0
 10
324.5684925499225
 20
254.3381294964102
 30
0.0
 11
322.56849254991528
 21
252.3381294964029
 31
0.0
  0
LINE
  5
6A
  8
0
 10
322.56849254991528
 20
252.3381294964029
 30
0.0
 11
215.2684925499224
 21
252.3381294964029
 31
0.0
  0
LINE
  5
6B
  8
0
 10
540.56849254992244
 20
255.83812949640279
 30
0.0
 11
324.5684925499225
 21
255.83812949640279
 31
0.0
  0
LINE
  5
6C
  8
0
 10
540.56849254992244
 20
283.83812949640293
 30
0.0
 11
324.5684925499225
 21
283.83812949640293
 31
0.0
  0
LINE
  5
6D
  8
0
 10
322.56849254991528
 20
287.33812949640293
 30
0.0
 11
215.2684925499224
 21
287.33812949640293
 31
0.0
  0
LINE
  5
6E
  8
0
 10
324.5684925499225
 20
285.3381294963956
 30
0.0
 11
322.56849254991528
 21
287.33812949640293
 31
0.0
  0
LINE
  5
6F
  8
1
 10
244.56849254992241
 20
298.33812949640293
 30
0.0
 11
244.56849254992241
 21
241.3381294964029
 31
0.0
  0
LINE
  5
70
  8
1
 10
209.06849254992241
 20
269.83812949640293
 30
0.0
 11
549.56849254992244
 21
269.83812949640293
 31
0.0
  0
LINE
  5
71
  8
0
 10
214.0684925499225
 20
253.53812949640289
 30
0.0
 11
214.06849254992241
 21
286.13812949640288
 31
0.0
  0
ARC
  5
72
  8
0
 10
215.2684925499224
 20
286.13812949640288
 30
0.0
 40
1.1999999999999991
 50
90.0
 51
180.0
  0
ARC
  5
73
  8
0
 10
215.2684925499224
 20
253.53812949640289
 30
0.0
 40
1.1999999999999991
 50
180.00000000000011
 51
270.0
  0
LINE
  5
74
  8
0
 10
216.56849254992241
 20
287.33812949640293
 30
0.0
 11
216.56849254992241
 21
288.83812949640293
 31
0.0
  0
LINE
  5
75
  8
0
 10
216.56849254992241
 20
288.83812949640293
 30
0.0
 11
217.06849254992241
 21
289.33812949640293
 31
0.0
  0
LINE
  5
76
  8
0
 10
221.56849255006099
 20
289.33812949640293
 30
0.0
 11
221.56849255006099
 21
291.18812949640869
 31
0.0
  0
LINE
  5
77
  8
0
 10
223.56849254992241
 20
291.18812949640869
 30
0.0
 11
223.56849254992241
 21
293.03812949640258
 31
0.0
  0
LINE
  5
78
  8
0
 10
223.56849254992241
 20
293.03812949640258
 30
0.0
 11
223.86849254992271
 21
293.33812949640281
 31
0.0
  0
LINE
  5
79
  8
0
 10
265.56849254992238
 20
293.03812949640258
 30
0.0
 11
265.2684925499222
 21
293.33812949640281
 31
0.0
  0
LINE
  5
7A
  8
0
 10
265.56849254992238
 20
291.18812949640869
 30
0.0
 11
265.56849254992238
 21
293.03812949640258
 31
0.0
  0
LINE
  5
7B
  8
0
 10
267.56849254978391
 20
289.33812949640293
 30
0.0
 11
267.56849254978391
 21
291.18812949640869
 31
0.0
  0
LINE
  5
7C
  8
0
 10
272.5684925499225
 20
288.83812949640293
 30
0.0
 11
272.06849254992238
 21
289.33812949640293
 31
0.0
  0
LINE
  5
7D
  8
0
 10
272.5684925499225
 20
287.33812949640293
 30
0.0
 11
272.5684925499225
 21
288.83812949640293
 31
0.0
  0
LINE
  5
7E
  8
0
 10
223.86849254992271
 20
293.33812949640281
 30
0.0
 11
265.2684925499222
 21
293.33812949640281
 31
0.0
  0
LINE
  5
7F
  8
0
 10
221.56849255006099
 20
291.18812949640869
 30
0.0
 11
267.56849254978391
 21
291.18812949640869
 31
0.0
  0
LINE
  5
80
  8
0
 10
217.06849254992241
 20
289.33812949640293
 30
0.0
 11
272.06849254992238
 21
289.33812949640293
 31
0.0
  0
LINE
  5
81
  8
0
 10
217.06849254992241
 20
250.3381294964029
 30
0.0
 11
272.06849254992238
 21
250.3381294964029
 31
0.0
  0
LINE
  5
82
  8
0
 10
221.56849255006099
 20
248.48812949639711
 30
0.0
 11
267.56849254978391
 21
248.48812949639711
 31
0.0
  0
LINE
  5
83
  8
0
 10
223.86849254992271
 20
246.3381294964029
 30
0.0
 11
265.2684925499222
 21
246.3381294964029
 31
0.0
  0
LINE
  5
84
  8
0
 10
272.5684925499225
 20
252.3381294964029
 30
0.0
 11
272.5684925499225
 21
250.8381294964029
 31
0.0
  0
LINE
  5
85
  8
0
 10
272.5684925499225
 20
250.8381294964029
 30
0.0
 11
272.06849254992238
 21
250.3381294964029
 31
0.0
  0
LINE
  5
86
  8
0
 10
267.56849254978391
 20
250.3381294964029
 30
0.0
 11
267.56849254978391
 21
248.48812949639711
 31
0.0
  0
LINE
  5
87
  8
0
 10
265.56849254992238
 20
248.48812949639711
 30
0.0
 11
265.56849254992238
 21
246.63812949640311
 31
0.0
  0
LINE
  5
88
  8
0
 10
265.56849254992238
 20
246.63812949640311
 30
0.0
 11
265.2684925499222
 21
246.3381294964029
 31
0.0
  0
LINE
  5
89
  8
0
 10
223.56849254992241
 20
246.63812949640311
 30
0.0
 11
223.86849254992271
 21
246.3381294964029
 31
0.0
  0
LINE
  5
8A
  8
0
 10
223.56849254992241
 20
248.48812949639711
 30
0.0
 11
223.56849254992241
 21
246.63812949640311
 31
0.0
  0
LINE
  5
8B
  8
0
 10
221.56849255006099
 20
250.3381294964029
 30
0.0
 11
221.56849255006099
 21
248.48812949639711
 31
0.0
  0
LINE
  5
8C
  8
0
 10
216.56849254992241
 20
250.8381294964029
 30
0.0
 11
217.06849254992241
 21
250.3381294964029
 31
0.0
  0
LINE
  5
8D
  8
0
 10
216.56849254992241
 20
252.3381294964029
 30
0.0
 11
216.56849254992241
 21
250.8381294964029
 31
0.0
  0
LINE
  5
8E
  8
0
 10
274.5684925499225
 20
287.33812949640293
 30
0.0
 11
304.13002361892092
 21
279.5044917171432
 31
0.0
  0
LINE
  5
8F
  8
0
 10
274.5684925499225
 20
252.3381294964029
 30
0.0
 11
304.13002361892092
 21
260.17176727566249
 31
0.0
  0
ARC
  5
90
  8
0
 10
301.5684925499225
 20
269.83812949640293
 30
0.0
 40
10.0
 50
284.84192289122672
 51
75.158077108773355
  0
LINE
  5
91
  8
0
 10
64.779036683342071
 20
252.3381294964029
 30
0.0
 11
64.779036683342071
 21
250.8381294964029
 31
0.0
  0
LINE
  5
92
  8
0
 10
64.779036683342071
 20
250.8381294964029
 30
0.0
 11
65.279036683342071
 21
250.3381294964029
 31
0.0
  0
LINE
  5
93
  8
0
 10
66.949741299997783
 20
250.3381294964029
 30
0.0
 11
66.949741299997783
 21
248.48812949639711
 31
0.0
  0
LINE
  5
94
  8
0
 10
71.779036683342071
 20
248.48812949639711
 30
0.0
 11
71.779036683342071
 21
246.63812949640311
 31
0.0
  0
LINE
  5
95
  8
0
 10
71.779036683342071
 20
246.63812949640311
 30
0.0
 11
72.079036683342309
 21
246.3381294964029
 31
0.0
  0
LINE
  5
96
  8
0
 10
113.7790366833421
 20
246.63812949640311
 30
0.0
 11
113.4790366833418
 21
246.3381294964029
 31
0.0
  0
LINE
  5
97
  8
0
 10
113.7790366833421
 20
248.48812949639711
 30
0.0
 11
113.7790366833421
 21
246.63812949640311
 31
0.0
  0
LINE
  5
98
  8
0
 10
115.7790366832035
 20
250.3381294964029
 30
0.0
 11
115.7790366832035
 21
248.48812949639711
 31
0.0
  0
LINE
  5
99
  8
0
 10
120.779036683342
 20
250.8381294964029
 30
0.0
 11
120.279036683342
 21
250.3381294964029
 31
0.0
  0
LINE
  5
9A
  8
0
 10
120.779036683342
 20
252.3381294964029
 30
0.0
 11
120.779036683342
 21
250.8381294964029
 31
0.0
  0
LINE
  5
9B
  8
0
 10
72.079036683342309
 20
246.3381294964029
 30
0.0
 11
113.4790366833418
 21
246.3381294964029
 31
0.0
  0
LINE
  5
9C
  8
0
 10
66.949741299997783
 20
248.48812949639711
 30
0.0
 11
115.7790366832035
 21
248.48812949639711
 31
0.0
  0
LINE
  5
9D
  8
0
 10
65.279036683342071
 20
250.3381294964029
 30
0.0
 11
120.279036683342
 21
250.3381294964029
 31
0.0
  0
LINE
  5
9E
  8
0
 10
65.279036683342071
 20
289.33812949640293
 30
0.0
 11
120.279036683342
 21
289.33812949640293
 31
0.0
  0
LINE
  5
9F
  8
0
 10
66.949741299997783
 20
291.18812949640869
 30
0.0
 11
115.7790366832035
 21
291.18812949640869
 31
0.0
  0
LINE
  5
A0
  8
0
 10
72.079036683342309
 20
293.33812949640281
 30
0.0
 11
113.4790366833418
 21
293.33812949640281
 31
0.0
  0
LINE
  5
A1
  8
0
 10
120.779036683342
 20
287.33812949640293
 30
0.0
 11
120.779036683342
 21
288.83812949640293
 31
0.0
  0
LINE
  5
A2
  8
0
 10
120.779036683342
 20
288.83812949640293
 30
0.0
 11
120.279036683342
 21
289.33812949640293
 31
0.0
  0
LINE
  5
A3
  8
0
 10
115.7790366832035
 20
289.33812949640293
 30
0.0
 11
115.7790366832035
 21
291.18812949640869
 31
0.0
  0
LINE
  5
A4
  8
0
 10
113.7790366833421
 20
291.18812949640869
 30
0.0
 11
113.7790366833421
 21
293.03812949640258
 31
0.0
  0
LINE
  5
A5
  8
0
 10
113.7790366833421
 20
293.03812949640258
 30
0.0
 11
113.4790366833418
 21
293.33812949640281
 31
0.0
  0
LINE
  5
A6
  8
0
 10
71.779036683342071
 20
293.03812949640258
 30
0.0
 11
72.079036683342309
 21
293.33812949640281
 31
0.0
  0
LINE
  5
A7
  8
0
 10
71.779036683342071
 20
291.18812949640869
 30
0.0
 11
71.779036683342071
 21
293.03812949640258
 31
0.0
  0
LINE
  5
A8
  8
0
 10
66.949741299997783
 20
289.33812949640293
 30
0.0
 11
66.949741299997783
 21
291.18812949640869
 31
0.0
  0
LINE
  5
A9
  8
0
 10
64.779036683342071
 20
288.83812949640293
 30
0.0
 11
65.279036683342071
 21
289.33812949640293
 31
0.0
  0
LINE
  5
AA
  8
0
 10
64.779036683342071
 20
287.33812949640293
 30
0.0
 11
64.779036683342071
 21
288.83812949640293
 31
0.0
  0
ARC
  5
AB
  8
0
 10
63.479036683342059
 20
253.53812949640289
 30
0.0
 40
1.1999999999999991
 50
180.00000000000011
 51
270.0
  0
ARC
  5
AC
  8
0
 10
63.479036683342031
 20
286.13812949640288
 30
0.0
 40
1.1999999999999991
 50
90.0
 51
180.0
  0
LINE
  5
AD
  8
0
 10
62.279036683342071
 20
253.53812949640289
 30
0.0
 11
62.279036683342007
 21
286.13812949640288
 31
0.0
  0
LINE
  5
AE
  8
1
 10
92.779036683342085
 20
298.33812949640293
 30
0.0
 11
92.779036683342085
 21
241.3381294964029
 31
0.0
  0
LINE
  5
AF
  8
0
 10
123.2790366833421
 20
253.53812949640289
 30
0.0
 11
123.2790366833421
 21
286.13812949640288
 31
0.0
  0
ARC
  5
B0
  8
0
 10
122.0790366833421
 20
286.13812949640288
 30
0.0
 40
1.1999999999999991
 50
360.0
 51
90.0
  0
ARC
  5
B1
  8
0
 10
122.0790366833421
 20
253.53812949640289
 30
0.0
 40
1.1999999999999991
 50
270.0
 51
360.0
  0
LINE
  5
B2
  8
1
 10
57.279036683342042
 20
269.83812949640293
 30
0.0
 11
128.2790366833421
 21
269.83812949640293
 31
0.0
  0
LINE
  5
B3
  8
0
 10
63.479036683342031
 20
287.33812949640293
 30
0.0
 11
122.0790366833421
 21
287.33812949640293
 31
0.0
  0
LINE
  5
B4
  8
0
 10
63.479036683342059
 20
252.3381294964029
 30
0.0
 11
122.0790366833421
 21
252.3381294964029
 31
0.0
  0
LINE
  5
B5
  8
0
 10
702.04287499288296
 20
252.3381294964029
 30
0.0
 11
643.44287499288305
 21
252.3381294964029
 31
0.0
  0
LINE
  5
B6
  8
0
 10
702.04287499288296
 20
287.33812949640293
 30
0.0
 11
643.44287499288293
 21
287.33812949640293
 31
0.0
  0
LINE
  5
B7
  8
1
 10
708.242874992883
 20
269.83812949640293
 30
0.0
 11
637.242874992883
 21
269.83812949640293
 31
0.0
  0
ARC
  5
B8
  8
0
 10
643.44287499288305
 20
253.53812949640289
 30
0.0
 40
1.1999999999999991
 50
180.00000000000011
 51
270.0
  0
ARC
  5
B9
  8
0
 10
643.44287499288293
 20
286.13812949640288
 30
0.0
 40
1.1999999999999991
 50
90.0
 51
180.00000000000011
  0
LINE
  5
BA
  8
0
 10
642.242874992883
 20
253.53812949640289
 30
0.0
 11
642.242874992883
 21
286.13812949640288
 31
0.0
  0
LINE
  5
BB
  8
1
 10
672.74287499288289
 20
298.33812949640293
 30
0.0
 11
672.74287499288289
 21
241.3381294964029
 31
0.0
  0
LINE
  5
BC
  8
0
 10
703.242874992883
 20
253.53812949640289
 30
0.0
 11
703.242874992883
 21
286.13812949640288
 31
0.0
  0
ARC
  5
BD
  8
0
 10
702.04287499288296
 20
286.13812949640288
 30
0.0
 40
1.1999999999999991
 50
360.0
 51
90.0
  0
ARC
  5
BE
  8
0
 10
702.04287499288296
 20
253.53812949640289
 30
0.0
 40
1.1999999999999991
 50
270.0
 51
360.0
  0
LINE
  5
BF
  8
0
 10
700.742874992883
 20
287.33812949640293
 30
0.0
 11
700.742874992883
 21
288.83812949640293
 31
0.0
  0
LINE
  5
C0
  8
0
 10
700.742874992883
 20
288.83812949640293
 30
0.0
 11
700.242874992883
 21
289.33812949640293
 31
0.0
  0
LINE
  5
C1
  8
0
 10
698.57217037622729
 20
289.33812949640293
 30
0.0
 11
698.57217037622729
 21
291.18812949640869
 31
0.0
  0
LINE
  5
C2
  8
0
 10
693.74287499288289
 20
291.18812949640869
 30
0.0
 11
693.74287499288289
 21
293.03812949640258
 31
0.0
  0
LINE
  5
C3
  8
0
 10
693.74287499288289
 20
293.03812949640258
 30
0.0
 11
693.44287499288271
 21
293.33812949640281
 31
0.0
  0
LINE
  5
C4
  8
0
 10
651.74287499288289
 20
293.03812949640258
 30
0.0
 11
652.04287499288307
 21
293.33812949640281
 31
0.0
  0
LINE
  5
C5
  8
0
 10
651.74287499288289
 20
291.18812949640869
 30
0.0
 11
651.74287499288289
 21
293.03812949640258
 31
0.0
  0
LINE
  5
C6
  8
0
 10
649.74287499302147
 20
289.33812949640293
 30
0.0
 11
649.74287499302147
 21
291.18812949640869
 31
0.0
  0
LINE
  5
C7
  8
0
 10
644.742874992883
 20
288.83812949640293
 30
0.0
 11
645.242874992883
 21
289.33812949640293
 31
0.0
  0
LINE
  5
C8
  8
0
 10
644.742874992883
 20
287.33812949640293
 30
0.0
 11
644.742874992883
 21
288.83812949640293
 31
0.0
  0
LINE
  5
C9
  8
0
 10
693.44287499288271
 20
293.33812949640281
 30
0.0
 11
652.04287499288307
 21
293.33812949640281
 31
0.0
  0
LINE
  5
CA
  8
0
 10
698.57217037622729
 20
291.18812949640869
 30
0.0
 11
649.74287499302147
 21
291.18812949640869
 31
0.0
  0
LINE
  5
CB
  8
0
 10
700.242874992883
 20
289.33812949640293
 30
0.0
 11
645.242874992883
 21
289.33812949640293
 31
0.0
  0
LINE
  5
CC
  8
0
 10
700.242874992883
 20
250.3381294964029
 30
0.0
 11
645.242874992883
 21
250.3381294964029
 31
0.0
  0
LINE
  5
CD
  8
0
 10
698.57217037622729
 20
248.48812949639711
 30
0.0
 11
649.74287499302147
 21
248.48812949639711
 31
0.0
  0
LINE
  5
CE
  8
0
 10
693.44287499288271
 20
246.3381294964029
 30
0.0
 11
652.04287499288307
 21
246.3381294964029
 31
0.0
  0
LINE
  5
CF
  8
0
 10
644.742874992883
 20
252.3381294964029
 30
0.0
 11
644.742874992883
 21
250.8381294964029
 31
0.0
  0
LINE
  5
D0
  8
0
 10
644.742874992883
 20
250.8381294964029
 30
0.0
 11
645.242874992883
 21
250.3381294964029
 31
0.0
  0
LINE
  5
D1
  8
0
 10
649.74287499302147
 20
250.3381294964029
 30
0.0
 11
649.74287499302147
 21
248.48812949639711
 31
0.0
  0
LINE
  5
D2
  8
0
 10
651.74287499288289
 20
248.48812949639711
 30
0.0
 11
651.74287499288289
 21
246.63812949640311
 31
0.0
  0
LINE
  5
D3
  8
0
 10
651.74287499288289
 20
246.63812949640311
 30
0.0
 11
652.04287499288307
 21
246.3381294964029
 31
0.0
  0
LINE
  5
D4
  8
0
 10
693.74287499288289
 20
246.63812949640311
 30
0.0
 11
693.44287499288271
 21
246.3381294964029
 31
0.0
  0
LINE
  5
D5
  8
0
 10
693.74287499288289
 20
248.48812949639711
 30
0.0
 11
693.74287499288289
 21
246.63812949640311
 31
0.0
  0
LINE
  5
D6
  8
0
 10
698.57217037622729
 20
250.3381294964029
 30
0.0
 11
698.57217037622729
 21
248.48812949639711
 31
0.0
  0
LINE
  5
D7
  8
0
 10
700.742874992883
 20
250.8381294964029
 30
0.0
 11
700.242874992883
 21
250.3381294964029
 31
0.0
  0
LINE
  5
D8
  8
0
 10
700.742874992883
 20
252.3381294964029
 30
0.0
 11
700.742874992883
 21
250.8381294964029
 31
0.0
  0
CIRCLE
  5
D9
  8
0
 10
672.74287499288289
 20
269.83812949640293
 30
0.0
 40
14.0
  0
CIRCLE
  5
DA
  8
0
 10
672.74287499288289
 20
269.83812949640293
 30
0.0
 40
17.5
  0
ARC
  5
DB
  8
0
 10
301.56849254992238
 20
269.83812949640281
 30
0.0
 40
10.000000000000069
 50
0.0000000000003257
 51
75.158077108772943
  0
ARC
  5
DC
  8
0
 10
631.12891294825602
 20
269.83812949640293
 30
0.0
 40
24.113962044626991
 50
313.47117025075221
 51
46.528829749247748
  0
ARC
  5
DD
  8
0
 10
714.35683703750988
 20
269.83812949640293
 30
0.0
 40
24.113962044626991
 50
133.47117025075221
 51
226.5288297492479
  0
CIRCLE
  5
DE
  8
3
 10
244.56849254992241
 20
459.03776978417261
 30
0.0
 40
12.0
  0
CIRCLE
  5
DF
  8
0
 10
244.56849254992241
 20
459.03776978417261
 30
0.0
 40
10.375999999999999
  0
LINE
  5
E9
  8
2
 10
232.56849254992241
 20
247.7141294964029
 30
0.0
 11
232.56849254992241
 21
291.96212949640289
 31
0.0
  0
LINE
  5
EA
  8
2
 10
234.19249254992249
 20
249.3381294964029
 30
0.0
 11
234.19249254992241
 21
290.33812949640293
 31
0.0
  0
LINE
  5
EB
  8
2
 10
254.9444925499225
 20
249.33812949640279
 30
0.0
 11
254.9444925499225
 21
290.33812949640298
 31
0.0
  0
LINE
  5
EC
  8
2
 10
256.56849254992238
 20
247.7141294964029
 30
0.0
 11
256.56849254992238
 21
291.96212949640289
 31
0.0
  0
LINE
  5
ED
  8
2
 10
257.94449254992247
 20
246.33812949640279
 30
0.0
 11
254.9444925499225
 21
249.33812949640279
 31
0.0
  0
LINE
  5
EE
  8
2
 10
254.9444925499225
 20
249.33812949640279
 30
0.0
 11
234.19249254992249
 21
249.3381294964029
 31
0.0
  0
LINE
  5
EF
  8
2
 10
231.19249254992229
 20
246.33812949640279
 30
0.0
 11
234.19249254992241
 21
249.33812949640279
 31
0.0
  0
LINE
  5
F0
  8
2
 10
231.19249254992229
 20
293.33812949640281
 30
0.0
 11
234.19249254992241
 21
290.33812949640298
 31
0.0
  0
LINE
  5
F1
  8
2
 10
254.9444925499225
 20
290.33812949640298
 30
0.0
 11
234.19249254992249
 21
290.33812949640293
 31
0.0
  0
LINE
  5
F2
  8
2
 10
257.94449254992247
 20
293.33812949640281
 30
0.0
 11
254.9444925499225
 21
290.33812949640298
 31
0.0
  0
LINE
  5
F3
  8
2
 10
106.1550366833421
 20
293.33812949640293
 30
0.0
 11
103.1550366833421
 21
290.33812949640298
 31
0.0
  0
LINE
  5
F4
  8
2
 10
103.1550366833421
 20
290.33812949640298
 30
0.0
 11
82.403036683342151
 21
290.33812949640293
 31
0.0
  0
LINE
  5
F5
  8
2
 10
79.403036683341981
 20
293.33812949640293
 30
0.0
 11
82.403036683341966
 21
290.33812949640298
 31
0.0
  0
LINE
  5
F6
  8
2
 10
79.403036683341981
 20
246.3381294964029
 30
0.0
 11
82.403036683341966
 21
249.33812949640279
 31
0.0
  0
LINE
  5
F7
  8
2
 10
103.1550366833421
 20
249.33812949640279
 30
0.0
 11
82.403036683342151
 21
249.3381294964029
 31
0.0
  0
LINE
  5
F8
  8
2
 10
106.1550366833421
 20
246.3381294964029
 30
0.0
 11
103.1550366833421
 21
249.33812949640279
 31
0.0
  0
LINE
  5
F9
  8
2
 10
104.779036683342
 20
247.7141294964029
 30
0.0
 11
104.779036683342
 21
291.96212949640289
 31
0.0
  0
LINE
  5
FA
  8
2
 10
103.1550366833421
 20
249.33812949640279
 30
0.0
 11
103.1550366833421
 21
290.33812949640298
 31
0.0
  0
LINE
  5
FB
  8
2
 10
82.403036683342151
 20
249.3381294964029
 30
0.0
 11
82.403036683342037
 21
290.33812949640293
 31
0.0
  0
LINE
  5
FC
  8
2
 10
80.779036683342056
 20
247.7141294964029
 30
0.0
 11
80.779036683342056
 21
291.96212949640289
 31
0.0
  0
CIRCLE
  5
FD
  8
0
 10
244.56849254992241
 20
459.03776978417261
 30
0.0
 40
20.699999999999999
  0
CIRCLE
  5
FE
  8
0
 10
244.56849254992241
 20
459.03776978417261
 30
0.0
 40
27.5
  0
LINE
  5
FF
  8
1
 10
69.74092595154228
 20
296.18812949640869
 30
0.0
 11
69.74092595154228
 21
284.33812949640293
 31
0.0
  0
LINE
  5
100
  8
1
 10
69.74092595154228
 20
243.48812949639711
 30
0.0
 11
69.74092595154228
 21
255.3381294964029
 31
0.0
  0
CIRCLE
  5
101
  8
0
 10
672.74287499288289
 20
269.83812949640293
 30
0.0
 40
15.5
  0
LINE
  5
102
  8
1
 10
695.78098572468264
 20
296.18812949640869
 30
0.0
 11
695.78098572468264
 21
284.33812949640293
 31
0.0
  0
LINE
  5
103
  8
1
 10
695.78098572468264
 20
243.48812949639711
 30
0.0
 11
695.78098572468264
 21
255.3381294964029
 31
0.0
  0
CIRCLE
  5
104
  8
0
 10
244.56849254992241
 20
71.897482014388487
 30
0.0
 40
27.5
  0
CIRCLE
  5
105
  8
0
 10
244.56849254992241
 20
71.897482014388487
 30
0.0
 40
20.699999999999999
  0
CIRCLE
  5
106
  8
0
 10
244.56849254992241
 20
71.897482014388487
 30
0.0
 40
10.375999999999999
  0
CIRCLE
  5
107
  8
3
 10
244.56849254992241
 20
71.897482014388487
 30
0.0
 40
12.0
  0
LINE
  5
108
  8
1
 10
353.16849254992252
 20
66.897482014388487
 30
0.0
 11
353.16849254992252
 21
76.897482014388487
 31
0.0
  0
CIRCLE
  5
109
  8
0
 10
353.16849254992252
 20
71.897482014388487
 30
0.0
 40
2.5
  0
ARC
  5
10A
  8
0
 10
244.56849255006091
 20
71.897482014440214
 30
0.0
 40
23.0
 50
290.58839614929212
 51
249.41160385006199
  0
ARC
  5
10B
  8
0
 10
244.56849254992241
 20
71.897482014388487
 30
0.0
 40
25.950000000000159
 50
275.52839893100759
 51
280.83716584229319
  0
ARC
  5
10C
  8
0
 10
244.56849254992241
 20
71.897482014388487
 30
0.0
 40
25.950000000000159
 50
259.16283415770681
 51
264.4716010689923
  0
LINE
  5
10D
  8
0
 10
242.06849254992241
 20
46.068186631044938
 30
0.0
 11
242.06849254992241
 21
51.046822552395483
 31
0.0
  0
CIRCLE
  5
10E
  8
0
 10
240.06849254992241
 20
48.85937128258869
 30
0.0
 40
1.25
  0
ARC
  5
10F
  8
0
 10
240.06849254992241
 20
48.374033617138629
 30
0.0
 40
2.0
 50
180.0
 51
259.07409397761268
  0
ARC
  5
110
  8
0
 10
235.59233901246341
 20
48.029557697898987
 30
0.0
 40
2.5
 50
7.9200044549246398
 51
69.190472041008803
  0
ARC
  5
111
  8
0
 10
253.54464608738141
 20
48.029557697898987
 30
0.0
 40
2.5
 50
110.8095279589912
 51
172.07999554507529
  0
ARC
  5
112
  8
0
 10
249.06849254992241
 20
48.374033617138629
 30
0.0
 40
2.0
 50
280.92590602238721
 51
360.0
  0
CIRCLE
  5
113
  8
0
 10
249.06849254992241
 20
48.85937128258869
 30
0.0
 40
1.25
  0
LINE
  5
114
  8
0
 10
247.06849254992241
 20
46.068186631044938
 30
0.0
 11
247.06849254992241
 21
51.046822552395483
 31
0.0
  0
ARC
  5
115
  8
0
 10
296.56849254992238
 20
71.897482014388487
 30
0.0
 40
15.0
 50
291.92362458095141
 51
68.076375419048745
  0
LINE
  5
116
  8
0
 10
274.5684925499225
 20
46.873672636023549
 30
0.0
 11
302.16904738801719
 21
57.982246281369306
 31
0.0
  0
LINE
  5
117
  8
0
 10
274.5684925499225
 20
96.921291392753446
 30
0.0
 11
302.16904738801708
 21
85.812717747407675
 31
0.0
  0
ARC
  5
118
  8
0
 10
244.56849254992241
 20
71.897482014388487
 30
0.0
 40
30.5
 50
78.505837574895892
 51
281.49416242510409
  0
LINE
  5
119
  8
0
 10
311.56849254992238
 20
89.397482014388487
 30
0.0
 11
311.56849254992238
 21
54.397482014388487
 31
0.0
  0
LINE
  5
11A
  8
0
 10
322.56849254991528
 20
54.397482014388487
 30
0.0
 11
322.56849254991528
 21
89.397482014388487
 31
0.0
  0
LINE
  5
11B
  8
0
 10
324.5684925499225
 20
56.397482014395663
 30
0.0
 11
324.5684925499225
 21
87.397482014381268
 31
0.0
  0
ARC
  5
11C
  8
0
 10
540.56849254992244
 20
81.897482014388487
 30
0.0
 40
4.0
 50
360.0
 51
90.0
  0
ARC
  5
11D
  8
0
 10
540.56849254992244
 20
61.897482014388487
 30
0.0
 40
4.0
 50
270.0
 51
360.0
  0
LINE
  5
11E
  8
0
 10
544.56849254992244
 20
61.897482014388487
 30
0.0
 11
544.56849254992244
 21
81.897482014388487
 31
0.0
  0
LINE
  5
11F
  8
0
 10
324.5684925499225
 20
87.397482014381211
 30
0.0
 11
322.56849254991528
 21
89.397482014388487
 31
0.0
  0
LINE
  5
120
  8
0
 10
322.56849254991528
 20
89.397482014388487
 30
0.0
 11
311.56849254992238
 21
89.397482014388487
 31
0.0
  0
LINE
  5
121
  8
0
 10
311.56849254992238
 20
89.397482014388487
 30
0.0
 11
250.6461694123426
 21
101.7858048839642
 31
0.0
  0
LINE
  5
122
  8
0
 10
540.56849254992244
 20
85.897482014388487
 30
0.0
 11
324.5684925499225
 21
85.897482014388487
 31
0.0
  0
LINE
  5
123
  8
0
 10
540.56849254992244
 20
57.897482014388487
 30
0.0
 11
324.5684925499225
 21
57.897482014388487
 31
0.0
  0
LINE
  5
124
  8
0
 10
311.56849254992238
 20
54.397482014388487
 30
0.0
 11
250.6461694123426
 21
42.009159144812742
 31
0.0
  0
LINE
  5
125
  8
0
 10
322.56849254991528
 20
54.397482014388487
 30
0.0
 11
311.56849254992238
 21
54.397482014388487
 31
0.0
  0
LINE
  5
126
  8
0
 10
324.5684925499225
 20
56.39748201439577
 30
0.0
 11
322.56849254991528
 21
54.397482014388487
 31
0.0
  0
CIRCLE
  5
127
  8
0
 10
244.56849254992241
 20
71.897482014388487
 30
0.0
 40
28.0
  0
CIRCLE
  5
128
  8
0
 10
244.56849254992241
 20
71.897482014388487
 30
0.0
 40
21.0
  0
LINE
  5
129
  8
1
 10
244.56849254992241
 20
36.397482014388501
 30
0.0
 11
244.56849254992241
 21
107.3974820143885
 31
0.0
  0
LINE
  5
12A
  8
1
 10
209.06849254992201
 20
71.897482014388487
 30
0.0
 11
549.56849254992244
 21
71.897482014388487
 31
0.0
  0
LINE
  5
12B
  8
1
 10
353.16849254992252
 20
250.8381294964029
 30
0.0
 11
353.16849254992252
 21
288.83812949640293
 31
0.0
  0
TEXT
  5
24A
  8
0
 62
     3
 10
0.0
 20
0.0
 30
0.0
 40
10.0
  1
RL300T
  7
STANDARD1
  0
ENDSEC
  0
EOF
