  0
SECTION
  2
HEADER
  9
$ACADVER
  1
AC1009
  9
$INSBASE
 10
0.0
 20
0.0
 30
0.0
  9
$EXTMIN
 10
0.0
 20
-2.960436562073669
 30
0.0
  9
$EXTMAX
 10
328.5
 20
238.5
 30
0.0
  9
$LIMMIN
 10
0.0
 20
0.0
  9
$LIMMAX
 10
375.0
 20
270.0
  9
$ORTHOMODE
 70
     1
  9
$REGENMODE
 70
     1
  9
$FILLMODE
 70
     1
  9
$QTEXTMODE
 70
     0
  9
$MIRRTEXT
 70
     0
  9
$DRAGMODE
 70
     2
  9
$LTSCALE
 40
10.0
  9
$OSMODE
 70
    55
  9
$ATTMODE
 70
     1
  9
$TEXTSIZE
 40
5.0
  9
$TRACEWID
 40
0.05
  9
$TEXTSTYLE
  7
STANDARD
  9
$CLAYER
  8
0
  9
$CELTYPE
  6
BYLAYER
  9
$CECOLOR
 62
   256
  9
$DIMSCALE
 40
1.0
  9
$DIMASZ
 40
3.0
  9
$DIMEXO
 40
2.0
  9
$DIMDLI
 40
0.38
  9
$DIMRND
 40
0.0
  9
$DIMDLE
 40
0.0
  9
$DIMEXE
 40
2.0
  9
$DIMTP
 40
0.0
  9
$DIMTM
 40
0.0
  9
$DIMTXT
 40
3.2000000000000002
  9
$DIMCEN
 40
0.09
  9
$DIMTSZ
 40
0.0
  9
$DIMTOL
 70
     0
  9
$DIMLIM
 70
     0
  9
$DIMTIH
 70
     0
  9
$DIMTOH
 70
     0
  9
$DIMSE1
 70
     0
  9
$DIMSE2
 70
     0
  9
$DIMTAD
 70
     1
  9
$DIMZIN
 70
     0
  9
$DIMBLK
  1

  9
$DIMASO
 70
     1
  9
$DIMSHO
 70
     0
  9
$DIMPOST
  1

  9
$DIMAPOST
  1

  9
$DIMALT
 70
     0
  9
$DIMALTD
 70
     2
  9
$DIMALTF
 40
25.399999999999999
  9
$DIMLFAC
 40
1.0
  9
$DIMTOFL
 70
     0
  9
$DIMTVP
 40
1.6000000000000001
  9
$DIMTIX
 70
     1
  9
$DIMSOXD
 70
     0
  9
$DIMSAH
 70
     0
  9
$DIMBLK1
  1

  9
$DIMBLK2
  1

  9
$DIMSTYLE
  2
STANDARD
  9
$DIMCLRD
 70
     0
  9
$DIMCLRE
 70
     0
  9
$DIMCLRT
 70
     0
  9
$DIMTFAC
 40
1.0
  9
$DIMGAP
 40
0.09
  9
$LUNITS
 70
     2
  9
$LUPREC
 70
     4
  9
$SKETCHINC
 40
0.1
  9
$FILLETRAD
 40
0.0
  9
$AUNITS
 70
     0
  9
$AUPREC
 70
     0
  9
$MENU
  1
E:\r13\win\SUPPORT\ACAD
  9
$ELEVATION
 40
0.0
  9
$PELEVATION
 40
0.0
  9
$THICKNESS
 40
0.0
  9
$LIMCHECK
 70
     0
  9
$BLIPMODE
 70
     0
  9
$CHAMFERA
 40
0.0
  9
$CHAMFERB
 40
0.0
  9
$SKPOLY
 70
     0
  9
$TDCREATE
 40
2449839.7823495371
  9
$TDUPDATE
 40
2456598.586539364
  9
$TDINDWG
 40
0.0001502546
  9
$TDUSRTIMER
 40
0.0001502546
  9
$USRTIMER
 70
     1
  9
$ANGBASE
 50
0.0
  9
$ANGDIR
 70
     0
  9
$PDMODE
 70
     0
  9
$PDSIZE
 40
0.0
  9
$PLINEWID
 40
0.0
  9
$COORDS
 70
     1
  9
$SPLFRAME
 70
     0
  9
$SPLINETYPE
 70
     6
  9
$SPLINESEGS
 70
     8
  9
$ATTDIA
 70
     0
  9
$ATTREQ
 70
     1
  9
$HANDLING
 70
     1
  9
$HANDSEED
  5
28C
  9
$SURFTAB1
 70
     6
  9
$SURFTAB2
 70
     6
  9
$SURFTYPE
 70
     6
  9
$SURFU
 70
     6
  9
$SURFV
 70
     6
  9
$UCSNAME
  2

  9
$UCSORG
 10
0.0
 20
0.0
 30
0.0
  9
$UCSXDIR
 10
1.0
 20
0.0
 30
0.0
  9
$UCSYDIR
 10
0.0
 20
1.0
 30
0.0
  9
$PUCSNAME
  2

  9
$PUCSORG
 10
0.0
 20
0.0
 30
0.0
  9
$PUCSXDIR
 10
1.0
 20
0.0
 30
0.0
  9
$PUCSYDIR
 10
0.0
 20
1.0
 30
0.0
  9
$USERI1
 70
     0
  9
$USERI2
 70
     1
  9
$USERI3
 70
     1
  9
$USERI4
 70
     0
  9
$USERI5
 70
     0
  9
$USERR1
 40
0.0
  9
$USERR2
 40
0.0
  9
$USERR3
 40
0.0
  9
$USERR4
 40
0.0
  9
$USERR5
 40
0.0
  9
$WORLDVIEW
 70
     1
  9
$SHADEDGE
 70
     3
  9
$SHADEDIF
 70
    70
  9
$TILEMODE
 70
     1
  9
$MAXACTVP
 70
    16
  9
$PLIMCHECK
 70
     0
  9
$PEXTMIN
 10
1.0000000000000000E+020
 20
1.0000000000000000E+020
 30
1.0000000000000000E+020
  9
$PEXTMAX
 10
-1.0000000000000000E+020
 20
-1.0000000000000000E+020
 30
-1.0000000000000000E+020
  9
$PLIMMIN
 10
0.0
 20
0.0
  9
$PLIMMAX
 10
12.0
 20
9.0
  9
$UNITMODE
 70
     0
  9
$VISRETAIN
 70
     0
  9
$PLINEGEN
 70
     0
  9
$PSLTSCALE
 70
     0
  0
ENDSEC
  0
SECTION
  2
TABLES
  0
TABLE
  2
VPORT
 70
     1
  0
VPORT
  2
*ACTIVE
 70
     0
 10
0.0
 20
0.0
 11
1.0
 21
1.0
 12
187.49427839065231
 22
194.785247995265
 13
0.0
 23
0.0
 14
10.0
 24
10.0
 15
10.0
 25
10.0
 16
0.0
 26
0.0
 36
1.0
 17
0.0
 27
0.0
 37
0.0
 40
399.3463374158577
 41
1.7807262569832401
 42
50.0
 43
0.0
 44
0.0
 50
0.0
 51
0.0
 71
     0
 72
   500
 73
     1
 74
     0
 75
     0
 76
     0
 77
     0
 78
     2
  0
ENDTAB
  0
TABLE
  2
LTYPE
 70
     3
  0
LTYPE
  2
CONTINUOUS
 70
     0
  3
Solid Line
 72
    65
 73
     0
 40
0.0
  0
LTYPE
  2
CENTER
 70
     0
  3
____ _ ____ _ ____ _ ____ _ ____ _ ____ _ ____
 72
    65
 73
     4
 40
2.0
 49
1.25
 49
-0.25
 49
0.25
 49
-0.25
  0
LTYPE
  2
PHANTOM2
 70
     0
  3
___ _ _ ___ _ _ ___ _ _ ___ _ _
 72
    65
 73
     6
 40
1.25
 49
0.625
 49
-0.125
 49
0.125
 49
-0.125
 49
0.125
 49
-0.125
  0
ENDTAB
  0
TABLE
  2
LAYER
 70
     3
  0
LAYER
  2
0
 70
     0
 62
     7
  6
CONTINUOUS
  0
LAYER
  2
1
 70
     0
 62
     1
  6
CENTER
  0
LAYER
  2
3
 70
     0
 62
     3
  6
CONTINUOUS
  0
ENDTAB
  0
TABLE
  2
STYLE
 70
     2
  0
STYLE
  2
STANDARD
 70
     0
 40
0.0
 41
1.0
 50
0.0
 71
     0
 42
5.0
  3
TXT
  4
BIGFONT
  0
STYLE
  2
STANDARD1
 70
     0
 40
0.0
 41
1.0
 50
0.0
 71
     0
 42
3.0
  3
txt
  4

  0
ENDTAB
  0
TABLE
  2
VIEW
 70
     1
  0
VIEW
  2
ALL
 70
     0
 40
270.0
 10
220.99159663865549
 20
135.0
 41
0.0
 11
0.0
 21
0.0
 31
1.0
 12
0.0
 22
0.0
 32
0.0
 42
0.0
 43
0.0
 44
0.0
 50
0.0
 71
     0
  0
ENDTAB
  0
TABLE
  2
UCS
 70
     0
  0
ENDTAB
  0
TABLE
  2
APPID
 70
     3
  0
APPID
  2
ACAD
 70
     0
  0
APPID
  2
ACAD_MLEADERVER
 70
     0
  0
APPID
  2
ACAD_NAV_VCDISPLAY
 70
     0
  0
ENDTAB
  0
TABLE
  2
DIMSTYLE
 70
     1
  0
DIMSTYLE
  2
STANDARD
 70
     0
  3

  4

  5

  6

  7

 40
1.0
 41
0.18
 42
0.0625
 43
0.38
 44
0.18
 45
0.0
 46
0.0
 47
0.0
 48
0.0
140
0.18
141
0.09
142
0.0
143
25.399999999999999
144
1.0
145
0.0
146
1.0
147
0.09
 71
     0
 72
     0
 73
     1
 74
     1
 75
     0
 76
     0
 77
     0
 78
     0
170
     0
171
     2
172
     0
173
     0
174
     0
175
     0
176
     0
177
     0
178
     0
  0
ENDTAB
  0
ENDSEC
  0
SECTION
  2
BLOCKS
  0
BLOCK
  8
0
  2
$MODEL_SPACE
 70
     0
 10
0.0
 20
0.0
 30
0.0
  3
$MODEL_SPACE
  1

  0
ENDBLK
  5
10D
  8
0
  0
BLOCK
 67
     1
  8
0
  2
$PAPER_SPACE
 70
     0
 10
0.0
 20
0.0
 30
0.0
  3
$PAPER_SPACE
  1

  0
ENDBLK
  5
10B
 67
     1
  8
0
  0
ENDSEC
  0
SECTION
  2
ENTITIES
  0
LINE
  5
34
  8
1
 10
51.5
 20
130.0
 30
0.0
 11
108.5
 21
130.0
 31
0.0
  0
LINE
  5
35
  8
1
 10
80.0
 20
158.5
 30
0.0
 11
80.0
 21
101.5
 31
0.0
  0
LINE
  5
36
  8
1
 10
134.5
 20
130.0
 30
0.0
 11
230.5
 21
130.0
 31
0.0
  0
LINE
  5
37
  8
1
 10
202.0
 20
158.5
 30
0.0
 11
202.0
 21
101.5
 31
0.0
  0
LINE
  5
38
  8
0
 10
164.5
 20
141.5
 30
0.0
 11
180.92869249429449
 21
141.5
 31
0.0
  0
LINE
  5
39
  8
0
 10
163.5
 20
137.5
 30
0.0
 11
157.5
 21
137.5
 31
0.0
  0
LINE
  5
3A
  8
0
 10
153.5
 20
135.0
 30
0.0
 11
140.5
 21
135.0
 31
0.0
  0
LINE
  5
3B
  8
0
 10
164.5
 20
141.5
 30
0.0
 11
163.5
 21
140.5
 31
0.0
  0
LINE
  5
3C
  8
0
 10
157.5
 20
137.5
 30
0.0
 11
156.5
 21
136.5
 31
0.0
  0
LINE
  5
3D
  8
0
 10
157.5
 20
137.5
 30
0.0
 11
157.5
 21
134.5
 31
0.0
  0
ARC
  5
3E
  8
0
 10
180.92869249429449
 20
142.5
 30
0.0
 40
1.0
 50
270.0
 51
329.32257552744431
  0
ARC
  5
3F
  8
0
 10
180.92869249429449
 20
117.5
 30
0.0
 40
1.0
 50
30.677424472555739
 51
90.0
  0
LINE
  5
40
  8
0
 10
140.5
 20
125.0
 30
0.0
 11
140.5
 21
135.0
 31
0.0
  0
LINE
  5
41
  8
0
 10
157.5
 20
122.5
 30
0.0
 11
157.5
 21
125.5000000000002
 31
0.0
  0
LINE
  5
42
  8
0
 10
164.5
 20
118.5
 30
0.0
 11
164.5
 21
141.5
 31
0.0
  0
LINE
  5
43
  8
0
 10
140.5
 20
125.0
 30
0.0
 11
139.5
 21
126.0
 31
0.0
  0
LINE
  5
44
  8
0
 10
157.5
 20
122.5
 30
0.0
 11
156.5
 21
123.5
 31
0.0
  0
LINE
  5
45
  8
0
 10
164.5
 20
118.5
 30
0.0
 11
163.5
 21
119.5
 31
0.0
  0
LINE
  5
46
  8
0
 10
139.5
 20
126.0
 30
0.0
 11
139.5
 21
134.0
 31
0.0
  0
LINE
  5
47
  8
0
 10
153.5
 20
125.0
 30
0.0
 11
140.5
 21
125.0
 31
0.0
  0
LINE
  5
48
  8
0
 10
156.5
 20
123.5
 30
0.0
 11
156.5
 21
136.5
 31
0.0
  0
LINE
  5
49
  8
0
 10
163.5
 20
122.5
 30
0.0
 11
157.5
 21
122.5
 31
0.0
  0
LINE
  5
4A
  8
0
 10
164.5
 20
118.5
 30
0.0
 11
180.92869249429449
 21
118.5
 31
0.0
  0
LINE
  5
4B
  8
0
 10
163.49999999999989
 20
140.5
 30
0.0
 11
163.5
 21
119.5
 31
0.0
  0
ARC
  5
4C
  8
0
 10
202.0
 20
130.0
 30
0.0
 40
23.5
 50
210.67742447255659
 51
149.32257552744321
  0
LINE
  5
4D
  8
0
 10
181.4235641535999
 20
119.752562219144
 30
0.0
 11
181.4235641535999
 21
140.2474377808559
 31
0.0
  0
CIRCLE
  5
4E
  8
0
 10
80.0
 20
130.0
 30
0.0
 40
23.5
  0
CIRCLE
  5
4F
  8
0
 10
80.0
 20
130.0
 30
0.0
 40
11.5
  0
CIRCLE
  5
50
  8
0
 10
80.0
 20
130.0
 30
0.0
 40
10.5
  0
ARC
  5
51
  8
0
 10
80.0
 20
130.0
 30
0.0
 40
7.5
 50
36.86989764584402
 51
143.13010235415601
  0
ARC
  5
52
  8
0
 10
80.0
 20
130.0
 30
0.0
 40
6.5
 50
22.61986494804043
 51
157.3801350519596
  0
CIRCLE
  5
53
  8
0
 10
80.0
 20
130.0
 30
0.0
 40
5.0
  0
LINE
  5
54
  8
0
 10
86.0
 20
125.5
 30
0.0
 11
86.0
 21
134.5
 31
0.0
  0
LINE
  5
55
  8
0
 10
74.0
 20
125.5
 30
0.0
 11
74.0
 21
134.5
 31
0.0
  0
ARC
  5
56
  8
0
 10
80.0
 20
130.0
 30
0.0
 40
7.5
 50
216.86989764584399
 51
323.13010235415601
  0
ARC
  5
57
  8
0
 10
80.0
 20
130.0
 30
0.0
 40
6.5
 50
202.6198649480404
 51
337.3801350519596
  0
LINE
  5
58
  8
0
 10
156.5
 20
134.5
 30
0.0
 11
163.5
 21
134.5
 31
0.0
  0
LINE
  5
59
  8
0
 10
156.5
 20
125.5000000000002
 30
0.0
 11
163.5
 21
125.5000000000002
 31
0.0
  0
LINE
  5
5A
  8
3
 10
163.5
 20
134.5
 30
0.0
 11
156.5
 21
125.5000000000002
 31
0.0
  0
LINE
  5
5B
  8
3
 10
156.5
 20
134.5
 30
0.0
 11
163.5
 21
125.5000000000002
 31
0.0
  0
LINE
  5
5C
  8
0
 10
140.5
 20
135.0
 30
0.0
 11
139.5
 21
134.0
 31
0.0
  0
CIRCLE
  5
5D
  8
3
 10
80.0
 20
130.0
 30
0.0
 40
4.1879999999999988
  0
LINE
  5
5E
  8
3
 10
139.68799999999999
 20
134.18799999999999
 30
0.0
 11
153.5
 21
134.18799999999999
 31
0.0
  0
LINE
  5
5F
  8
3
 10
139.68799999999999
 20
125.812
 30
0.0
 11
153.5
 21
125.812
 31
0.0
  0
LINE
  5
60
  8
0
 10
153.5
 20
125.0
 30
0.0
 11
153.5000000000008
 21
135.0
 31
0.0
  0
LINE
  5
61
  8
0
 10
154.30000000000001
 20
133.84999999999999
 30
0.0
 11
155.69999999999999
 21
133.84999999999999
 31
0.0
  0
LINE
  5
62
  8
0
 10
154.30000000000001
 20
126.15000000000001
 30
0.0
 11
155.69999999999999
 21
126.15000000000001
 31
0.0
  0
ARC
  5
63
  8
0
 10
154.30000000000001
 20
134.65000000000001
 30
0.0
 40
0.8
 50
180.0
 51
270.00000000000023
  0
ARC
  5
64
  8
0
 10
155.69999999999999
 20
134.65000000000001
 30
0.0
 40
0.8
 50
270.0
 51
0.0
  0
ARC
  5
65
  8
0
 10
155.69999999999999
 20
125.34999999999999
 30
0.0
 40
0.8
 50
0.0
 51
89.999999999999716
  0
ARC
  5
66
  8
0
 10
154.30000000000001
 20
125.34999999999999
 30
0.0
 40
0.8
 50
89.999999999999275
 51
179.99999999999989
  0
CIRCLE
  5
70
  8
0
 10
300.0
 20
130.0
 30
0.0
 40
23.5
  0
LINE
  5
71
  8
1
 10
300.0
 20
158.5
 30
0.0
 11
300.0
 21
101.5
 31
0.0
  0
LINE
  5
72
  8
1
 10
271.5
 20
130.0
 30
0.0
 11
328.5
 21
130.0
 31
0.0
  0
ARC
  5
73
  8
0
 10
154.30000000000001
 20
205.34999999999999
 30
0.0
 40
0.8
 50
89.999999999999275
 51
179.99999999999989
  0
ARC
  5
74
  8
0
 10
155.69999999999999
 20
205.34999999999999
 30
0.0
 40
0.8
 50
0.0
 51
89.999999999999716
  0
ARC
  5
75
  8
0
 10
155.69999999999999
 20
214.65000000000001
 30
0.0
 40
0.8
 50
270.0
 51
0.0
  0
ARC
  5
76
  8
0
 10
154.30000000000001
 20
214.65000000000001
 30
0.0
 40
0.8
 50
180.0
 51
270.00000000000023
  0
LINE
  5
77
  8
0
 10
154.30000000000001
 20
206.15000000000001
 30
0.0
 11
155.69999999999999
 21
206.15000000000001
 31
0.0
  0
LINE
  5
78
  8
0
 10
154.30000000000001
 20
213.84999999999999
 30
0.0
 11
155.69999999999999
 21
213.84999999999999
 31
0.0
  0
LINE
  5
79
  8
0
 10
153.5
 20
205.0
 30
0.0
 11
153.5000000000008
 21
215.0
 31
0.0
  0
LINE
  5
7A
  8
3
 10
139.68799999999999
 20
205.81200000000001
 30
0.0
 11
153.5
 21
205.81200000000001
 31
0.0
  0
LINE
  5
7B
  8
3
 10
139.68799999999999
 20
214.18799999999999
 30
0.0
 11
153.5
 21
214.18799999999999
 31
0.0
  0
LINE
  5
7C
  8
0
 10
140.5
 20
215.0
 30
0.0
 11
139.5
 21
214.0
 31
0.0
  0
LINE
  5
7D
  8
0
 10
181.4235641535999
 20
199.75256221914401
 30
0.0
 11
181.4235641535999
 21
220.24743778085599
 31
0.0
  0
ARC
  5
7E
  8
0
 10
202.0
 20
210.0
 30
0.0
 40
23.5
 50
210.67742447255659
 51
149.32257552744321
  0
LINE
  5
7F
  8
0
 10
163.49999999999989
 20
220.5
 30
0.0
 11
163.5
 21
199.5
 31
0.0
  0
LINE
  5
80
  8
0
 10
164.5
 20
198.5
 30
0.0
 11
180.92869249429449
 21
198.5
 31
0.0
  0
LINE
  5
81
  8
0
 10
156.5
 20
204.0000000000002
 30
0.0
 11
156.5
 21
216.00000000000011
 31
0.0
  0
LINE
  5
82
  8
0
 10
153.5
 20
205.0
 30
0.0
 11
140.5
 21
205.0
 31
0.0
  0
LINE
  5
83
  8
0
 10
139.5
 20
206.0
 30
0.0
 11
139.5
 21
214.0
 31
0.0
  0
LINE
  5
84
  8
0
 10
164.5
 20
198.5
 30
0.0
 11
163.5
 21
199.5
 31
0.0
  0
LINE
  5
85
  8
0
 10
140.5
 20
205.0
 30
0.0
 11
139.5
 21
206.0
 31
0.0
  0
LINE
  5
86
  8
0
 10
164.5
 20
198.5
 30
0.0
 11
164.5
 21
221.5
 31
0.0
  0
LINE
  5
87
  8
0
 10
140.5
 20
205.0
 30
0.0
 11
140.5
 21
215.0
 31
0.0
  0
ARC
  5
88
  8
0
 10
180.92869249429449
 20
197.5
 30
0.0
 40
1.0
 50
30.677424472555739
 51
90.0
  0
ARC
  5
89
  8
0
 10
180.92869249429449
 20
222.5
 30
0.0
 40
1.0
 50
270.0
 51
329.32257552744431
  0
LINE
  5
8A
  8
0
 10
157.5
 20
216.00000000000011
 30
0.0
 11
157.5
 21
204.00000000000011
 31
0.0
  0
LINE
  5
8B
  8
0
 10
164.5
 20
221.5
 30
0.0
 11
163.5
 21
220.5
 31
0.0
  0
LINE
  5
8C
  8
0
 10
153.5
 20
215.0
 30
0.0
 11
140.5
 21
215.0
 31
0.0
  0
LINE
  5
8D
  8
0
 10
164.5
 20
221.5
 30
0.0
 11
180.92869249429449
 21
221.5
 31
0.0
  0
LINE
  5
8E
  8
1
 10
202.0
 20
238.5
 30
0.0
 11
202.0
 21
181.5
 31
0.0
  0
LINE
  5
8F
  8
1
 10
134.5
 20
210.0
 30
0.0
 11
230.5
 21
210.0
 31
0.0
  0
LINE
  5
90
  8
0
 10
156.5
 20
216.00000000000011
 30
0.0
 11
163.49999999999989
 21
216.00000000000011
 31
0.0
  0
LINE
  5
91
  8
0
 10
156.5
 20
204.00000000000011
 30
0.0
 11
163.5
 21
204.00000000000011
 31
0.0
  0
LINE
  5
92
  8
0
 10
156.5
 20
44.000000000000107
 30
0.0
 11
163.5
 21
44.000000000000142
 31
0.0
  0
LINE
  5
93
  8
0
 10
156.5
 20
56.000000000000142
 30
0.0
 11
163.49999999999989
 21
56.000000000000142
 31
0.0
  0
LINE
  5
94
  8
1
 10
134.5
 20
50.0
 30
0.0
 11
230.5
 21
50.0
 31
0.0
  0
LINE
  5
95
  8
1
 10
202.0
 20
78.5
 30
0.0
 11
202.0
 21
21.5
 31
0.0
  0
LINE
  5
96
  8
0
 10
164.5
 20
61.5
 30
0.0
 11
180.92869249429449
 21
61.5
 31
0.0
  0
LINE
  5
97
  8
0
 10
153.5
 20
55.0
 30
0.0
 11
140.5
 21
55.0
 31
0.0
  0
LINE
  5
98
  8
0
 10
164.5
 20
61.5
 30
0.0
 11
163.5
 21
60.5
 31
0.0
  0
LINE
  5
99
  8
0
 10
157.5
 20
56.000000000000121
 30
0.0
 11
157.5
 21
44.000000000000107
 31
0.0
  0
ARC
  5
9A
  8
0
 10
180.92869249429449
 20
62.500000000000028
 30
0.0
 40
1.0
 50
270.0
 51
329.32257552744431
  0
ARC
  5
9B
  8
0
 10
180.92869249429449
 20
37.499999999999972
 30
0.0
 40
1.0
 50
30.677424472555739
 51
90.0
  0
LINE
  5
9C
  8
0
 10
140.5
 20
45.0
 30
0.0
 11
140.5
 21
55.0
 31
0.0
  0
LINE
  5
9D
  8
0
 10
164.5
 20
38.5
 30
0.0
 11
164.5
 21
61.5
 31
0.0
  0
LINE
  5
9E
  8
0
 10
140.5
 20
45.0
 30
0.0
 11
139.5
 21
46.0
 31
0.0
  0
LINE
  5
9F
  8
0
 10
164.5
 20
38.5
 30
0.0
 11
163.5
 21
39.5
 31
0.0
  0
LINE
  5
A0
  8
0
 10
139.5
 20
46.0
 30
0.0
 11
139.5
 21
54.0
 31
0.0
  0
LINE
  5
A1
  8
0
 10
153.5
 20
45.0
 30
0.0
 11
140.5
 21
45.0
 31
0.0
  0
LINE
  5
A2
  8
0
 10
156.5
 20
44.000000000000171
 30
0.0
 11
156.5
 21
56.000000000000142
 31
0.0
  0
LINE
  5
A3
  8
0
 10
164.5
 20
38.5
 30
0.0
 11
180.92869249429449
 21
38.5
 31
0.0
  0
LINE
  5
A4
  8
0
 10
163.49999999999989
 20
60.499999999999972
 30
0.0
 11
163.5
 21
39.5
 31
0.0
  0
ARC
  5
A5
  8
0
 10
202.0
 20
50.0
 30
0.0
 40
23.5
 50
210.67742447255659
 51
149.32257552744321
  0
LINE
  5
A6
  8
0
 10
181.4235641535999
 20
39.752562219144039
 30
0.0
 11
181.4235641535999
 21
60.247437780855961
 31
0.0
  0
LINE
  5
A7
  8
0
 10
140.5
 20
55.0
 30
0.0
 11
139.5
 21
54.0
 31
0.0
  0
LINE
  5
A8
  8
3
 10
139.68799999999999
 20
54.187999999999988
 30
0.0
 11
153.5
 21
54.187999999999988
 31
0.0
  0
LINE
  5
A9
  8
3
 10
139.68799999999999
 20
45.812000000000012
 30
0.0
 11
153.5
 21
45.812000000000012
 31
0.0
  0
LINE
  5
AA
  8
0
 10
153.5
 20
45.0
 30
0.0
 11
153.5000000000008
 21
55.0
 31
0.0
  0
LINE
  5
AB
  8
0
 10
154.30000000000001
 20
53.849999999999987
 30
0.0
 11
155.69999999999999
 21
53.849999999999987
 31
0.0
  0
LINE
  5
AC
  8
0
 10
154.30000000000001
 20
46.150000000000027
 30
0.0
 11
155.69999999999999
 21
46.14999999999997
 31
0.0
  0
ARC
  5
AD
  8
0
 10
154.30000000000001
 20
54.649999999999977
 30
0.0
 40
0.8
 50
180.0
 51
270.00000000000023
  0
ARC
  5
AE
  8
0
 10
155.69999999999999
 20
54.649999999999977
 30
0.0
 40
0.8
 50
270.0
 51
0.0
  0
ARC
  5
AF
  8
0
 10
155.69999999999999
 20
45.349999999999987
 30
0.0
 40
0.8
 50
0.0
 51
89.999999999999716
  0
ARC
  5
B0
  8
0
 10
154.30000000000001
 20
45.350000000000023
 30
0.0
 40
0.8
 50
89.999999999999275
 51
179.99999999999989
  0
TEXT
  5
1F7
  8
0
 62
     3
 10
0.0
 20
0.0
 30
0.0
 40
10.0
  1
RBG47
  7
STANDARD1
  0
ENDSEC
  0
EOF
