  0
SECTION
  2
HEADER
  9
$ACADVER
  1
AC1009
  9
$INSBASE
 10
0.0
 20
0.0
 30
0.0
  9
$EXTMIN
 10
0.0
 20
-2.960436562073669
 30
0.0
  9
$EXTMAX
 10
493.16573314978717
 20
623.63339005761236
 30
0.0
  9
$LIMMIN
 10
0.0
 20
0.0
  9
$LIMMAX
 10
375.0
 20
270.0
  9
$ORTHOMODE
 70
     1
  9
$REGENMODE
 70
     1
  9
$FILLMODE
 70
     1
  9
$QTEXTMODE
 70
     0
  9
$MIRRTEXT
 70
     0
  9
$DRAGMODE
 70
     2
  9
$LTSCALE
 40
10.0
  9
$OSMODE
 70
  3071
  9
$ATTMODE
 70
     1
  9
$TEXTSIZE
 40
6.0
  9
$TRACEWID
 40
0.05
  9
$TEXTSTYLE
  7
STANDARD
  9
$CLAYER
  8
0
  9
$CELTYPE
  6
BYLAYER
  9
$CECOLOR
 62
   256
  9
$DIMSCALE
 40
1.0
  9
$DIMASZ
 40
3.0
  9
$DIMEXO
 40
2.0
  9
$DIMDLI
 40
0.3799999999999999
  9
$DIMRND
 40
0.0
  9
$DIMDLE
 40
0.0
  9
$DIMEXE
 40
2.0
  9
$DIMTP
 40
0.0
  9
$DIMTM
 40
0.0
  9
$DIMTXT
 40
3.2000000000000002
  9
$DIMCEN
 40
0.09
  9
$DIMTSZ
 40
0.0
  9
$DIMTOL
 70
     0
  9
$DIMLIM
 70
     0
  9
$DIMTIH
 70
     0
  9
$DIMTOH
 70
     0
  9
$DIMSE1
 70
     0
  9
$DIMSE2
 70
     0
  9
$DIMTAD
 70
     1
  9
$DIMZIN
 70
     0
  9
$DIMBLK
  1

  9
$DIMASO
 70
     0
  9
$DIMSHO
 70
     0
  9
$DIMPOST
  1

  9
$DIMAPOST
  1

  9
$DIMALT
 70
     0
  9
$DIMALTD
 70
     2
  9
$DIMALTF
 40
25.399999999999999
  9
$DIMLFAC
 40
1.0
  9
$DIMTOFL
 70
     0
  9
$DIMTVP
 40
0.0
  9
$DIMTIX
 70
     0
  9
$DIMSOXD
 70
     0
  9
$DIMSAH
 70
     0
  9
$DIMBLK1
  1

  9
$DIMBLK2
  1

  9
$DIMSTYLE
  2
STANDARD
  9
$DIMCLRD
 70
     0
  9
$DIMCLRE
 70
     0
  9
$DIMCLRT
 70
     0
  9
$DIMTFAC
 40
1.0
  9
$DIMGAP
 40
0.09
  9
$LUNITS
 70
     2
  9
$LUPREC
 70
     4
  9
$SKETCHINC
 40
0.1
  9
$FILLETRAD
 40
20.0
  9
$AUNITS
 70
     0
  9
$AUPREC
 70
     0
  9
$MENU
  1
E:\r13\win\SUPPORT\ACAD
  9
$ELEVATION
 40
0.0
  9
$PELEVATION
 40
0.0
  9
$THICKNESS
 40
0.0
  9
$LIMCHECK
 70
     0
  9
$BLIPMODE
 70
     0
  9
$CHAMFERA
 40
0.0
  9
$CHAMFERB
 40
0.0
  9
$SKPOLY
 70
     0
  9
$TDCREATE
 40
2449840.6320370371
  9
$TDUPDATE
 40
2456598.434503241
  9
$TDINDWG
 40
0.2596772106
  9
$TDUSRTIMER
 40
0.2596772106
  9
$USRTIMER
 70
     1
  9
$ANGBASE
 50
0.0
  9
$ANGDIR
 70
     0
  9
$PDMODE
 70
     0
  9
$PDSIZE
 40
0.0
  9
$PLINEWID
 40
0.0
  9
$COORDS
 70
     1
  9
$SPLFRAME
 70
     0
  9
$SPLINETYPE
 70
     6
  9
$SPLINESEGS
 70
     8
  9
$ATTDIA
 70
     0
  9
$ATTREQ
 70
     1
  9
$HANDLING
 70
     1
  9
$HANDSEED
  5
45FB
  9
$SURFTAB1
 70
     6
  9
$SURFTAB2
 70
     6
  9
$SURFTYPE
 70
     6
  9
$SURFU
 70
     6
  9
$SURFV
 70
     6
  9
$UCSNAME
  2

  9
$UCSORG
 10
0.0
 20
0.0
 30
0.0
  9
$UCSXDIR
 10
1.0
 20
0.0
 30
0.0
  9
$UCSYDIR
 10
0.0
 20
1.0
 30
0.0
  9
$PUCSNAME
  2

  9
$PUCSORG
 10
0.0
 20
0.0
 30
0.0
  9
$PUCSXDIR
 10
1.0
 20
0.0
 30
0.0
  9
$PUCSYDIR
 10
0.0
 20
1.0
 30
0.0
  9
$USERI1
 70
     0
  9
$USERI2
 70
     1
  9
$USERI3
 70
     0
  9
$USERI4
 70
     0
  9
$USERI5
 70
     0
  9
$USERR1
 40
0.0
  9
$USERR2
 40
0.0
  9
$USERR3
 40
0.0
  9
$USERR4
 40
0.0
  9
$USERR5
 40
0.0
  9
$WORLDVIEW
 70
     1
  9
$SHADEDGE
 70
     3
  9
$SHADEDIF
 70
    70
  9
$TILEMODE
 70
     1
  9
$MAXACTVP
 70
    16
  9
$PLIMCHECK
 70
     0
  9
$PEXTMIN
 10
1.0000000000000000E+020
 20
1.0000000000000000E+020
 30
1.0000000000000000E+020
  9
$PEXTMAX
 10
-1.0000000000000000E+020
 20
-1.0000000000000000E+020
 30
-1.0000000000000000E+020
  9
$PLIMMIN
 10
0.0
 20
0.0
  9
$PLIMMAX
 10
12.0
 20
9.0
  9
$UNITMODE
 70
     0
  9
$VISRETAIN
 70
     0
  9
$PLINEGEN
 70
     0
  9
$PSLTSCALE
 70
     0
  0
ENDSEC
  0
SECTION
  2
TABLES
  0
TABLE
  2
VPORT
 70
     1
  0
VPORT
  2
*ACTIVE
 70
     0
 10
0.0
 20
0.0
 11
1.0
 21
1.0
 12
246.58286772313471
 22
346.75466078580939
 13
0.0
 23
0.0
 14
10.0
 24
10.0
 15
10.0
 25
10.0
 16
0.0
 26
0.0
 36
1.0
 17
0.0
 27
0.0
 37
0.0
 40
708.23164611766538
 41
2.304913294797688
 42
50.0
 43
0.0
 44
0.0
 50
0.0
 51
0.0
 71
     0
 72
   500
 73
     1
 74
     0
 75
     0
 76
     0
 77
     0
 78
     0
  0
ENDTAB
  0
TABLE
  2
LTYPE
 70
     3
  0
LTYPE
  2
CONTINUOUS
 70
     0
  3
Solid Line
 72
    65
 73
     0
 40
0.0
  0
LTYPE
  2
CENTER
 70
     0
  3
____ _ ____ _ ____ _ ____ _ ____ _ ____ _ ____
 72
    65
 73
     4
 40
2.0
 49
1.25
 49
-0.25
 49
0.25
 49
-0.25
  0
LTYPE
  2
PHANTOM2
 70
     0
  3
___ _ _ ___ _ _ ___ _ _ ___ _ _
 72
    65
 73
     6
 40
1.25
 49
0.625
 49
-0.125
 49
0.125
 49
-0.125
 49
0.125
 49
-0.125
  0
ENDTAB
  0
TABLE
  2
LAYER
 70
     3
  0
LAYER
  2
0
 70
     0
 62
     7
  6
CONTINUOUS
  0
LAYER
  2
1
 70
     0
 62
     1
  6
CENTER
  0
LAYER
  2
3
 70
     0
 62
     3
  6
CONTINUOUS
  0
ENDTAB
  0
TABLE
  2
STYLE
 70
     2
  0
STYLE
  2
STANDARD
 70
     0
 40
0.0
 41
1.0
 50
0.0
 71
     0
 42
6.0
  3
TXT
  4
BIGFONT
  0
STYLE
  2
STANDARD1
 70
     0
 40
0.0
 41
1.0
 50
0.0
 71
     0
 42
3.0
  3
txt
  4

  0
ENDTAB
  0
TABLE
  2
VIEW
 70
     1
  0
VIEW
  2
ALL
 70
     0
 40
270.0
 10
213.25689075630251
 20
135.0
 41
0.0
 11
0.0
 21
0.0
 31
1.0
 12
0.0
 22
0.0
 32
0.0
 42
0.0
 43
0.0
 44
0.0
 50
0.0
 71
     0
  0
ENDTAB
  0
TABLE
  2
UCS
 70
     0
  0
ENDTAB
  0
TABLE
  2
APPID
 70
     4
  0
APPID
  2
ACAD
 70
     0
  0
APPID
  2
ACAD_MLEADERVER
 70
     0
  0
APPID
  2
ACAD_NAV_VCDISPLAY
 70
     0
  0
APPID
  2
ACAD_EXEMPT_FROM_CAD_STANDARDS
 70
     0
  0
ENDTAB
  0
TABLE
  2
DIMSTYLE
 70
     1
  0
DIMSTYLE
  2
STANDARD
 70
     0
  3

  4

  5

  6

  7

 40
1.0
 41
0.18
 42
0.0625
 43
0.38
 44
0.18
 45
0.0
 46
0.0
 47
0.0
 48
0.0
140
0.18
141
0.09
142
0.0
143
25.399999999999999
144
1.0
145
0.0
146
1.0
147
0.09
 71
     0
 72
     0
 73
     1
 74
     1
 75
     0
 76
     0
 77
     0
 78
     0
170
     0
171
     2
172
     0
173
     0
174
     0
175
     0
176
     0
177
     0
178
     0
  0
ENDTAB
  0
ENDSEC
  0
SECTION
  2
BLOCKS
  0
BLOCK
  8
0
  2
$MODEL_SPACE
 70
     0
 10
0.0
 20
0.0
 30
0.0
  3
$MODEL_SPACE
  1

  0
ENDBLK
  5
126
  8
0
  0
BLOCK
 67
     1
  8
0
  2
$PAPER_SPACE
 70
     0
 10
0.0
 20
0.0
 30
0.0
  3
$PAPER_SPACE
  1

  0
ENDBLK
  5
124
 67
     1
  8
0
  0
ENDSEC
  0
SECTION
  2
ENTITIES
  0
LINE
  5
4010
  8
1
 10
223.1657331497874
 20
488.63339005761247
 30
0.0
 11
493.16573314978717
 21
488.63339005761247
 31
0.0
  0
LINE
  5
4013
  8
1
 10
358.16573314978717
 20
168.6333900576125
 30
0.0
 11
358.16573314978712
 21
233.6333900576125
 31
0.0
  0
ARC
  5
4229
  8
0
 10
358.1657331497878
 20
558.63339005761236
 30
0.0
 40
9.0
 50
180.0
 51
0.0
  0
LINE
  5
422B
  8
0
 10
349.16573314978803
 20
588.63339005761247
 30
0.0
 11
349.1657331497878
 21
558.63339005761236
 31
0.0
  0
LINE
  5
422E
  8
0
 10
428.16573314978729
 20
479.63339005761168
 30
0.0
 11
458.16573314978729
 21
479.63339005761128
 31
0.0
  0
ARC
  5
4232
  8
0
 10
458.16573314978729
 20
488.63339005761128
 30
0.0
 40
9.0000000000000568
 50
270.0
 51
90.0
  0
ARC
  5
4237
  8
0
 10
428.16573314978729
 20
488.63339005761168
 30
0.0
 40
9.0
 50
90.0
 51
270.0
  0
LINE
  5
4238
  8
0
 10
458.16573314978729
 20
497.63339005761139
 30
0.0
 11
428.16573314978729
 21
497.63339005761168
 31
0.0
  0
LINE
  5
423A
  8
0
 10
301.59719065486308
 20
446.20698318642008
 30
0.0
 11
280.3839872192666
 21
424.99377975082388
 31
0.0
  0
ARC
  5
423E
  8
0
 10
287.45505503113191
 20
417.92271193895829
 30
0.0
 40
10.00000000000008
 50
134.99999999999841
 51
315.00000000000063
  0
ARC
  5
4243
  8
0
 10
308.6682584667285
 20
439.1359153745546
 30
0.0
 40
10.000000000000041
 50
315.00000000000063
 51
135.00000000000011
  0
LINE
  5
4244
  8
0
 10
294.52612284299738
 20
410.85164412709281
 30
0.0
 11
315.73932627859398
 21
432.06484756268912
 31
0.0
  0
LINE
  5
4246
  8
0
 10
315.73932627859517
 20
545.20193255253673
 30
0.0
 11
294.52612284299897
 21
566.41513598813356
 31
0.0
  0
ARC
  5
424A
  8
0
 10
287.45505503113338
 20
559.34406817626802
 30
0.0
 40
10.000000000000041
 50
44.999999999999311
 51
224.99999999999989
  0
ARC
  5
424F
  8
0
 10
308.66825846672958
 20
538.13086474067143
 30
0.0
 40
10.000000000000041
 50
224.99999999999929
 51
44.999999999999311
  0
LINE
  5
4250
  8
0
 10
280.38398721926791
 20
552.27300036440272
 30
0.0
 11
301.59719065486399
 21
531.05979692880601
 31
0.0
  0
LINE
  5
4252
  8
0
 10
414.73427564471177
 20
531.05979692880453
 30
0.0
 11
435.94747908030843
 21
552.27300036440045
 31
0.0
  0
ARC
  5
4256
  8
0
 10
428.87641126844318
 20
559.34406817626598
 30
0.0
 40
10.000000000000041
 50
314.99999999999829
 51
134.99999999999841
  0
ARC
  5
425B
  8
0
 10
407.6632078328463
 20
538.13086474066995
 30
0.0
 40
10.000000000000041
 50
134.99999999999841
 51
315.00000000000011
  0
LINE
  5
425C
  8
0
 10
421.80534345657782
 20
566.41513598813174
 30
0.0
 11
400.59214002098099
 21
545.20193255253548
 31
0.0
  0
LINE
  5
425E
  8
0
 10
258.16573314978729
 20
479.63339005761281
 30
0.0
 11
288.16573314978729
 21
479.6333900576127
 31
0.0
  0
LINE
  5
4262
  8
0
 10
367.1657331497878
 20
558.63339005761236
 30
0.0
 11
367.16573314978791
 21
588.63339005761247
 31
0.0
  0
LINE
  5
4267
  8
0
 10
367.16573314978729
 20
388.63339005761247
 30
0.0
 11
367.16573314978729
 21
418.63339005761247
 31
0.0
  0
ARC
  5
4281
  8
0
 10
407.66320783284527
 20
439.1359153745538
 30
0.0
 40
10.000000000000041
 50
44.999999999999311
 51
224.99999999999989
  0
LINE
  5
4283
  8
0
 10
435.94747908030718
 20
424.9937797508228
 30
0.0
 11
414.73427564471092
 21
446.20698318641928
 31
0.0
  0
CIRCLE
  5
4285
  8
0
 10
358.16573314978729
 20
488.63339005761247
 30
0.0
 40
31.5
  0
CIRCLE
  5
4286
  8
0
 10
358.16573314978729
 20
488.63339005761247
 30
0.0
 40
114.9999999999999
  0
LINE
  5
4287
  8
0
 10
349.16573314978729
 20
418.63339005761247
 30
0.0
 11
349.16573314978729
 21
388.63339005761247
 31
0.0
  0
ARC
  5
428A
  8
0
 10
358.16573314978729
 20
388.63339005761247
 30
0.0
 40
9.0000000000000568
 50
180.0
 51
0.0
  0
ARC
  5
428B
  8
0
 10
358.16573314978729
 20
418.63339005761247
 30
0.0
 40
9.0000000000000568
 50
0.0
 51
180.0
  0
ARC
  5
428C
  8
0
 10
358.16573314978803
 20
588.63339005761247
 30
0.0
 40
9.0
 50
0.0
 51
180.0
  0
ARC
  5
428E
  8
0
 10
428.87641126844159
 20
417.92271193895732
 30
0.0
 40
10.000000000000041
 50
225.00000000000159
 51
44.999999999999311
  0
LINE
  5
4290
  8
0
 10
400.5921400209798
 20
432.06484756268839
 30
0.0
 11
421.80534345657622
 21
410.85164412709179
 31
0.0
  0
LINE
  5
4292
  8
0
 10
288.16573314978729
 20
497.63339005761259
 30
0.0
 11
258.16573314978729
 21
497.63339005761281
 31
0.0
  0
ARC
  5
4295
  8
0
 10
258.16573314978729
 20
488.6333900576127
 30
0.0
 40
9.0
 50
90.0
 51
270.0
  0
ARC
  5
4296
  8
0
 10
288.16573314978729
 20
488.6333900576127
 30
0.0
 40
9.0
 50
270.0
 51
90.0
  0
LINE
  5
429B
  8
0
 10
352.66573314978729
 20
388.63339005761247
 30
0.0
 11
352.66573314978729
 21
418.63339005761247
 31
0.0
  0
ARC
  5
429C
  8
0
 10
358.16573314978729
 20
388.63339005761247
 30
0.0
 40
5.500000000000056
 50
180.0
 51
0.0
  0
LINE
  5
429D
  8
0
 10
363.6657331497874
 20
418.63339005761247
 30
0.0
 11
363.6657331497874
 21
388.63339005761247
 31
0.0
  0
ARC
  5
429E
  8
0
 10
358.16573314978729
 20
418.63339005761247
 30
0.0
 40
5.500000000000056
 50
0.0
 51
180.0
  0
LINE
  5
429F
  8
0
 10
363.66573314978803
 20
588.63339005761247
 30
0.0
 11
363.6657331497878
 21
558.63339005761236
 31
0.0
  0
ARC
  5
42A0
  8
0
 10
358.16573314978803
 20
588.63339005761247
 30
0.0
 40
5.5
 50
0.0
 51
180.0
  0
LINE
  5
42A1
  8
0
 10
352.6657331497878
 20
558.63339005761236
 30
0.0
 11
352.66573314978803
 21
588.63339005761247
 31
0.0
  0
ARC
  5
42A2
  8
0
 10
358.1657331497878
 20
558.63339005761236
 30
0.0
 40
5.5
 50
180.0
 51
0.0
  0
LINE
  5
42A3
  8
0
 10
258.16573314978729
 20
494.13339005761281
 30
0.0
 11
288.16573314978729
 21
494.13339005761259
 31
0.0
  0
ARC
  5
42A4
  8
0
 10
258.16573314978729
 20
488.6333900576127
 30
0.0
 40
5.5
 50
90.0
 51
270.0
  0
ARC
  5
42A5
  8
0
 10
288.16573314978729
 20
488.6333900576127
 30
0.0
 40
5.5
 50
270.0
 51
90.0
  0
LINE
  5
42A6
  8
0
 10
288.16573314978729
 20
483.1333900576127
 30
0.0
 11
258.16573314978729
 21
483.13339005761281
 31
0.0
  0
LINE
  5
42A7
  8
0
 10
458.16573314978729
 20
483.13339005761139
 30
0.0
 11
428.16573314978729
 21
483.13339005761168
 31
0.0
  0
LINE
  5
42A8
  8
0
 10
428.16573314978729
 20
494.13339005761168
 30
0.0
 11
458.16573314978729
 21
494.13339005761139
 31
0.0
  0
ARC
  5
42A9
  8
0
 10
428.16573314978729
 20
488.63339005761168
 30
0.0
 40
5.5
 50
90.0
 51
270.0
  0
ARC
  5
42AA
  8
0
 10
458.16573314978729
 20
488.63339005761128
 30
0.0
 40
5.500000000000056
 50
270.0
 51
90.0
  0
LINE
  5
42AB
  8
0
 10
292.40480249943931
 20
564.2938156445739
 30
0.0
 11
313.61800593503551
 21
543.08061220897707
 31
0.0
  0
LINE
  5
42AC
  8
0
 10
303.71851099842371
 20
533.18111727236555
 30
0.0
 11
282.50530756282751
 21
554.39432070796215
 31
0.0
  0
ARC
  5
42AD
  8
0
 10
308.66825846672958
 20
538.13086474067143
 30
0.0
 40
7.0000000000000151
 50
224.99999999999929
 51
44.999999999999893
  0
ARC
  5
42AE
  8
0
 10
287.45505503113338
 20
559.34406817626802
 30
0.0
 40
7.0000000000000151
 50
44.999999999999311
 51
224.99999999999929
  0
LINE
  5
42AF
  8
0
 10
423.92666380013583
 20
412.9729644706515
 30
0.0
 11
402.71346036453951
 21
434.1861679062481
 31
0.0
  0
ARC
  5
42B0
  8
0
 10
428.87641126844159
 20
417.92271193895732
 30
0.0
 40
7.0000000000000151
 50
224.99999999999989
 51
44.999999999999311
  0
LINE
  5
42B1
  8
0
 10
412.61295530115132
 20
444.08566284285968
 30
0.0
 11
433.82615873674752
 21
422.87245940726308
 31
0.0
  0
ARC
  5
42B2
  8
0
 10
407.66320783284527
 20
439.1359153745538
 30
0.0
 40
7.000000000000056
 50
44.999999999999311
 51
224.99999999999989
  0
ARC
  5
42B3
  8
0
 10
287.45505503113191
 20
417.92271193895829
 30
0.0
 40
7.0000000000000151
 50
135.00000000000011
 51
315.00000000000063
  0
LINE
  5
42B4
  8
0
 10
282.50530756282609
 20
422.87245940726422
 30
0.0
 11
303.71851099842269
 21
444.08566284286042
 31
0.0
  0
LINE
  5
42B5
  8
0
 10
313.61800593503432
 20
434.18616790624873
 30
0.0
 11
292.40480249943772
 21
412.97296447065241
 31
0.0
  0
ARC
  5
42B6
  8
0
 10
308.6682584667285
 20
439.1359153745546
 30
0.0
 40
7.0000000000000151
 50
315.00000000000063
 51
135.00000000000011
  0
LINE
  5
42B7
  8
0
 10
402.71346036454059
 20
543.08061220897605
 30
0.0
 11
423.92666380013742
 21
564.29381564457185
 31
0.0
  0
ARC
  5
42B8
  8
0
 10
428.87641126844318
 20
559.34406817626598
 30
0.0
 40
7.0000000000000151
 50
315.00000000000011
 51
135.00000000000011
  0
ARC
  5
42B9
  8
0
 10
407.6632078328463
 20
538.13086474066995
 30
0.0
 40
7.000000000000056
 50
134.99999999999841
 51
315.00000000000063
  0
LINE
  5
42BA
  8
0
 10
433.82615873674888
 20
554.39432070796011
 30
0.0
 11
412.61295530115223
 21
533.18111727236396
 31
0.0
  0
LINE
  5
4304
  8
0
 10
473.16573314978717
 20
212.6333900576125
 30
0.0
 11
472.16573314978717
 21
213.6333900576125
 31
0.0
  0
LINE
  5
4305
  8
0
 10
244.16573314978729
 20
213.6333900576125
 30
0.0
 11
243.16573314978729
 21
212.6333900576125
 31
0.0
  0
LINE
  5
4306
  8
0
 10
243.16573314978729
 20
212.6333900576125
 30
0.0
 11
243.16573314978729
 21
189.6333900576125
 31
0.0
  0
LINE
  5
4307
  8
0
 10
473.16573314978717
 20
189.6333900576125
 30
0.0
 11
473.16573314978717
 21
212.6333900576125
 31
0.0
  0
LINE
  5
4308
  8
0
 10
243.16573314978729
 20
189.6333900576125
 30
0.0
 11
244.16573314978729
 21
188.6333900576125
 31
0.0
  0
LINE
  5
4309
  8
0
 10
472.16573314978717
 20
188.6333900576125
 30
0.0
 11
473.16573314978717
 21
189.6333900576125
 31
0.0
  0
LINE
  5
430B
  8
0
 10
244.1657331497872
 20
213.6333900576125
 30
0.0
 11
472.16573314978717
 21
213.6333900576125
 31
0.0
  0
LINE
  5
430D
  8
0
 10
472.16573314978717
 20
188.6333900576125
 30
0.0
 11
244.1657331497872
 21
188.6333900576125
 31
0.0
  0
LINE
  5
43DD
  8
1
 10
358.16573314978717
 20
353.63339005761247
 30
0.0
 11
358.16573314978717
 21
623.63339005761236
 31
0.0
  0
ARC
  5
43E4
  8
1
 10
358.16573314978729
 20
488.63339005761247
 30
0.0
 40
44.999999999999311
 50
304.80062217156461
 51
325.19937782843419
  0
LINE
  5
43E5
  8
1
 10
438.06879942386831
 20
568.53645633169094
 30
0.0
 11
398.47081967742128
 21
528.93847658524487
 31
0.0
  0
LINE
  5
43E6
  8
1
 10
438.06879942386718
 20
408.73032378353167
 30
0.0
 11
398.47081967742031
 21
448.328303529979
 31
0.0
  0
CIRCLE
  5
43F0
  8
3
 10
358.16573314978729
 20
533.63339005761179
 30
0.0
 40
5.0
  0
CIRCLE
  5
43F1
  8
0
 10
358.16573314978729
 20
533.63339005761179
 30
0.0
 40
4.1879999999999988
  0
CIRCLE
  5
43F2
  8
3
 10
389.98553830318218
 20
520.453195211006
 30
0.0
 40
5.0
  0
CIRCLE
  5
43F3
  8
0
 10
389.98553830318218
 20
520.453195211006
 30
0.0
 40
4.1879999999999988
  0
CIRCLE
  5
43F4
  8
3
 10
403.1657331497866
 20
488.63339005761247
 30
0.0
 40
5.0
  0
CIRCLE
  5
43F5
  8
0
 10
403.1657331497866
 20
488.63339005761247
 30
0.0
 40
4.1879999999999988
  0
CIRCLE
  5
43F6
  8
3
 10
389.98553830318127
 20
456.81358490421809
 30
0.0
 40
5.0
  0
CIRCLE
  5
43F7
  8
0
 10
389.98553830318127
 20
456.81358490421809
 30
0.0
 40
4.1879999999999988
  0
CIRCLE
  5
43F8
  8
3
 10
358.16573314978717
 20
443.6333900576131
 30
0.0
 40
5.0
  0
CIRCLE
  5
43F9
  8
0
 10
358.16573314978717
 20
443.6333900576131
 30
0.0
 40
4.1879999999999988
  0
CIRCLE
  5
43FA
  8
3
 10
326.34592799639302
 20
456.81358490421837
 30
0.0
 40
5.0
  0
CIRCLE
  5
43FB
  8
0
 10
326.34592799639302
 20
456.81358490421837
 30
0.0
 40
4.1879999999999988
  0
CIRCLE
  5
43FC
  8
3
 10
313.16573314978803
 20
488.63339005761247
 30
0.0
 40
5.0
  0
CIRCLE
  5
43FD
  8
0
 10
313.16573314978803
 20
488.63339005761247
 30
0.0
 40
4.1879999999999988
  0
CIRCLE
  5
43FE
  8
3
 10
326.3459279963933
 20
520.4531952110068
 30
0.0
 40
5.0
  0
CIRCLE
  5
43FF
  8
0
 10
326.3459279963933
 20
520.4531952110068
 30
0.0
 40
4.1879999999999988
  0
LINE
  5
443F
  8
1
 10
346.16573314978803
 20
588.63339005761247
 30
0.0
 11
370.16573314978803
 21
588.63339005761247
 31
0.0
  0
LINE
  5
4440
  8
1
 10
346.1657331497878
 20
558.63339005761236
 30
0.0
 11
370.1657331497878
 21
558.63339005761236
 31
0.0
  0
LINE
  5
4448
  8
1
 10
346.16573314978729
 20
418.63339005761247
 30
0.0
 11
370.1657331497874
 21
418.63339005761247
 31
0.0
  0
LINE
  5
4449
  8
1
 10
346.16573314978712
 20
388.63339005761247
 30
0.0
 11
370.16573314978712
 21
388.63339005761247
 31
0.0
  0
ARC
  5
4450
  8
1
 10
358.16573314978729
 20
488.63339005761247
 30
0.0
 40
44.999999999999311
 50
349.80062217156512
 51
10.19937782843486
  0
ARC
  5
4451
  8
1
 10
358.16573314978729
 20
488.63339005761247
 30
0.0
 40
44.999999999999311
 50
34.80062217156425
 51
55.199377828433931
  0
ARC
  5
4452
  8
1
 10
358.16573314978729
 20
488.63339005761247
 30
0.0
 40
44.999999999999311
 50
79.800622171565138
 51
100.1993778284349
  0
ARC
  5
4453
  8
1
 10
358.16573314978729
 20
488.63339005761247
 30
0.0
 40
44.999999999999311
 50
124.8006221715667
 51
145.1993778284363
  0
ARC
  5
4454
  8
1
 10
358.16573314978729
 20
488.63339005761247
 30
0.0
 40
44.999999999999311
 50
169.80062217156549
 51
190.19937782843499
  0
ARC
  5
4455
  8
1
 10
358.16573314978729
 20
488.63339005761247
 30
0.0
 40
44.999999999999311
 50
214.80062217156569
 51
235.1993778284353
  0
ARC
  5
4456
  8
1
 10
358.16573314978729
 20
488.63339005761247
 30
0.0
 40
44.999999999999311
 50
259.80062217156501
 51
280.19937782843471
  0
LINE
  5
4457
  8
1
 10
258.16573314978729
 20
500.63339005761281
 30
0.0
 11
258.16573314978729
 21
476.6333900576127
 31
0.0
  0
LINE
  5
4458
  8
1
 10
288.16573314978729
 20
500.6333900576127
 30
0.0
 11
288.16573314978729
 21
476.63339005761259
 31
0.0
  0
LINE
  5
445B
  8
1
 10
428.16573314978729
 20
500.63339005761168
 30
0.0
 11
428.16573314978729
 21
476.63339005761168
 31
0.0
  0
LINE
  5
445C
  8
1
 10
458.16573314978729
 20
500.63339005761162
 30
0.0
 11
458.16573314978729
 21
476.63339005761162
 31
0.0
  0
LINE
  5
44A0
  8
1
 10
395.64239255267449
 20
526.11004946049809
 30
0.0
 11
384.32868405368953
 21
514.79634096151358
 31
0.0
  0
LINE
  5
44A1
  8
1
 10
332.00278224588538
 20
462.47043915371069
 30
0.0
 11
320.68907374690048
 21
451.15673065472612
 31
0.0
  0
LINE
  5
44A2
  8
1
 10
317.86064662215489
 20
528.93847658524544
 30
0.0
 11
278.26266687570791
 21
568.53645633169276
 31
0.0
  0
LINE
  5
44A3
  8
1
 10
332.00278224588561
 20
514.79634096151449
 30
0.0
 11
320.68907374690099
 21
526.11004946049934
 31
0.0
  0
LINE
  5
44A4
  8
1
 10
317.86064662215432
 20
448.32830352998002
 30
0.0
 11
278.26266687570597
 21
408.7303237835327
 31
0.0
  0
LINE
  5
44A5
  8
1
 10
395.64239255267353
 20
451.15673065472589
 30
0.0
 11
384.32868405368879
 21
462.47043915371069
 31
0.0
  0
LINE
  5
44A6
  8
1
 10
278.26266687570808
 20
550.15168002084295
 30
0.0
 11
296.64744318655858
 21
568.53645633169299
 31
0.0
  0
LINE
  5
44A8
  8
1
 10
299.4758703113049
 20
528.93847658524669
 30
0.0
 11
317.8606466221554
 21
547.32325289609685
 31
0.0
  0
LINE
  5
44A9
  8
1
 10
398.47081967742059
 20
429.94352721912918
 30
0.0
 11
416.85559598827098
 21
448.32830352997922
 31
0.0
  0
LINE
  5
44AA
  8
1
 10
419.68402311301691
 20
408.7303237835327
 30
0.0
 11
438.0687994238674
 21
427.11510009438268
 31
0.0
  0
LINE
  5
44AB
  8
1
 10
438.06879942386621
 20
550.15168002084283
 30
0.0
 11
419.68402311301583
 21
568.53645633169288
 31
0.0
  0
LINE
  5
44AC
  8
1
 10
416.85559598826939
 20
528.93847658524658
 30
0.0
 11
398.47081967741912
 21
547.32325289609662
 31
0.0
  0
LINE
  5
44AD
  8
1
 10
317.86064662215341
 20
429.94352721912941
 30
0.0
 11
299.47587031130303
 21
448.32830352997951
 31
0.0
  0
LINE
  5
44AE
  8
1
 10
296.64744318655698
 20
408.73032378353292
 30
0.0
 11
278.26266687570649
 21
427.11510009438302
 31
0.0
  0
TEXT
  5
459D
  8
0
 62
     3
 10
0.0
 20
0.0
 30
0.0
 40
10.0
  1
QZSD-C6-P
  7
STANDARD1
  0
ENDSEC
  0
EOF
