  0
SECTION
  2
HEADER
  9
$ACADVER
  1
AC1009
  9
$INSBASE
 10
0.0
 20
0.0
 30
0.0
  9
$EXTMIN
 10
0.0
 20
-2.960436562073669
 30
0.0
  9
$EXTMAX
 10
436.00000000000011
 20
431.5
 30
0.0
  9
$LIMMIN
 10
0.0
 20
0.0
  9
$LIMMAX
 10
375.0
 20
270.0
  9
$ORTHOMODE
 70
     1
  9
$REGENMODE
 70
     1
  9
$FILLMODE
 70
     1
  9
$QTEXTMODE
 70
     0
  9
$MIRRTEXT
 70
     0
  9
$DRAGMODE
 70
     2
  9
$LTSCALE
 40
10.0
  9
$OSMODE
 70
  3071
  9
$ATTMODE
 70
     1
  9
$TEXTSIZE
 40
6.0
  9
$TRACEWID
 40
0.05
  9
$TEXTSTYLE
  7
STANDARD
  9
$CLAYER
  8
0
  9
$CELTYPE
  6
BYLAYER
  9
$CECOLOR
 62
   256
  9
$DIMSCALE
 40
1.0
  9
$DIMASZ
 40
3.0
  9
$DIMEXO
 40
2.0
  9
$DIMDLI
 40
0.3799999999999999
  9
$DIMRND
 40
0.0
  9
$DIMDLE
 40
0.0
  9
$DIMEXE
 40
2.0
  9
$DIMTP
 40
0.0
  9
$DIMTM
 40
0.0
  9
$DIMTXT
 40
3.2000000000000002
  9
$DIMCEN
 40
0.09
  9
$DIMTSZ
 40
0.0
  9
$DIMTOL
 70
     0
  9
$DIMLIM
 70
     0
  9
$DIMTIH
 70
     0
  9
$DIMTOH
 70
     0
  9
$DIMSE1
 70
     0
  9
$DIMSE2
 70
     0
  9
$DIMTAD
 70
     1
  9
$DIMZIN
 70
     0
  9
$DIMBLK
  1

  9
$DIMASO
 70
     0
  9
$DIMSHO
 70
     0
  9
$DIMPOST
  1

  9
$DIMAPOST
  1

  9
$DIMALT
 70
     0
  9
$DIMALTD
 70
     2
  9
$DIMALTF
 40
25.399999999999999
  9
$DIMLFAC
 40
1.0
  9
$DIMTOFL
 70
     0
  9
$DIMTVP
 40
0.0
  9
$DIMTIX
 70
     0
  9
$DIMSOXD
 70
     0
  9
$DIMSAH
 70
     0
  9
$DIMBLK1
  1

  9
$DIMBLK2
  1

  9
$DIMSTYLE
  2
STANDARD
  9
$DIMCLRD
 70
     0
  9
$DIMCLRE
 70
     0
  9
$DIMCLRT
 70
     0
  9
$DIMTFAC
 40
1.0
  9
$DIMGAP
 40
0.09
  9
$LUNITS
 70
     2
  9
$LUPREC
 70
     2
  9
$SKETCHINC
 40
0.1
  9
$FILLETRAD
 40
20.0
  9
$AUNITS
 70
     0
  9
$AUPREC
 70
     0
  9
$MENU
  1
E:\r13\win\SUPPORT\ACAD
  9
$ELEVATION
 40
0.0
  9
$PELEVATION
 40
0.0
  9
$THICKNESS
 40
0.0
  9
$LIMCHECK
 70
     0
  9
$BLIPMODE
 70
     0
  9
$CHAMFERA
 40
0.0
  9
$CHAMFERB
 40
0.0
  9
$SKPOLY
 70
     0
  9
$TDCREATE
 40
2449840.6320370371
  9
$TDUPDATE
 40
2456598.434493959
  9
$TDINDWG
 40
0.2469383449
  9
$TDUSRTIMER
 40
0.2469383449
  9
$USRTIMER
 70
     1
  9
$ANGBASE
 50
0.0
  9
$ANGDIR
 70
     0
  9
$PDMODE
 70
     0
  9
$PDSIZE
 40
0.0
  9
$PLINEWID
 40
0.0
  9
$COORDS
 70
     1
  9
$SPLFRAME
 70
     0
  9
$SPLINETYPE
 70
     6
  9
$SPLINESEGS
 70
     8
  9
$ATTDIA
 70
     0
  9
$ATTREQ
 70
     1
  9
$HANDLING
 70
     1
  9
$HANDSEED
  5
4304
  9
$SURFTAB1
 70
     6
  9
$SURFTAB2
 70
     6
  9
$SURFTYPE
 70
     6
  9
$SURFU
 70
     6
  9
$SURFV
 70
     6
  9
$UCSNAME
  2

  9
$UCSORG
 10
0.0
 20
0.0
 30
0.0
  9
$UCSXDIR
 10
1.0
 20
0.0
 30
0.0
  9
$UCSYDIR
 10
0.0
 20
1.0
 30
0.0
  9
$PUCSNAME
  2

  9
$PUCSORG
 10
0.0
 20
0.0
 30
0.0
  9
$PUCSXDIR
 10
1.0
 20
0.0
 30
0.0
  9
$PUCSYDIR
 10
0.0
 20
1.0
 30
0.0
  9
$USERI1
 70
     0
  9
$USERI2
 70
     1
  9
$USERI3
 70
     0
  9
$USERI4
 70
     0
  9
$USERI5
 70
     0
  9
$USERR1
 40
0.0
  9
$USERR2
 40
0.0
  9
$USERR3
 40
0.0
  9
$USERR4
 40
0.0
  9
$USERR5
 40
0.0
  9
$WORLDVIEW
 70
     1
  9
$SHADEDGE
 70
     3
  9
$SHADEDIF
 70
    70
  9
$TILEMODE
 70
     1
  9
$MAXACTVP
 70
    16
  9
$PLIMCHECK
 70
     0
  9
$PEXTMIN
 10
1.0000000000000000E+020
 20
1.0000000000000000E+020
 30
1.0000000000000000E+020
  9
$PEXTMAX
 10
-1.0000000000000000E+020
 20
-1.0000000000000000E+020
 30
-1.0000000000000000E+020
  9
$PLIMMIN
 10
0.0
 20
0.0
  9
$PLIMMAX
 10
12.0
 20
9.0
  9
$UNITMODE
 70
     0
  9
$VISRETAIN
 70
     0
  9
$PLINEGEN
 70
     0
  9
$PSLTSCALE
 70
     0
  0
ENDSEC
  0
SECTION
  2
TABLES
  0
TABLE
  2
VPORT
 70
     1
  0
VPORT
  2
*ACTIVE
 70
     0
 10
0.0
 20
0.0
 11
1.0
 21
1.0
 12
218.00000101514169
 22
239.51670296164511
 13
0.0
 23
0.0
 14
10.0
 24
10.0
 15
10.0
 25
10.0
 16
0.0
 26
0.0
 36
1.0
 17
0.0
 27
0.0
 37
0.0
 40
491.07646158547232
 41
2.304913294797688
 42
50.0
 43
0.0
 44
0.0
 50
0.0
 51
0.0
 71
     0
 72
   500
 73
     1
 74
     0
 75
     0
 76
     0
 77
     0
 78
     0
  0
ENDTAB
  0
TABLE
  2
LTYPE
 70
     4
  0
LTYPE
  2
CONTINUOUS
 70
     0
  3
Solid Line
 72
    65
 73
     0
 40
0.0
  0
LTYPE
  2
CENTER
 70
     0
  3
____ _ ____ _ ____ _ ____ _ ____ _ ____ _ ____
 72
    65
 73
     4
 40
2.0
 49
1.25
 49
-0.25
 49
0.25
 49
-0.25
  0
LTYPE
  2
PHANTOM2
 70
     0
  3
___ _ _ ___ _ _ ___ _ _ ___ _ _
 72
    65
 73
     6
 40
1.25
 49
0.625
 49
-0.125
 49
0.125
 49
-0.125
 49
0.125
 49
-0.125
  0
LTYPE
  2
HIDDEN
 70
     0
  3
Hidden __ __ __ __ __ __ __ __ __ __ __ __ __ __
 72
    65
 73
     2
 40
1.905
 49
1.27
 49
-0.635
  0
ENDTAB
  0
TABLE
  2
LAYER
 70
     4
  0
LAYER
  2
0
 70
     0
 62
     7
  6
CONTINUOUS
  0
LAYER
  2
1
 70
     0
 62
     1
  6
CENTER
  0
LAYER
  2
3
 70
     0
 62
     3
  6
CONTINUOUS
  0
LAYER
  2
2
 70
     0
 62
     2
  6
HIDDEN
  0
ENDTAB
  0
TABLE
  2
STYLE
 70
     2
  0
STYLE
  2
STANDARD
 70
     0
 40
0.0
 41
1.0
 50
0.0
 71
     0
 42
6.0
  3
TXT
  4
BIGFONT
  0
STYLE
  2
STANDARD1
 70
     0
 40
0.0
 41
1.0
 50
0.0
 71
     0
 42
3.0
  3
txt
  4

  0
ENDTAB
  0
TABLE
  2
VIEW
 70
     1
  0
VIEW
  2
ALL
 70
     0
 40
270.0
 10
213.25689075630251
 20
135.0
 41
0.0
 11
0.0
 21
0.0
 31
1.0
 12
0.0
 22
0.0
 32
0.0
 42
0.0
 43
0.0
 44
0.0
 50
0.0
 71
     0
  0
ENDTAB
  0
TABLE
  2
UCS
 70
     0
  0
ENDTAB
  0
TABLE
  2
APPID
 70
     4
  0
APPID
  2
ACAD
 70
     0
  0
APPID
  2
ACAD_MLEADERVER
 70
     0
  0
APPID
  2
ACAD_NAV_VCDISPLAY
 70
     0
  0
APPID
  2
ACAD_EXEMPT_FROM_CAD_STANDARDS
 70
     0
  0
ENDTAB
  0
TABLE
  2
DIMSTYLE
 70
     1
  0
DIMSTYLE
  2
STANDARD
 70
     0
  3

  4

  5

  6

  7

 40
1.0
 41
0.18
 42
0.0625
 43
0.38
 44
0.18
 45
0.0
 46
0.0
 47
0.0
 48
0.0
140
0.18
141
0.09
142
0.0
143
25.399999999999999
144
1.0
145
0.0
146
1.0
147
0.09
 71
     0
 72
     0
 73
     1
 74
     1
 75
     0
 76
     0
 77
     0
 78
     0
170
     0
171
     2
172
     0
173
     0
174
     0
175
     0
176
     0
177
     0
178
     0
  0
ENDTAB
  0
ENDSEC
  0
SECTION
  2
BLOCKS
  0
BLOCK
  8
0
  2
$MODEL_SPACE
 70
     0
 10
0.0
 20
0.0
 30
0.0
  3
$MODEL_SPACE
  1

  0
ENDBLK
  5
126
  8
0
  0
BLOCK
 67
     1
  8
0
  2
$PAPER_SPACE
 70
     0
 10
0.0
 20
0.0
 30
0.0
  3
$PAPER_SPACE
  1

  0
ENDBLK
  5
124
 67
     1
  8
0
  0
ENDSEC
  0
SECTION
  2
ENTITIES
  0
LINE
  5
3BB4
  8
0
 10
164.0
 20
267.50000000000011
 30
0.0
 11
167.62132034355949
 21
263.87867965644051
 31
0.0
  0
LINE
  5
3BB5
  8
0
 10
232.37867965644051
 20
263.87867965644051
 30
0.0
 11
236.0
 21
267.50000000000011
 31
0.0
  0
ARC
  5
3BB6
  8
0
 10
234.5
 20
261.75735931288091
 30
0.0
 40
3.0
 50
135.00000000000031
 51
180.0
  0
ARC
  5
3BB7
  8
0
 10
165.5
 20
261.75735931288091
 30
0.0
 40
3.0
 50
0.0
 51
44.999999999999659
  0
ARC
  5
3BB8
  8
0
 10
168.7999999999999
 20
255.80000000000001
 30
0.0
 40
0.3000000000000114
 50
180.0
 51
270.0
  0
ARC
  5
3BB9
  8
0
 10
231.19999999999979
 20
255.80000000000001
 30
0.0
 40
0.3000000000000114
 50
270.0
 51
0.0
  0
LINE
  5
3BBA
  8
0
 10
168.5
 20
261.75735931288091
 30
0.0
 11
168.5
 21
255.80000000000001
 31
0.0
  0
LINE
  5
3BBB
  8
0
 10
231.5
 20
255.80000000000001
 30
0.0
 11
231.5
 21
261.75735931288091
 31
0.0
  0
LINE
  5
3BBC
  8
0
 10
221.9936074143404
 20
252.5
 30
0.0
 11
221.9936074143404
 21
255.5
 31
0.0
  0
LINE
  5
3BBD
  8
0
 10
178.0063925835839
 20
255.5
 30
0.0
 11
178.0063925835839
 21
252.5
 31
0.0
  0
POLYLINE
  5
3BBE
  8
0
 66
     1
 10
0.0
 20
0.0
 30
0.0
 70
   128
  0
VERTEX
  5
421C
  8
0
 10
178.00636284525709
 20
252.5
 30
0.0
  0
VERTEX
  5
421D
  8
0
 10
178.42720618287899
 20
235.69600921336291
 30
0.0
  0
VERTEX
  5
421E
  8
0
 10
178.8456601816228
 20
218.97950579694279
 30
0.0
  0
SEQEND
  5
421F
  8
0
  0
POLYLINE
  5
3BBF
  8
0
 66
     1
 10
0.0
 20
0.0
 30
0.0
 70
   128
  0
VERTEX
  5
4220
  8
0
 10
221.15432608083131
 20
218.983817465709
 30
0.0
  0
VERTEX
  5
4221
  8
0
 10
221.5726640015593
 20
235.69600921336291
 30
0.0
  0
VERTEX
  5
4222
  8
0
 10
221.99363739814339
 20
252.5
 30
0.0
  0
SEQEND
  5
4223
  8
0
  0
POLYLINE
  5
3BC1
  8
0
 66
     1
 10
0.0
 20
0.0
 30
0.0
 70
   128
  0
VERTEX
  5
4224
  8
0
 10
220.25547923083829
 20
217.5
 30
0.0
  0
VERTEX
  5
4225
  8
0
 10
220.7253778603199
 20
218.26653702888871
 30
0.0
  0
VERTEX
  5
4226
  8
0
 10
221.15432608083131
 20
218.983817465709
 30
0.0
  0
SEQEND
  5
4227
  8
0
  0
LINE
  5
3BC2
  8
0
 10
190.5
 20
217.2886751345948
 30
0.0
 11
190.9999999999998
 21
217.0
 31
0.0
  0
LINE
  5
3BC3
  8
0
 10
209.0
 20
217.0
 30
0.0
 11
209.5
 21
217.2886751345948
 31
0.0
  0
ARC
  5
3BC4
  8
0
 10
209.0
 20
207.5
 30
0.0
 40
0.5
 50
0.0
 51
90.0
  0
ARC
  5
3BC5
  8
0
 10
191.0
 20
207.5
 30
0.0
 40
0.5
 50
90.0
 51
180.0
  0
ARC
  5
3BC6
  8
0
 10
192.5
 20
202.0
 30
0.0
 40
2.0
 50
180.0
 51
270.0
  0
ARC
  5
3BC7
  8
0
 10
207.5
 20
202.0
 30
0.0
 40
2.0
 50
270.0
 51
0.0
  0
LINE
  5
3BC8
  8
0
 10
190.5
 20
207.5
 30
0.0
 11
190.5
 21
202.0
 31
0.0
  0
LINE
  5
3BC9
  8
0
 10
209.5
 20
202.0
 30
0.0
 11
209.5
 21
207.5
 31
0.0
  0
ARC
  5
3BCA
  8
0
 10
208.19999999999999
 20
209.19999999999999
 30
0.0
 40
1.2000000000000171
 50
180.0
 51
270.0
  0
ARC
  5
3BCB
  8
0
 10
191.7999999999999
 20
209.19999999999999
 30
0.0
 40
1.2000000000000171
 50
270.0
 51
0.0
  0
ARC
  5
3BCC
  8
0
 10
191.7999999999999
 20
215.80000000000001
 30
0.0
 40
1.200000000000002
 50
0.0
 51
90.0
  0
ARC
  5
3BCD
  8
0
 10
208.19999999999999
 20
215.80000000000001
 30
0.0
 40
1.2000000000000171
 50
90.0
 51
180.0
  0
LINE
  5
3BCE
  8
0
 10
193.0
 20
215.80000000000001
 30
0.0
 11
193.0
 21
209.19999999999999
 31
0.0
  0
LINE
  5
3BCF
  8
0
 10
207.0
 20
209.19999999999999
 30
0.0
 11
207.0
 21
215.80000000000001
 31
0.0
  0
LINE
  5
3BD0
  8
0
 10
178.64584349593721
 20
285.5
 30
0.0
 11
178.366692347216
 21
284.5
 31
0.0
  0
LINE
  5
3BD2
  8
0
 10
221.633307652784
 20
284.5
 30
0.0
 11
221.3541565040625
 21
285.5
 31
0.0
  0
LINE
  5
3BD3
  8
0
 10
221.633307652784
 20
284.5
 30
0.0
 11
178.366692347216
 21
284.5
 31
0.0
  0
LINE
  5
3BD4
  8
0
 10
236.0
 20
275.5
 30
0.0
 11
225.298221281347
 21
275.5
 31
0.0
  0
LINE
  5
3BD5
  8
0
 10
225.298221281347
 20
275.5
 30
0.0
 11
225.298221281347
 21
282.5
 31
0.0
  0
LINE
  5
3BD6
  8
0
 10
236.0
 20
282.5
 30
0.0
 11
225.298221281347
 21
282.5
 31
0.0
  0
LINE
  5
3BD7
  8
0
 10
236.0
 20
282.5
 30
0.0
 11
236.0
 21
275.5
 31
0.0
  0
LINE
  5
3BD8
  8
0
 10
236.0
 20
284.5
 30
0.0
 11
236.0
 21
282.5
 31
0.0
  0
LINE
  5
3BD9
  8
0
 10
225.298221281347
 20
282.5
 30
0.0
 11
221.633307652784
 21
284.5
 31
0.0
  0
LINE
  5
3BDB
  8
0
 10
235.0
 20
285.5
 30
0.0
 11
236.0
 21
284.5
 31
0.0
  0
POLYLINE
  5
3BDC
  8
0
 66
     1
 10
0.0
 20
0.0
 30
0.0
 70
   128
  0
VERTEX
  5
4228
  8
0
 10
178.366692347216
 20
284.5
 30
0.0
  0
VERTEX
  5
4229
  8
0
 10
176.52321040197961
 20
283.5214047480643
 30
0.0
  0
VERTEX
  5
422A
  8
0
 10
174.7017787186528
 20
282.5
 30
0.0
  0
SEQEND
  5
422B
  8
0
  0
LINE
  5
3BDD
  8
0
 10
174.7017787186528
 20
282.5
 30
0.0
 11
164.0
 21
282.5
 31
0.0
  0
LINE
  5
3BDE
  8
0
 10
164.0
 20
282.5
 30
0.0
 11
164.0
 21
284.5
 31
0.0
  0
LINE
  5
3BDF
  8
0
 10
164.0
 20
284.5
 30
0.0
 11
165.0
 21
285.5
 31
0.0
  0
LINE
  5
3BE0
  8
0
 10
165.0
 20
285.5
 30
0.0
 11
235.0000000000002
 21
285.5
 31
0.0
  0
LINE
  5
3BE1
  8
0
 10
164.0
 20
267.53469688242131
 30
0.0
 11
164.0
 21
275.5
 31
0.0
  0
LINE
  5
3BE2
  8
0
 10
174.7017787186528
 20
275.5
 30
0.0
 11
164.0
 21
275.5
 31
0.0
  0
POLYLINE
  5
3BE3
  8
0
 66
     1
 10
0.0
 20
0.0
 30
0.0
 70
   128
  0
VERTEX
  5
422C
  8
0
 10
174.7017787186528
 20
275.5
 30
0.0
  0
VERTEX
  5
422D
  8
0
 10
176.03633843031071
 20
274.74646894055741
 30
0.0
  0
VERTEX
  5
422E
  8
0
 10
179.91746322698731
 20
272.72266710487582
 30
0.0
  0
VERTEX
  5
422F
  8
0
 10
183.92452728299659
 20
270.92614390319102
 30
0.0
  0
VERTEX
  5
4230
  8
0
 10
186.00252835690949
 20
270.12549951002728
 30
0.0
  0
VERTEX
  5
4231
  8
0
 10
188.11562409309431
 20
269.41092706195201
 30
0.0
  0
VERTEX
  5
4232
  8
0
 10
190.2724869443673
 20
268.79107815882378
 30
0.0
  0
VERTEX
  5
4233
  8
0
 10
192.46357245119589
 20
268.28039885860909
 30
0.0
  0
VERTEX
  5
4234
  8
0
 10
195.59418637569749
 20
267.76859790083
 30
0.0
  0
VERTEX
  5
4235
  8
0
 10
198.77887582312181
 20
267.52070438310938
 30
0.0
  0
VERTEX
  5
4236
  8
0
 10
202.04736112344881
 20
267.55817088497162
 30
0.0
  0
VERTEX
  5
4237
  8
0
 10
205.3258874371561
 20
267.89182706313687
 30
0.0
  0
VERTEX
  5
4238
  8
0
 10
207.27491688004849
 20
268.22770637559091
 30
0.0
  0
VERTEX
  5
4239
  8
0
 10
209.21621121837489
 20
268.66102844745899
 30
0.0
  0
VERTEX
  5
423A
  8
0
 10
211.1356921146093
 20
269.18293564561259
 30
0.0
  0
VERTEX
  5
423B
  8
0
 10
214.0212926505603
 20
270.13415730377471
 30
0.0
  0
VERTEX
  5
423C
  8
0
 10
216.84871981854349
 20
271.24769627945477
 30
0.0
  0
VERTEX
  5
423D
  8
0
 10
220.5693528941558
 20
272.96201006324128
 30
0.0
  0
VERTEX
  5
423E
  8
0
 10
222.95203827903879
 20
274.19421578109228
 30
0.0
  0
VERTEX
  5
423F
  8
0
 10
225.298221281347
 20
275.5
 30
0.0
  0
SEQEND
  5
4240
  8
0
  0
LINE
  5
3BE4
  8
0
 10
236.0
 20
275.5
 30
0.0
 11
236.0
 21
267.53079225043189
 31
0.0
  0
LINE
  5
3BE5
  8
0
 10
164.0
 20
275.5
 30
0.0
 11
164.0
 21
282.5
 31
0.0
  0
LINE
  5
3BE6
  8
0
 10
174.7017787186528
 20
282.5
 30
0.0
 11
174.7017787186528
 21
275.5
 31
0.0
  0
LINE
  5
3BE8
  8
0
 10
168.7999999999999
 20
255.5
 30
0.0
 11
231.19999999999979
 21
255.5
 31
0.0
  0
LINE
  5
3BEA
  8
0
 10
221.99360741434069
 20
252.5
 30
0.0
 11
178.00781392080739
 21
252.5
 31
0.0
  0
CIRCLE
  5
3BEC
  8
0
 10
200.0
 20
240.0
 30
0.0
 40
4.0500000011178647
  0
POLYLINE
  5
3BED
  8
0
 66
     1
 10
0.0
 20
0.0
 30
0.0
 70
   128
  0
VERTEX
  5
4241
  8
0
 10
203.70774272339301
 20
223.69999999726971
 30
0.0
  0
VERTEX
  5
4242
  8
0
 10
202.56114805997521
 20
224.5995226108505
 30
0.0
  0
VERTEX
  5
4243
  8
0
 10
201.9467479466862
 20
225.00707590406449
 30
0.0
  0
VERTEX
  5
4244
  8
0
 10
201.2867906588281
 20
225.35345295847131
 30
0.0
  0
VERTEX
  5
4245
  8
0
 10
200.8310298081351
 20
225.51919162728521
 30
0.0
  0
VERTEX
  5
4246
  8
0
 10
200.34398569884519
 20
225.61501044057579
 30
0.0
  0
VERTEX
  5
4247
  8
0
 10
199.99999696470621
 20
225.6265905539961
 30
0.0
  0
VERTEX
  5
4248
  8
0
 10
199.55180454935791
 20
225.57610799999259
 30
0.0
  0
VERTEX
  5
4249
  8
0
 10
199.1061147260132
 20
225.4605576807464
 30
0.0
  0
VERTEX
  5
424A
  8
0
 10
198.3001435100652
 20
225.1077236924221
 30
0.0
  0
VERTEX
  5
424B
  8
0
 10
197.53310247590679
 20
224.63813256580571
 30
0.0
  0
VERTEX
  5
424C
  8
0
 10
196.29611467236529
 20
223.69999999723061
 30
0.0
  0
SEQEND
  5
424D
  8
0
  0
LINE
  5
3BEE
  8
0
 10
196.2961146701129
 20
223.6999999995453
 30
0.0
 11
196.40125858961071
 21
218.99872075772529
 31
0.0
  0
LINE
  5
3BF1
  8
0
 10
203.60625890540811
 20
218.9987094374203
 30
0.0
 11
203.70774272564239
 21
223.69999999909581
 31
0.0
  0
LINE
  5
3BF2
  8
0
 10
203.70774272367339
 20
223.69999999751019
 30
0.0
 11
196.29611467010821
 21
223.6999999997727
 31
0.0
  0
ARC
  5
3BF3
  8
0
 10
203.11995911019659
 20
222.58348472609879
 30
0.0
 40
7.6148625230951348
 50
208.0817882985975
 51
221.88010493300939
  0
LINE
  5
3BF5
  8
0
 10
179.7620527524584
 20
217.5
 30
0.0
 11
220.25547923083829
 21
217.5
 31
0.0
  0
POLYLINE
  5
3BF6
  8
0
 66
     1
 10
0.0
 20
0.0
 30
0.0
 70
   128
  0
VERTEX
  5
424E
  8
0
 10
203.6070115707239
 20
218.99817476817509
 30
0.0
  0
VERTEX
  5
424F
  8
0
 10
203.152811519057
 20
218.23207301126601
 30
0.0
  0
VERTEX
  5
4250
  8
0
 10
202.60321393274759
 20
217.5000374686077
 30
0.0
  0
SEQEND
  5
4251
  8
0
  0
LINE
  5
3BF8
  8
0
 10
190.9999999999998
 20
217.0
 30
0.0
 11
209.0
 21
217.0
 31
0.0
  0
LINE
  5
3BF9
  8
0
 10
209.5
 20
217.5
 30
0.0
 11
209.5
 21
217.2991712479147
 31
0.0
  0
LINE
  5
3BFA
  8
0
 10
190.5
 20
217.29988218423529
 30
0.0
 11
190.5
 21
217.5
 31
0.0
  0
LINE
  5
3BFE
  8
0
 10
191.0
 20
208.0
 30
0.0
 11
209.0
 21
208.0
 31
0.0
  0
LINE
  5
3BFF
  8
0
 10
207.5
 20
200.0
 30
0.0
 11
192.5
 21
200.0
 31
0.0
  0
LINE
  5
3C06
  8
0
 10
190.5
 20
202.0
 30
0.0
 11
209.5
 21
202.0
 31
0.0
  0
CIRCLE
  5
3CA8
  8
0
 10
200.0
 20
100.0
 30
0.0
 40
9.5
  0
CIRCLE
  5
3CA9
  8
0
 10
200.0
 20
100.0
 30
0.0
 40
7.5
  0
ARC
  5
3CAA
  8
0
 10
200.0
 20
99.999999999999943
 30
0.0
 40
10.749999999999989
 50
27.90547279107188
 51
32.094527208924497
  0
LINE
  5
3CAB
  8
0
 10
209.5
 20
105.0311529493744
 30
0.0
 11
209.5
 21
94.968847050625413
 31
0.0
  0
ARC
  5
3CAC
  8
0
 10
200.0
 20
99.999999999999943
 30
0.0
 40
10.749999999999989
 50
327.90547279107551
 51
332.09452720892813
  0
LINE
  5
3CAD
  8
0
 10
209.10710626448329
 20
94.288335138735022
 30
0.0
 11
200.39289373551651
 21
89.257182189360535
 31
0.0
  0
ARC
  5
3CAE
  8
0
 10
200.0
 20
99.999999999999943
 30
0.0
 40
10.749999999999989
 50
267.90547279107432
 51
272.0945272089258
  0
LINE
  5
3CAF
  8
0
 10
199.60710626448321
 20
89.257182189360535
 30
0.0
 11
190.89289373551651
 21
94.288335138735022
 31
0.0
  0
ARC
  5
3CB0
  8
0
 10
200.0
 20
99.999999999999943
 30
0.0
 40
10.75
 50
207.90547279107301
 51
212.09452720892551
  0
LINE
  5
3CB1
  8
0
 10
190.5
 20
94.968847050625413
 30
0.0
 11
190.5
 21
105.0311529493745
 31
0.0
  0
ARC
  5
3CB2
  8
0
 10
200.0
 20
99.999999999999943
 30
0.0
 40
10.75
 50
147.90547279107551
 51
152.0945272089281
  0
LINE
  5
3CB3
  8
0
 10
190.89289373551651
 20
105.71166486126479
 30
0.0
 11
199.60710626448321
 21
110.74281781063929
 31
0.0
  0
ARC
  5
3CB4
  8
0
 10
200.0
 20
99.999999999999943
 30
0.0
 40
10.74999999999998
 50
87.905472791074232
 51
92.094527208925754
  0
LINE
  5
3CB5
  8
0
 10
200.39289373551651
 20
110.74281781063929
 30
0.0
 11
209.10710626448329
 21
105.71166486126479
 31
0.0
  0
ARC
  5
3CB6
  8
0
 10
200.0
 20
122.9999999999999
 30
0.0
 40
5.0000000000071232
 50
239.34101276150921
 51
301.37580574428853
  0
POLYLINE
  5
3CBB
  8
0
 66
     1
 10
0.0
 20
0.0
 30
0.0
 70
   128
  0
VERTEX
  5
4252
  8
0
 10
196.40126212597119
 20
119.5288448555779
 30
0.0
  0
VERTEX
  5
4253
  8
0
 10
194.61156078389851
 20
119.3040510841671
 30
0.0
  0
VERTEX
  5
4254
  8
0
 10
192.8336543425425
 20
118.95739114333919
 30
0.0
  0
VERTEX
  5
4255
  8
0
 10
191.09124913194341
 20
118.4896052527733
 30
0.0
  0
VERTEX
  5
4256
  8
0
 10
189.37557679073939
 20
117.9067567681811
 30
0.0
  0
VERTEX
  5
4257
  8
0
 10
187.67899157311581
 20
117.20182371514601
 30
0.0
  0
VERTEX
  5
4258
  8
0
 10
186.03093024282381
 20
116.3678745876507
 30
0.0
  0
VERTEX
  5
4259
  8
0
 10
185.06594152815609
 20
115.7941987626494
 30
0.0
  0
VERTEX
  5
425A
  8
0
 10
183.23107346779099
 20
114.4668523681342
 30
0.0
  0
VERTEX
  5
425B
  8
0
 10
182.37794305492889
 20
113.70268233893169
 30
0.0
  0
VERTEX
  5
425C
  8
0
 10
181.44964564786821
 20
112.6984384786537
 30
0.0
  0
VERTEX
  5
425D
  8
0
 10
180.64843735933911
 20
111.5914346865561
 30
0.0
  0
VERTEX
  5
425E
  8
0
 10
180.18977805735719
 20
110.7785238767399
 30
0.0
  0
VERTEX
  5
425F
  8
0
 10
179.73438585244429
 20
109.735917117803
 30
0.0
  0
VERTEX
  5
4260
  8
0
 10
179.38547914869901
 20
108.6524849236674
 30
0.0
  0
VERTEX
  5
4261
  8
0
 10
179.08772980846649
 20
107.2949523273448
 30
0.0
  0
VERTEX
  5
4262
  8
0
 10
178.8959167430373
 20
105.7268072918786
 30
0.0
  0
VERTEX
  5
4263
  8
0
 10
178.83846708060329
 20
104.1356488748728
 30
0.0
  0
VERTEX
  5
4264
  8
0
 10
178.90320512696621
 20
102.5138006942615
 30
0.0
  0
VERTEX
  5
4265
  8
0
 10
179.0798136572991
 20
100.89232155317561
 30
0.0
  0
VERTEX
  5
4266
  8
0
 10
179.5225008327393
 20
98.542359208789335
 30
0.0
  0
VERTEX
  5
4267
  8
0
 10
180.16807465831079
 20
96.221224492298603
 30
0.0
  0
VERTEX
  5
4268
  8
0
 10
180.99010575354481
 20
93.976333586493979
 30
0.0
  0
VERTEX
  5
4269
  8
0
 10
181.9863600375167
 20
91.787644592532715
 30
0.0
  0
VERTEX
  5
426A
  8
0
 10
183.16598202977269
 20
89.643140307080074
 30
0.0
  0
VERTEX
  5
426B
  8
0
 10
184.512932730682
 20
87.582547798208708
 30
0.0
  0
VERTEX
  5
426C
  8
0
 10
186.12584305152129
 20
85.498485506178724
 30
0.0
  0
VERTEX
  5
426D
  8
0
 10
187.9257390494831
 20
83.547084489808853
 30
0.0
  0
VERTEX
  5
426E
  8
0
 10
189.42855140738669
 20
82.161659350615508
 30
0.0
  0
VERTEX
  5
426F
  8
0
 10
191.0407296874686
 20
80.886631205294321
 30
0.0
  0
VERTEX
  5
4270
  8
0
 10
192.17911824315891
 20
80.107989563388884
 30
0.0
  0
VERTEX
  5
4271
  8
0
 10
194.19959721582771
 20
78.960747460454627
 30
0.0
  0
VERTEX
  5
4272
  8
0
 10
195.27081531493801
 20
78.473672909413523
 30
0.0
  0
VERTEX
  5
4273
  8
0
 10
196.37880377565941
 20
78.060967432858831
 30
0.0
  0
VERTEX
  5
4274
  8
0
 10
198.18944854525779
 20
77.600323444763262
 30
0.0
  0
VERTEX
  5
4275
  8
0
 10
199.14063444003179
 20
77.476295718898371
 30
0.0
  0
VERTEX
  5
4276
  8
0
 10
200.09900532547789
 20
77.439668419944624
 30
0.0
  0
VERTEX
  5
4277
  8
0
 10
201.510359204553
 20
77.552567145131007
 30
0.0
  0
VERTEX
  5
4278
  8
0
 10
202.8972044300545
 20
77.843294726395456
 30
0.0
  0
VERTEX
  5
4279
  8
0
 10
203.82022533307421
 20
78.128036404449674
 30
0.0
  0
VERTEX
  5
427A
  8
0
 10
205.232072336513
 20
78.691721529755242
 30
0.0
  0
VERTEX
  5
427B
  8
0
 10
206.60115035450031
 20
79.379336166062288
 30
0.0
  0
VERTEX
  5
427C
  8
0
 10
207.93936103692769
 20
80.184355529834505
 30
0.0
  0
VERTEX
  5
427D
  8
0
 10
209.22580443138281
 20
81.083095565068874
 30
0.0
  0
VERTEX
  5
427E
  8
0
 10
211.03547960865399
 20
82.567949545838715
 30
0.0
  0
VERTEX
  5
427F
  8
0
 10
212.72505824528409
 20
84.213478472854973
 30
0.0
  0
VERTEX
  5
4280
  8
0
 10
214.30920986805589
 20
86.026692845000426
 30
0.0
  0
VERTEX
  5
4281
  8
0
 10
215.75720264034771
 20
87.968792685929259
 30
0.0
  0
VERTEX
  5
4282
  8
0
 10
217.05104764465929
 20
90.009838932921809
 30
0.0
  0
VERTEX
  5
4283
  8
0
 10
218.19437661831489
 20
92.154441799119823
 30
0.0
  0
VERTEX
  5
4284
  8
0
 10
219.1884469439494
 20
94.41977224737073
 30
0.0
  0
VERTEX
  5
4285
  8
0
 10
220.00424055688291
 20
96.771688866138675
 30
0.0
  0
VERTEX
  5
4286
  8
0
 10
220.4945567513173
 20
98.61578900470613
 30
0.0
  0
VERTEX
  5
4287
  8
0
 10
220.8606837170905
 20
100.4972997598878
 30
0.0
  0
VERTEX
  5
4288
  8
0
 10
221.0904078336323
 20
102.4313405499594
 30
0.0
  0
VERTEX
  5
4289
  8
0
 10
221.16029101859129
 20
104.3906511792219
 30
0.0
  0
VERTEX
  5
428A
  8
0
 10
221.11935102348389
 20
105.50912361331039
 30
0.0
  0
VERTEX
  5
428B
  8
0
 10
220.9296945445258
 20
107.1908307052507
 30
0.0
  0
VERTEX
  5
428C
  8
0
 10
220.55599292563099
 20
108.8605655572831
 30
0.0
  0
VERTEX
  5
428D
  8
0
 10
219.9148718456502
 20
110.5546820941442
 30
0.0
  0
VERTEX
  5
428E
  8
0
 10
218.9997349170292
 20
112.1157392296974
 30
0.0
  0
VERTEX
  5
428F
  8
0
 10
218.30034352590201
 20
112.99260515940991
 30
0.0
  0
VERTEX
  5
4290
  8
0
 10
217.52127721974739
 20
113.80022403604769
 30
0.0
  0
VERTEX
  5
4291
  8
0
 10
216.48792085297239
 20
114.6953968021833
 30
0.0
  0
VERTEX
  5
4292
  8
0
 10
215.1552941092321
 20
115.6520817091771
 30
0.0
  0
VERTEX
  5
4293
  8
0
 10
213.73433625122539
 20
116.4972749945166
 30
0.0
  0
VERTEX
  5
4294
  8
0
 10
212.2242722137448
 20
117.2458681126852
 30
0.0
  0
VERTEX
  5
4295
  8
0
 10
210.65954173558291
 20
117.8936943867801
 30
0.0
  0
VERTEX
  5
4296
  8
0
 10
208.9601825722275
 20
118.4737654616912
 30
0.0
  0
VERTEX
  5
4297
  8
0
 10
207.2198872910169
 20
118.9454596521546
 30
0.0
  0
VERTEX
  5
4298
  8
0
 10
205.42618094729571
 20
119.2964340737923
 30
0.0
  0
VERTEX
  5
4299
  8
0
 10
203.606239860324
 20
119.53658480828101
 30
0.0
  0
SEQEND
  5
429A
  8
0
  0
ARC
  5
3CBC
  8
0
 10
200.00000000022121
 20
123.0000000002367
 30
0.0
 40
5.0000000003236069
 50
223.97101855559259
 51
239.34101276071411
  0
POLYLINE
  5
3CBD
  8
0
 66
     1
 10
0.0
 20
0.0
 30
0.0
 70
   128
  0
VERTEX
  5
429B
  8
0
 10
203.6070115707239
 20
119.537418949878
 30
0.0
  0
VERTEX
  5
429C
  8
0
 10
203.152811519057
 20
119.1193068241225
 30
0.0
  0
VERTEX
  5
429D
  8
0
 10
202.60321393274759
 20
118.7311269378969
 30
0.0
  0
SEQEND
  5
429E
  8
0
  0
CIRCLE
  5
3CBE
  8
0
 10
200.0
 20
99.999999999999943
 30
0.0
 40
16.138693817541849
  0
POLYLINE
  5
3CC1
  8
0
 66
     1
 10
0.0
 20
0.0
 30
0.0
 70
   128
  0
VERTEX
  5
429F
  8
0
 10
199.9999739190223
 20
120.6000001378126
 30
0.0
  0
VERTEX
  5
42A0
  8
0
 10
202.87502690966201
 20
120.4704048773189
 30
0.0
  0
VERTEX
  5
42A1
  8
0
 10
205.73019420019889
 20
120.0978911037603
 30
0.0
  0
VERTEX
  5
42A2
  8
0
 10
208.53836390231839
 20
119.4636184557441
 30
0.0
  0
VERTEX
  5
42A3
  8
0
 10
210.5963211587507
 20
118.8100174027736
 30
0.0
  0
VERTEX
  5
42A4
  8
0
 10
212.59772203511761
 20
117.99886706059939
 30
0.0
  0
VERTEX
  5
42A5
  8
0
 10
214.52138034207161
 20
117.01904596786009
 30
0.0
  0
VERTEX
  5
42A6
  8
0
 10
216.34055451380641
 20
115.8562721983356
 30
0.0
  0
VERTEX
  5
42A7
  8
0
 10
217.4742456242447
 20
114.96946289624699
 30
0.0
  0
VERTEX
  5
42A8
  8
0
 10
218.52481650957361
 20
113.9853025001278
 30
0.0
  0
VERTEX
  5
42A9
  8
0
 10
219.4649785174943
 20
112.8959474820944
 30
0.0
  0
VERTEX
  5
42AA
  8
0
 10
220.26498379215511
 20
111.7000280730329
 30
0.0
  0
VERTEX
  5
42AB
  8
0
 10
220.90067430276869
 20
110.4092429469019
 30
0.0
  0
VERTEX
  5
42AC
  8
0
 10
221.3740134819854
 20
109.05036092680329
 30
0.0
  0
VERTEX
  5
42AD
  8
0
 10
221.81629379720221
 20
106.9378855664544
 30
0.0
  0
VERTEX
  5
42AE
  8
0
 10
221.99218467149919
 20
104.7863954326323
 30
0.0
  0
VERTEX
  5
42AF
  8
0
 10
221.94592070169551
 20
102.6279206160912
 30
0.0
  0
VERTEX
  5
42B0
  8
0
 10
221.70681072617501
 20
100.4818925901817
 30
0.0
  0
VERTEX
  5
42B1
  8
0
 10
221.12422490552899
 20
97.662951668346381
 30
0.0
  0
VERTEX
  5
42B2
  8
0
 10
220.27035562084211
 20
94.913607875211355
 30
0.0
  0
VERTEX
  5
42B3
  8
0
 10
219.17009502204471
 20
92.253369515503181
 30
0.0
  0
VERTEX
  5
42B4
  8
0
 10
217.84011932135081
 20
89.700033464948334
 30
0.0
  0
VERTEX
  5
42B5
  8
0
 10
216.2938228278683
 20
87.271594295707473
 30
0.0
  0
VERTEX
  5
42B6
  8
0
 10
214.54011380987501
 20
84.988624815018355
 30
0.0
  0
VERTEX
  5
42B7
  8
0
 10
212.58607498003971
 20
82.874450525077577
 30
0.0
  0
VERTEX
  5
42B8
  8
0
 10
210.43612246657949
 20
80.960420014942585
 30
0.0
  0
VERTEX
  5
42B9
  8
0
 10
208.09364546754821
 20
79.288043179856174
 30
0.0
  0
VERTEX
  5
42BA
  8
0
 10
206.2120992706293
 20
78.228973885241572
 30
0.0
  0
VERTEX
  5
42BB
  8
0
 10
204.2268315282636
 20
77.382088447513723
 30
0.0
  0
VERTEX
  5
42BC
  8
0
 10
202.84922368242471
 20
76.964416011233794
 30
0.0
  0
VERTEX
  5
42BD
  8
0
 10
201.4357183740222
 20
76.694907767731323
 30
0.0
  0
VERTEX
  5
42BE
  8
0
 10
200.00002610710609
 20
76.600000000032551
 30
0.0
  0
VERTEX
  5
42BF
  8
0
 10
198.56433342627841
 20
76.694901018226346
 30
0.0
  0
VERTEX
  5
42C0
  8
0
 10
197.1508269859898
 20
76.964403373105398
 30
0.0
  0
VERTEX
  5
42C1
  8
0
 10
195.7732176964634
 20
77.38207096208923
 30
0.0
  0
VERTEX
  5
42C2
  8
0
 10
193.7879475001248
 20
78.228950629184965
 30
0.0
  0
VERTEX
  5
42C3
  8
0
 10
191.90639874650651
 20
79.28801539278561
 30
0.0
  0
VERTEX
  5
42C4
  8
0
 10
189.56391827975881
 20
80.960387327500086
 30
0.0
  0
VERTEX
  5
42C5
  8
0
 10
187.4139622469915
 20
82.874413895801666
 30
0.0
  0
VERTEX
  5
42C6
  8
0
 10
185.4599198296996
 20
84.988584857897962
 30
0.0
  0
VERTEX
  5
42C7
  8
0
 10
183.70620712061509
 20
87.271551509082741
 30
0.0
  0
VERTEX
  5
42C8
  8
0
 10
182.1599067948311
 20
89.699988231244305
 30
0.0
  0
VERTEX
  5
42C9
  8
0
 10
180.8299270595933
 20
92.253322181068327
 30
0.0
  0
VERTEX
  5
42CA
  8
0
 10
179.729662162952
 20
94.913558764161337
 30
0.0
  0
VERTEX
  5
42CB
  8
0
 10
178.87578820181989
 20
97.662901129932067
 30
0.0
  0
VERTEX
  5
42CC
  8
0
 10
178.29319720862981
 20
100.4818409462796
 30
0.0
  0
VERTEX
  5
42CD
  8
0
 10
178.05408283871469
 20
102.6278684679628
 30
0.0
  0
VERTEX
  5
42CE
  8
0
 10
178.00781392080739
 20
104.7863432536849
 30
0.0
  0
VERTEX
  5
42CF
  8
0
 10
178.18369892751679
 20
106.93783394502751
 30
0.0
  0
VERTEX
  5
42D0
  8
0
 10
178.62597213102319
 20
109.050310439878
 30
0.0
  0
VERTEX
  5
42D1
  8
0
 10
179.0993056411958
 20
110.40919513888041
 30
0.0
  0
VERTEX
  5
42D2
  8
0
 10
179.7349901007596
 20
111.6999828538234
 30
0.0
  0
VERTEX
  5
42D3
  8
0
 10
180.5349897384281
 20
112.8959033989635
 30
0.0
  0
VERTEX
  5
42D4
  8
0
 10
181.47514720951239
 20
113.985275261208
 30
0.0
  0
VERTEX
  5
42D5
  8
0
 10
182.52571461927519
 20
114.9694330104624
 30
0.0
  0
VERTEX
  5
42D6
  8
0
 10
183.6594030872991
 20
115.8561774315323
 30
0.0
  0
VERTEX
  5
42D7
  8
0
 10
185.47857426855049
 20
117.0190417577286
 30
0.0
  0
VERTEX
  5
42D8
  8
0
 10
187.40223041361099
 20
117.99929569164171
 30
0.0
  0
VERTEX
  5
42D9
  8
0
 10
189.4036296916085
 20
118.8099224298328
 30
0.0
  0
VERTEX
  5
42DA
  8
0
 10
191.46158576724699
 20
119.4616303911498
 30
0.0
  0
VERTEX
  5
42DB
  8
0
 10
194.26975435916819
 20
120.097741438491
 30
0.0
  0
VERTEX
  5
42DC
  8
0
 10
197.1249210473311
 20
120.4797940219033
 30
0.0
  0
VERTEX
  5
42DD
  8
0
 10
199.9999739190223
 20
120.6000001378126
 30
0.0
  0
SEQEND
  5
42DE
  8
0
  0
ARC
  5
3CC2
  8
0
 10
200.01621915809099
 20
94.772853545709665
 30
0.0
 40
25.145100584556278
 50
81.557959638490544
 51
98.507884013583222
  0
LINE
  5
3CC3
  8
0
 10
196.2961146701129
 20
119.6412452511311
 30
0.0
 11
196.40125858961071
 21
119.5288243690139
 31
0.0
  0
LINE
  5
3CC4
  8
0
 10
203.60625890540811
 20
119.5366350600649
 30
0.0
 11
203.70774272564239
 21
119.64550393047681
 31
0.0
  0
CIRCLE
  5
3CC5
  8
0
 10
200.0
 20
99.999999999999915
 30
0.0
 40
14.00000000073292
  0
CIRCLE
  5
3CE1
  8
0
 10
200.0
 20
99.999999999999801
 30
0.0
 40
31.500000000000021
  0
LINE
  5
3CE3
  8
0
 10
164.0
 20
74.70177871865269
 30
0.0
 11
164.0
 21
125.2982212813467
 31
0.0
  0
ARC
  5
3CE4
  8
0
 10
200.0
 20
99.999999999999744
 30
0.0
 40
44.000000000000007
 50
125.0968012275829
 51
144.90319877241819
  0
LINE
  5
3CE5
  8
0
 10
174.7017787186528
 20
135.99999999999969
 30
0.0
 11
225.298221281347
 21
135.99999999999969
 31
0.0
  0
ARC
  5
3CE6
  8
0
 10
200.0
 20
99.999999999999744
 30
0.0
 40
44.0
 50
35.096801227581778
 51
54.903198772417099
  0
LINE
  5
3CE7
  8
0
 10
236.0
 20
125.2982212813467
 30
0.0
 11
236.0
 21
74.70177871865269
 31
0.0
  0
ARC
  5
3CE8
  8
0
 10
200.0
 20
99.999999999999744
 30
0.0
 40
43.999999999999993
 50
305.09680122758289
 51
324.90319877241819
  0
LINE
  5
3CE9
  8
0
 10
225.298221281347
 20
63.999999999999737
 30
0.0
 11
174.7017787186528
 21
63.999999999999737
 31
0.0
  0
ARC
  5
3CEA
  8
0
 10
200.0
 20
99.999999999999744
 30
0.0
 40
44.0
 50
215.096801227588
 51
234.90319877241711
  0
LINE
  5
3D2E
  8
0
 10
221.63330765278371
 20
421.49999999999989
 30
0.0
 11
225.298221281347
 21
421.49999999999989
 31
0.0
  0
ARC
  5
3D2F
  8
0
 10
200.0
 20
385.5
 30
0.0
 40
44.0
 50
35.096801227581942
 51
54.903198772417007
  0
LINE
  5
3D30
  8
0
 10
236.0
 20
410.79822128134691
 30
0.0
 11
236.0
 21
407.13330765278403
 31
0.0
  0
LINE
  5
3D31
  8
0
 10
236.0
 20
407.13330765278403
 30
0.0
 11
235.0
 21
406.85415650406259
 31
0.0
  0
ARC
  5
3D32
  8
0
 10
200.0
 20
385.5
 30
0.0
 40
40.999999999999993
 50
31.388149827937049
 51
58.611850172063697
  0
LINE
  5
3D33
  8
0
 10
221.3541565040625
 20
420.5
 30
0.0
 11
221.633307652784
 21
421.49999999999989
 31
0.0
  0
LINE
  5
3D34
  8
0
 10
178.366692347216
 20
421.49999999999989
 30
0.0
 11
178.64584349593721
 21
420.5
 31
0.0
  0
LINE
  5
3D35
  8
0
 10
178.366692347216
 20
421.49999999999989
 30
0.0
 11
221.63330765278371
 21
421.49999999999989
 31
0.0
  0
LINE
  5
3D36
  8
0
 10
221.3541565040625
 20
420.5
 30
0.0
 11
178.64584349593721
 21
420.5
 31
0.0
  0
LINE
  5
3D37
  8
0
 10
164.0
 20
407.13330765278403
 30
0.0
 11
164.0
 21
410.79822128134691
 31
0.0
  0
ARC
  5
3D38
  8
0
 10
200.0
 20
385.5
 30
0.0
 40
44.000000000000007
 50
125.096801227583
 51
144.90319877241799
  0
LINE
  5
3D39
  8
0
 10
174.7017787186528
 20
421.49999999999989
 30
0.0
 11
178.366692347216
 21
421.49999999999989
 31
0.0
  0
ARC
  5
3D3A
  8
0
 10
200.0
 20
385.5
 30
0.0
 40
41.000000000000007
 50
121.3881498279362
 51
148.6118501720629
  0
LINE
  5
3D3B
  8
0
 10
165.0
 20
406.85415650406259
 30
0.0
 11
164.0
 21
407.13330765278403
 31
0.0
  0
ARC
  5
3D3C
  8
0
 10
200.0
 20
385.5
 30
0.0
 40
40.999999999999979
 50
211.38814982793801
 51
238.6118501720639
  0
LINE
  5
3D3D
  8
0
 10
165.0
 20
406.85415650406259
 30
0.0
 11
165.0
 21
364.1458434959373
 31
0.0
  0
LINE
  5
3D3E
  8
0
 10
235.0
 20
364.1458434959373
 30
0.0
 11
235.0
 21
406.85415650406247
 31
0.0
  0
ARC
  5
3D3F
  8
0
 10
200.0
 20
385.5
 30
0.0
 40
40.999999999999993
 50
301.38814982793622
 51
328.61185017206299
  0
LINE
  5
3D40
  8
0
 10
178.64584349593721
 20
350.5
 30
0.0
 11
221.3541565040625
 21
350.5
 31
0.0
  0
CIRCLE
  5
3D51
  8
0
 10
200.0
 20
411.5
 30
0.0
 40
3.0
  0
LINE
  5
3D54
  8
0
 10
236.0
 20
407.13330765278403
 30
0.0
 11
236.0
 21
363.86669234721597
 31
0.0
  0
LINE
  5
3D55
  8
0
 10
235.0
 20
364.1458434959373
 30
0.0
 11
236.0
 21
363.86669234721597
 31
0.0
  0
LINE
  5
3D56
  8
0
 10
164.0
 20
363.86669234721597
 30
0.0
 11
165.0
 21
364.1458434959373
 31
0.0
  0
LINE
  5
3D57
  8
0
 10
164.0
 20
363.86669234721597
 30
0.0
 11
164.0
 21
407.13330765278403
 31
0.0
  0
CIRCLE
  5
3D5E
  8
0
 10
200.0
 20
385.5
 30
0.0
 40
14.0
  0
LINE
  5
3D63
  8
0
 10
178.366692347216
 20
349.5
 30
0.0
 11
174.7017787186528
 21
349.5
 31
0.0
  0
ARC
  5
3D64
  8
0
 10
200.0
 20
385.5
 30
0.0
 40
44.000000000000007
 50
215.096801227588
 51
234.903198772417
  0
LINE
  5
3D65
  8
0
 10
164.0
 20
360.20177871865292
 30
0.0
 11
164.0
 21
363.86669234721597
 31
0.0
  0
LINE
  5
3D66
  8
0
 10
178.64584349593721
 20
350.5
 30
0.0
 11
178.366692347216
 21
349.5
 31
0.0
  0
LINE
  5
3D67
  8
0
 10
236.0
 20
363.86669234721597
 30
0.0
 11
236.0
 21
360.20177871865292
 31
0.0
  0
ARC
  5
3D68
  8
0
 10
200.0
 20
385.5
 30
0.0
 40
44.0
 50
305.096801227583
 51
324.90319877241802
  0
LINE
  5
3D69
  8
0
 10
225.298221281347
 20
349.5
 30
0.0
 11
221.633307652784
 21
349.5
 31
0.0
  0
LINE
  5
3D6A
  8
0
 10
221.633307652784
 20
349.5
 30
0.0
 11
221.3541565040625
 21
350.5
 31
0.0
  0
LINE
  5
3D6D
  8
0
 10
221.633307652784
 20
349.5
 30
0.0
 11
178.366692347216
 21
349.5
 31
0.0
  0
CIRCLE
  5
3D70
  8
0
 10
200.0
 20
385.5
 30
0.0
 40
9.0500000004145278
  0
LINE
  5
3DC7
  8
0
 10
364.00000000000011
 20
267.50000000000011
 30
0.0
 11
367.62132034355989
 21
263.87867965644051
 31
0.0
  0
LINE
  5
3DC8
  8
0
 10
432.37867965644051
 20
263.87867965644051
 30
0.0
 11
436.00000000000011
 21
267.50000000000011
 31
0.0
  0
ARC
  5
3DC9
  8
0
 10
434.50000000000011
 20
261.75735931288091
 30
0.0
 40
3.0
 50
135.0000000000004
 51
180.00000000000159
  0
ARC
  5
3DCA
  8
0
 10
365.50000000000011
 20
261.75735931288091
 30
0.0
 40
3.0
 50
0.0
 51
44.999999999999602
  0
ARC
  5
3DCB
  8
0
 10
368.8000000000003
 20
255.80000000000001
 30
0.0
 40
0.2999999999999829
 50
180.0
 51
270.0
  0
ARC
  5
3DCC
  8
0
 10
431.20000000000022
 20
255.80000000000001
 30
0.0
 40
0.3000000000000114
 50
270.0
 51
0.0
  0
LINE
  5
3DCD
  8
0
 10
368.50000000000011
 20
261.75735931288091
 30
0.0
 11
368.50000000000011
 21
255.80000000000001
 31
0.0
  0
LINE
  5
3DCE
  8
0
 10
431.50000000000011
 20
255.80000000000001
 30
0.0
 11
431.50000000000011
 21
261.75735931288079
 31
0.0
  0
LINE
  5
3DCF
  8
0
 10
423.39999999999992
 20
252.5
 30
0.0
 11
423.39999999999992
 21
255.5
 31
0.0
  0
LINE
  5
3DD0
  8
0
 10
379.39958114604048
 20
255.5
 30
0.0
 11
379.39958114604048
 21
252.5
 31
0.0
  0
POLYLINE
  5
3DD2
  8
0
 66
     1
 10
0.0
 20
0.0
 30
0.0
 70
   128
  0
VERTEX
  5
42DF
  8
0
 10
379.39958114794553
 20
252.5
 30
0.0
  0
VERTEX
  5
42E0
  8
0
 10
379.87993447805297
 20
236.9184706979259
 30
0.0
  0
VERTEX
  5
42E1
  8
0
 10
380.4617815965654
 20
218.99963959719281
 30
0.0
  0
SEQEND
  5
42E2
  8
0
  0
POLYLINE
  5
3DD3
  8
0
 66
     1
 10
0.0
 20
0.0
 30
0.0
 70
   128
  0
VERTEX
  5
42E3
  8
0
 10
422.56080534242631
 20
218.99963959719281
 30
0.0
  0
VERTEX
  5
42E4
  8
0
 10
423.00520799035428
 20
236.74625863752769
 30
0.0
  0
VERTEX
  5
42E5
  8
0
 10
423.39970595436432
 20
252.5
 30
0.0
  0
SEQEND
  5
42E6
  8
0
  0
LINE
  5
3DD4
  8
0
 10
421.64426258000799
 20
217.5
 30
0.0
 11
422.56080534242631
 21
218.99963959719281
 31
0.0
  0
LINE
  5
3DD5
  8
0
 10
390.50000000000011
 20
207.5
 30
0.0
 11
390.50000000000011
 21
202.0
 31
0.0
  0
LINE
  5
3DD6
  8
0
 10
409.50000000000011
 20
202.0
 30
0.0
 11
409.50000000000011
 21
207.5
 31
0.0
  0
ARC
  5
3DD7
  8
0
 10
392.50000000000011
 20
202.0
 30
0.0
 40
2.0
 50
180.0
 51
270.0
  0
ARC
  5
3DD8
  8
0
 10
407.50000000000011
 20
202.0
 30
0.0
 40
2.0
 50
270.0
 51
0.0
  0
ARC
  5
3DD9
  8
0
 10
409.00000000000011
 20
207.5
 30
0.0
 40
0.5
 50
0.0
 51
90.0
  0
ARC
  5
3DDA
  8
0
 10
391.00000000000011
 20
207.5
 30
0.0
 40
0.5
 50
90.0
 51
180.0
  0
LINE
  5
3DDB
  8
0
 10
390.13397459621581
 20
217.5
 30
0.0
 11
391.00000000000011
 21
217.0
 31
0.0
  0
LINE
  5
3DDC
  8
0
 10
409.00000000000028
 20
217.0
 30
0.0
 11
409.86602540378459
 21
217.5
 31
0.0
  0
ARC
  5
3DDD
  8
0
 10
408.2000000000001
 20
209.19999999999999
 30
0.0
 40
1.2000000000000171
 50
180.0
 51
270.0
  0
ARC
  5
3DDE
  8
0
 10
391.8000000000003
 20
209.19999999999999
 30
0.0
 40
1.2000000000000171
 50
270.0
 51
0.0
  0
ARC
  5
3DDF
  8
0
 10
391.8000000000003
 20
215.80000000000001
 30
0.0
 40
1.2000000000000171
 50
0.0
 51
90.0
  0
ARC
  5
3DE0
  8
0
 10
408.2000000000001
 20
215.80000000000001
 30
0.0
 40
1.2000000000000171
 50
90.0
 51
180.0
  0
LINE
  5
3DE1
  8
0
 10
393.00000000000011
 20
215.80000000000001
 30
0.0
 11
393.00000000000011
 21
209.19999999999999
 31
0.0
  0
LINE
  5
3DE2
  8
0
 10
407.00000000000011
 20
209.19999999999999
 30
0.0
 11
407.00000000000011
 21
215.80000000000001
 31
0.0
  0
LINE
  5
3DE3
  8
0
 10
436.00000000000011
 20
284.5
 30
0.0
 11
436.00000000000011
 21
282.5
 31
0.0
  0
LINE
  5
3DE4
  8
0
 10
436.00000000000011
 20
282.5
 30
0.0
 11
425.29822128134708
 21
282.5
 31
0.0
  0
LINE
  5
3DE5
  8
0
 10
425.29822128134708
 20
282.5
 30
0.0
 11
421.63330765278403
 21
284.5
 31
0.0
  0
LINE
  5
3DE6
  8
0
 10
421.63330765278403
 20
284.5
 30
0.0
 11
421.35415650406259
 21
285.5
 31
0.0
  0
LINE
  5
3DE8
  8
0
 10
435.00000000000011
 20
285.5
 30
0.0
 11
436.00000000000011
 21
284.5
 31
0.0
  0
LINE
  5
3DE9
  8
0
 10
436.00000000000011
 20
275.5
 30
0.0
 11
425.29822128134708
 21
275.5
 31
0.0
  0
LINE
  5
3DEA
  8
0
 10
425.29822128134708
 20
275.5
 30
0.0
 11
425.29822128134708
 21
282.5
 31
0.0
  0
LINE
  5
3DEB
  8
0
 10
436.00000000000011
 20
282.5
 30
0.0
 11
436.00000000000011
 21
275.5
 31
0.0
  0
LINE
  5
3DEC
  8
0
 10
364.00000000000011
 20
267.53469688242131
 30
0.0
 11
364.00000000000011
 21
275.5
 31
0.0
  0
LINE
  5
3DED
  8
0
 10
374.70177871865292
 20
275.5
 30
0.0
 11
364.00000000000011
 21
275.5
 31
0.0
  0
POLYLINE
  5
3DEE
  8
0
 66
     1
 10
0.0
 20
0.0
 30
0.0
 70
   128
  0
VERTEX
  5
42E7
  8
0
 10
374.70177871865292
 20
275.5
 30
0.0
  0
VERTEX
  5
42E8
  8
0
 10
377.04574559386663
 20
274.19540719259498
 30
0.0
  0
VERTEX
  5
42E9
  8
0
 10
379.43064710584429
 20
272.96201006324128
 30
0.0
  0
VERTEX
  5
42EA
  8
0
 10
383.04275388062382
 20
271.29382107756311
 30
0.0
  0
VERTEX
  5
42EB
  8
0
 10
385.83803345480112
 20
270.18541451797222
 30
0.0
  0
VERTEX
  5
42EC
  8
0
 10
388.22765421538298
 20
269.37595708721551
 30
0.0
  0
VERTEX
  5
42ED
  8
0
 10
390.4271368590027
 20
268.75111136073889
 30
0.0
  0
VERTEX
  5
42EE
  8
0
 10
392.655950171678
 20
268.24146251690149
 30
0.0
  0
VERTEX
  5
42EF
  8
0
 10
394.67411256284379
 20
267.89182706313687
 30
0.0
  0
VERTEX
  5
42F0
  8
0
 10
397.82771415868399
 20
267.56547969702308
 30
0.0
  0
VERTEX
  5
42F1
  8
0
 10
401.02161434059059
 20
267.51449285858268
 30
0.0
  0
VERTEX
  5
42F2
  8
0
 10
404.28309302349498
 20
267.7538947679821
 30
0.0
  0
VERTEX
  5
42F3
  8
0
 10
407.53642754880389
 20
268.28039885860909
 30
0.0
  0
VERTEX
  5
42F4
  8
0
 10
409.65724561791808
 20
268.77287068940569
 30
0.0
  0
VERTEX
  5
42F5
  8
0
 10
411.75132032750957
 20
269.36942737142653
 30
0.0
  0
VERTEX
  5
42F6
  8
0
 10
413.8322071082369
 20
270.06591699266539
 30
0.0
  0
VERTEX
  5
42F7
  8
0
 10
415.88612387058947
 20
270.84931932869631
 30
0.0
  0
VERTEX
  5
42F8
  8
0
 10
419.9761461380059
 20
272.67094138499829
 30
0.0
  0
VERTEX
  5
42F9
  8
0
 10
423.96366156968941
 20
274.74646894055741
 30
0.0
  0
VERTEX
  5
42FA
  8
0
 10
425.29822128134708
 20
275.5
 30
0.0
  0
SEQEND
  5
42FB
  8
0
  0
LINE
  5
3DEF
  8
0
 10
436.00000000000011
 20
275.5
 30
0.0
 11
436.00000000000011
 21
267.53079225043189
 31
0.0
  0
LINE
  5
3DF0
  8
0
 10
374.70177871865292
 20
282.5
 30
0.0
 11
374.70177871865292
 21
275.5
 31
0.0
  0
LINE
  5
3DF1
  8
0
 10
378.3666923472162
 20
284.5
 30
0.0
 11
374.70177871865292
 21
282.5
 31
0.0
  0
LINE
  5
3DF2
  8
0
 10
421.63330765278403
 20
284.5
 30
0.0
 11
378.3666923472162
 21
284.5
 31
0.0
  0
LINE
  5
3DF3
  8
0
 10
378.64584349593758
 20
285.5
 30
0.0
 11
378.3666923472162
 21
284.5
 31
0.0
  0
LINE
  5
3DF5
  8
0
 10
374.70177871865292
 20
282.5
 30
0.0
 11
364.00000000000011
 21
282.5
 31
0.0
  0
LINE
  5
3DF6
  8
0
 10
364.00000000000011
 20
282.5
 30
0.0
 11
364.00000000000011
 21
284.5
 31
0.0
  0
LINE
  5
3DF7
  8
0
 10
364.00000000000011
 20
284.5
 30
0.0
 11
365.00000000000011
 21
285.5
 31
0.0
  0
LINE
  5
3DF8
  8
0
 10
365.00000000000011
 20
285.5
 30
0.0
 11
434.99999999999977
 21
285.5
 31
0.0
  0
LINE
  5
3DF9
  8
0
 10
364.00000000000011
 20
275.5
 30
0.0
 11
364.00000000000011
 21
282.5
 31
0.0
  0
LINE
  5
3DFA
  8
0
 10
368.8000000000003
 20
255.5
 30
0.0
 11
431.20000000000022
 21
255.5
 31
0.0
  0
LINE
  5
3DFC
  8
0
 10
379.39999986218743
 20
252.5
 30
0.0
 11
423.39999999996741
 21
252.5
 31
0.0
  0
POLYLINE
  5
3E01
  8
0
 66
     1
 10
0.0
 20
0.0
 30
0.0
 70
   128
  0
VERTEX
  5
42FC
  8
0
 10
380.4617815965654
 20
218.99963959719281
 30
0.0
  0
VERTEX
  5
42FD
  8
0
 10
380.88069317587758
 20
218.23207301126601
 30
0.0
  0
VERTEX
  5
42FE
  8
0
 10
381.26887306210313
 20
217.5000374686077
 30
0.0
  0
SEQEND
  5
42FF
  8
0
  0
LINE
  5
3E02
  8
0
 10
381.2688989886816
 20
217.5
 30
0.0
 11
421.6391245419864
 21
217.5
 31
0.0
  0
LINE
  5
3E03
  8
0
 10
407.50000000000011
 20
200.0
 30
0.0
 11
392.50000002408672
 21
200.0
 31
0.0
  0
LINE
  5
3E04
  8
0
 10
391.00000000000011
 20
208.0
 30
0.0
 11
409.00000000000011
 21
208.0
 31
0.0
  0
LINE
  5
3E05
  8
0
 10
391.00000000000011
 20
217.0
 30
0.0
 11
409.00000000000011
 21
217.0
 31
0.0
  0
LINE
  5
3E0B
  8
0
 10
431.50000000000011
 20
261.75735931288091
 30
0.0
 11
368.50000000000011
 21
261.75735931288091
 31
0.0
  0
LINE
  5
3E0E
  8
0
 10
390.50000000000011
 20
202.0
 30
0.0
 11
409.50000000000011
 21
202.0
 31
0.0
  0
LINE
  5
3F05
  8
1
 10
200.0
 20
190.0
 30
0.0
 11
200.0
 21
295.5
 31
0.0
  0
LINE
  5
3F06
  8
1
 10
246.0
 20
385.5
 30
0.0
 11
154.0
 21
385.5
 31
0.0
  0
LINE
  5
3F13
  8
1
 10
200.0
 20
339.5
 30
0.0
 11
200.0
 21
431.5
 31
0.0
  0
LINE
  5
3F14
  8
1
 10
200.0
 20
54.0
 30
0.0
 11
200.0
 21
146.0
 31
0.0
  0
LINE
  5
3F15
  8
1
 10
246.0
 20
100.0
 30
0.0
 11
154.0
 21
100.0
 31
0.0
  0
LINE
  5
3F16
  8
1
 10
400.0
 20
190.0
 30
0.0
 11
400.0
 21
295.5
 31
0.0
  0
LINE
  5
3F17
  8
1
 10
224.74873734152899
 20
410.24873734152919
 30
0.0
 11
211.3137084989846
 21
396.81370849898479
 31
0.0
  0
LINE
  5
3F1C
  8
1
 10
182.32233047033651
 20
360.75126265847069
 30
0.0
 11
175.25126265847069
 21
367.82233047033588
 31
0.0
  0
LINE
  5
3F1D
  8
1
 10
188.68629150101509
 20
374.18629150101509
 30
0.0
 11
175.25126265847069
 21
360.75126265847069
 31
0.0
  0
LINE
  5
3F1E
  8
1
 10
188.68629150101529
 20
367.11522368914967
 30
0.0
 11
181.61522368914959
 21
374.18629150101509
 31
0.0
  0
LINE
  5
3F1F
  8
1
 10
218.38477631085021
 20
396.81370849898479
 30
0.0
 11
211.3137084989844
 21
403.8847763108501
 31
0.0
  0
LINE
  5
3F20
  8
1
 10
224.74873734152919
 20
403.17766952966377
 30
0.0
 11
217.67766952966349
 21
410.24873734152902
 31
0.0
  0
LINE
  5
3F21
  8
1
 10
175.25126265847089
 20
410.24873734152919
 30
0.0
 11
188.6862915010156
 21
396.81370849898479
 31
0.0
  0
LINE
  5
3F22
  8
1
 10
211.31370849898479
 20
374.18629150101509
 30
0.0
 11
224.74873734152919
 21
360.75126265847092
 31
0.0
  0
LINE
  5
3F23
  8
1
 10
217.67766952966369
 20
360.75126265847069
 30
0.0
 11
224.74873734152899
 21
367.82233047033623
 31
0.0
  0
LINE
  5
3F24
  8
1
 10
211.31370849898479
 20
367.1152236891499
 30
0.0
 11
218.38477631085041
 21
374.18629150101532
 31
0.0
  0
LINE
  5
3F25
  8
1
 10
181.61522368914979
 20
396.81370849898479
 30
0.0
 11
188.6862915010156
 21
403.88477631084987
 31
0.0
  0
LINE
  5
3F26
  8
1
 10
175.25126265847089
 20
403.1776695296636
 30
0.0
 11
182.32233047033651
 21
410.24873734152902
 31
0.0
  0
LINE
  5
3F2A
  8
1
 10
204.0
 20
353.5
 30
0.0
 11
196.0
 21
353.5
 31
0.0
  0
LINE
  5
3F2B
  8
1
 10
204.0
 20
359.5
 30
0.0
 11
196.0
 21
359.5
 31
0.0
  0
LINE
  5
3F2C
  8
1
 10
206.0
 20
411.5
 30
0.0
 11
194.0
 21
411.5
 31
0.0
  0
LINE
  5
3F2D
  8
1
 10
180.947441116742
 20
396.50000000000011
 30
0.0
 11
168.82308546376001
 21
403.49999999999989
 31
0.0
  0
LINE
  5
3F30
  8
1
 10
170.28718707889789
 20
398.03589838486232
 30
0.0
 11
174.28718707889811
 21
404.96410161513762
 31
0.0
  0
LINE
  5
3F31
  8
1
 10
175.48333950160441
 20
395.03589838486232
 30
0.0
 11
179.4833395016046
 21
401.96410161513768
 31
0.0
  0
CIRCLE
  5
3F3D
  8
0
 10
172.28718707889789
 20
401.49999999999989
 30
0.0
 40
1.6209999999999991
  0
CIRCLE
  5
3F3E
  8
3
 10
172.28718707889789
 20
401.49999999999989
 30
0.0
 40
2.0
  0
CIRCLE
  5
3F40
  8
0
 10
177.48333950160441
 20
398.50000000000011
 30
0.0
 40
1.6209999999999991
  0
CIRCLE
  5
3F41
  8
3
 10
177.48333950160441
 20
398.50000000000011
 30
0.0
 40
2.0
  0
LINE
  5
3F45
  8
1
 10
219.05255888325789
 20
396.50000000000011
 30
0.0
 11
231.17691453623999
 21
403.49999999999989
 31
0.0
  0
LINE
  5
3F46
  8
1
 10
229.71281292110211
 20
398.03589838486232
 30
0.0
 11
225.71281292110189
 21
404.96410161513762
 31
0.0
  0
LINE
  5
3F47
  8
1
 10
224.51666049839559
 20
395.03589838486232
 30
0.0
 11
220.5166604983954
 21
401.96410161513768
 31
0.0
  0
CIRCLE
  5
3F48
  8
0
 10
227.71281292110211
 20
401.49999999999989
 30
0.0
 40
1.6209999999999991
  0
CIRCLE
  5
3F49
  8
3
 10
227.71281292110211
 20
401.49999999999989
 30
0.0
 40
2.0
  0
CIRCLE
  5
3F4A
  8
0
 10
222.51666049839559
 20
398.50000000000011
 30
0.0
 40
1.6209999999999991
  0
CIRCLE
  5
3F4B
  8
3
 10
222.51666049839559
 20
398.50000000000011
 30
0.0
 40
2.0
  0
CIRCLE
  5
3F4E
  8
0
 10
200.0
 20
359.50000000000011
 30
0.0
 40
1.6209999999999991
  0
CIRCLE
  5
3F4F
  8
3
 10
200.0
 20
359.50000000000011
 30
0.0
 40
2.0
  0
CIRCLE
  5
3F50
  8
0
 10
200.0
 20
353.50000000000011
 30
0.0
 40
1.6209999999999991
  0
CIRCLE
  5
3F51
  8
3
 10
200.0
 20
353.50000000000011
 30
0.0
 40
2.0
  0
CIRCLE
  5
3F5A
  8
3
 10
178.7867965644036
 20
406.71320343559648
 30
0.0
 40
3.0
  0
CIRCLE
  5
3F5B
  8
0
 10
178.7867965644036
 20
406.71320343559648
 30
0.0
 40
2.458499999999999
  0
CIRCLE
  5
3F5C
  8
3
 10
185.15075759508269
 20
400.34924240491728
 30
0.0
 40
3.0
  0
CIRCLE
  5
3F5D
  8
0
 10
185.15075759508269
 20
400.34924240491728
 30
0.0
 40
2.458499999999999
  0
CIRCLE
  5
3F5E
  8
3
 10
221.2132034355964
 20
406.71320343559648
 30
0.0
 40
3.0
  0
CIRCLE
  5
3F5F
  8
0
 10
221.2132034355964
 20
406.71320343559648
 30
0.0
 40
2.458499999999999
  0
CIRCLE
  5
3F60
  8
3
 10
214.84924240491731
 20
400.34924240491739
 30
0.0
 40
3.0
  0
CIRCLE
  5
3F61
  8
0
 10
214.84924240491731
 20
400.34924240491739
 30
0.0
 40
2.458499999999999
  0
CIRCLE
  5
3F62
  8
3
 10
214.8492424049177
 20
370.6507575950825
 30
0.0
 40
3.0
  0
CIRCLE
  5
3F63
  8
0
 10
214.8492424049177
 20
370.6507575950825
 30
0.0
 40
2.458499999999999
  0
CIRCLE
  5
3F64
  8
3
 10
221.2132034355964
 20
364.28679656440352
 30
0.0
 40
3.0
  0
CIRCLE
  5
3F65
  8
0
 10
221.2132034355964
 20
364.28679656440352
 30
0.0
 40
2.458499999999999
  0
CIRCLE
  5
3F66
  8
3
 10
185.1507575950825
 20
370.65075759508238
 30
0.0
 40
3.0
  0
CIRCLE
  5
3F67
  8
0
 10
185.1507575950825
 20
370.65075759508238
 30
0.0
 40
2.458499999999999
  0
CIRCLE
  5
3F68
  8
3
 10
178.7867965644036
 20
364.2867965644034
 30
0.0
 40
3.0
  0
CIRCLE
  5
3F69
  8
0
 10
178.7867965644036
 20
364.2867965644034
 30
0.0
 40
2.458499999999999
  0
LINE
  5
4057
  8
2
 10
386.00000000000011
 20
285.5
 30
0.0
 11
386.00000000000023
 21
272.5
 31
0.0
  0
LINE
  5
4058
  8
2
 10
414.00000000000011
 20
272.5
 30
0.0
 11
414.00000000000011
 21
285.5
 31
0.0
  0
LINE
  5
410C
  8
2
 10
386.00000000000023
 20
272.5
 30
0.0
 11
414.00000000000011
 21
272.5
 31
0.0
  0
LINE
  5
4113
  8
2
 10
186.00000000000031
 20
272.5
 30
0.0
 11
214.0000000000002
 21
272.5
 31
0.0
  0
LINE
  5
4114
  8
2
 10
186.0000000000002
 20
285.5
 30
0.0
 11
186.00000000000031
 21
272.5
 31
0.0
  0
LINE
  5
4115
  8
2
 10
214.00000000000031
 20
272.5
 30
0.0
 11
214.0000000000002
 21
285.5
 31
0.0
  0
LINE
  5
415B
  8
0
 10
178.8456601816228
 20
218.97950579694279
 30
0.0
 11
196.41098253153649
 21
218.9812958758813
 31
0.0
  0
LINE
  5
4162
  8
0
 10
422.56080534242631
 20
218.99963959719281
 30
0.0
 11
380.4617815965654
 21
218.99963959719281
 31
0.0
  0
LINE
  5
4163
  8
0
 10
178.8456601816228
 20
218.97950579694279
 30
0.0
 11
179.7620527524584
 21
217.5
 31
0.0
  0
LINE
  5
4164
  8
0
 10
203.59743875488519
 20
218.9820282463823
 30
0.0
 11
221.15432608083131
 21
218.983817465709
 31
0.0
  0
TEXT
  5
41C2
  8
0
 62
     3
 10
0.0
 20
0.0
 30
0.0
 40
10.0
  1
QZSD-C6-H
  7
STANDARD1
  0
ENDSEC
  0
EOF
