  0
SECTION
  2
HEADER
  9
$ACADVER
  1
AC1009
  9
$INSBASE
 10
0.0
 20
0.0
 30
0.0
  9
$EXTMIN
 10
0.0
 20
-2.960436562073669
 30
0.0
  9
$EXTMAX
 10
657.50000000000011
 20
473.49999999999977
 30
0.0
  9
$LIMMIN
 10
0.0
 20
0.0
  9
$LIMMAX
 10
375.0
 20
270.0
  9
$ORTHOMODE
 70
     1
  9
$REGENMODE
 70
     1
  9
$FILLMODE
 70
     1
  9
$QTEXTMODE
 70
     0
  9
$MIRRTEXT
 70
     0
  9
$DRAGMODE
 70
     2
  9
$LTSCALE
 40
10.0
  9
$OSMODE
 70
  3071
  9
$ATTMODE
 70
     1
  9
$TEXTSIZE
 40
6.0
  9
$TRACEWID
 40
0.05
  9
$TEXTSTYLE
  7
STANDARD
  9
$CLAYER
  8
0
  9
$CELTYPE
  6
BYLAYER
  9
$CECOLOR
 62
   256
  9
$DIMSCALE
 40
1.0
  9
$DIMASZ
 40
3.0
  9
$DIMEXO
 40
2.0
  9
$DIMDLI
 40
0.3799999999999999
  9
$DIMRND
 40
0.0
  9
$DIMDLE
 40
0.0
  9
$DIMEXE
 40
2.0
  9
$DIMTP
 40
0.0
  9
$DIMTM
 40
0.0
  9
$DIMTXT
 40
3.2000000000000002
  9
$DIMCEN
 40
0.09
  9
$DIMTSZ
 40
0.0
  9
$DIMTOL
 70
     0
  9
$DIMLIM
 70
     0
  9
$DIMTIH
 70
     0
  9
$DIMTOH
 70
     0
  9
$DIMSE1
 70
     0
  9
$DIMSE2
 70
     0
  9
$DIMTAD
 70
     1
  9
$DIMZIN
 70
     0
  9
$DIMBLK
  1

  9
$DIMASO
 70
     0
  9
$DIMSHO
 70
     0
  9
$DIMPOST
  1

  9
$DIMAPOST
  1

  9
$DIMALT
 70
     0
  9
$DIMALTD
 70
     2
  9
$DIMALTF
 40
25.399999999999999
  9
$DIMLFAC
 40
1.0
  9
$DIMTOFL
 70
     0
  9
$DIMTVP
 40
0.0
  9
$DIMTIX
 70
     0
  9
$DIMSOXD
 70
     0
  9
$DIMSAH
 70
     0
  9
$DIMBLK1
  1

  9
$DIMBLK2
  1

  9
$DIMSTYLE
  2
STANDARD
  9
$DIMCLRD
 70
     0
  9
$DIMCLRE
 70
     0
  9
$DIMCLRT
 70
     0
  9
$DIMTFAC
 40
1.0
  9
$DIMGAP
 40
0.09
  9
$LUNITS
 70
     2
  9
$LUPREC
 70
     2
  9
$SKETCHINC
 40
0.1
  9
$FILLETRAD
 40
20.0
  9
$AUNITS
 70
     0
  9
$AUPREC
 70
     0
  9
$MENU
  1
E:\r13\win\SUPPORT\ACAD
  9
$ELEVATION
 40
0.0
  9
$PELEVATION
 40
0.0
  9
$THICKNESS
 40
0.0
  9
$LIMCHECK
 70
     0
  9
$BLIPMODE
 70
     0
  9
$CHAMFERA
 40
0.0
  9
$CHAMFERB
 40
0.0
  9
$SKPOLY
 70
     0
  9
$TDCREATE
 40
2449840.6320370371
  9
$TDUPDATE
 40
2456598.434485625
  9
$TDINDWG
 40
0.2116919676
  9
$TDUSRTIMER
 40
0.2116919676
  9
$USRTIMER
 70
     1
  9
$ANGBASE
 50
0.0
  9
$ANGDIR
 70
     0
  9
$PDMODE
 70
     0
  9
$PDSIZE
 40
0.0
  9
$PLINEWID
 40
0.0
  9
$COORDS
 70
     1
  9
$SPLFRAME
 70
     0
  9
$SPLINETYPE
 70
     6
  9
$SPLINESEGS
 70
     8
  9
$ATTDIA
 70
     0
  9
$ATTREQ
 70
     1
  9
$HANDLING
 70
     1
  9
$HANDSEED
  5
3A9F
  9
$SURFTAB1
 70
     6
  9
$SURFTAB2
 70
     6
  9
$SURFTYPE
 70
     6
  9
$SURFU
 70
     6
  9
$SURFV
 70
     6
  9
$UCSNAME
  2

  9
$UCSORG
 10
0.0
 20
0.0
 30
0.0
  9
$UCSXDIR
 10
1.0
 20
0.0
 30
0.0
  9
$UCSYDIR
 10
0.0
 20
1.0
 30
0.0
  9
$PUCSNAME
  2

  9
$PUCSORG
 10
0.0
 20
0.0
 30
0.0
  9
$PUCSXDIR
 10
1.0
 20
0.0
 30
0.0
  9
$PUCSYDIR
 10
0.0
 20
1.0
 30
0.0
  9
$USERI1
 70
     0
  9
$USERI2
 70
     1
  9
$USERI3
 70
     0
  9
$USERI4
 70
     0
  9
$USERI5
 70
     0
  9
$USERR1
 40
0.0
  9
$USERR2
 40
0.0
  9
$USERR3
 40
0.0
  9
$USERR4
 40
0.0
  9
$USERR5
 40
0.0
  9
$WORLDVIEW
 70
     1
  9
$SHADEDGE
 70
     3
  9
$SHADEDIF
 70
    70
  9
$TILEMODE
 70
     1
  9
$MAXACTVP
 70
    16
  9
$PLIMCHECK
 70
     0
  9
$PEXTMIN
 10
1.0000000000000000E+020
 20
1.0000000000000000E+020
 30
1.0000000000000000E+020
  9
$PEXTMAX
 10
-1.0000000000000000E+020
 20
-1.0000000000000000E+020
 30
-1.0000000000000000E+020
  9
$PLIMMIN
 10
0.0
 20
0.0
  9
$PLIMMAX
 10
12.0
 20
9.0
  9
$UNITMODE
 70
     0
  9
$VISRETAIN
 70
     0
  9
$PLINEGEN
 70
     0
  9
$PSLTSCALE
 70
     0
  0
ENDSEC
  0
SECTION
  2
TABLES
  0
TABLE
  2
VPORT
 70
     1
  0
VPORT
  2
*ACTIVE
 70
     0
 10
0.0
 20
0.0
 11
1.0
 21
1.0
 12
328.75000153086148
 22
262.9577389791408
 13
0.0
 23
0.0
 14
10.0
 24
10.0
 15
10.0
 25
10.0
 16
0.0
 26
0.0
 36
1.0
 17
0.0
 27
0.0
 37
0.0
 40
538.54868862531066
 41
2.304913294797688
 42
50.0
 43
0.0
 44
0.0
 50
0.0
 51
0.0
 71
     0
 72
   500
 73
     1
 74
     0
 75
     0
 76
     0
 77
     0
 78
     0
  0
ENDTAB
  0
TABLE
  2
LTYPE
 70
     4
  0
LTYPE
  2
CONTINUOUS
 70
     0
  3
Solid Line
 72
    65
 73
     0
 40
0.0
  0
LTYPE
  2
CENTER
 70
     0
  3
____ _ ____ _ ____ _ ____ _ ____ _ ____ _ ____
 72
    65
 73
     4
 40
2.0
 49
1.25
 49
-0.25
 49
0.25
 49
-0.25
  0
LTYPE
  2
PHANTOM2
 70
     0
  3
___ _ _ ___ _ _ ___ _ _ ___ _ _
 72
    65
 73
     6
 40
1.25
 49
0.625
 49
-0.125
 49
0.125
 49
-0.125
 49
0.125
 49
-0.125
  0
LTYPE
  2
HIDDEN
 70
     0
  3
Hidden __ __ __ __ __ __ __ __ __ __ __ __ __ __
 72
    65
 73
     2
 40
1.905
 49
1.27
 49
-0.635
  0
ENDTAB
  0
TABLE
  2
LAYER
 70
     3
  0
LAYER
  2
0
 70
     0
 62
     7
  6
CONTINUOUS
  0
LAYER
  2
1
 70
     0
 62
     1
  6
CENTER
  0
LAYER
  2
2
 70
     0
 62
     2
  6
HIDDEN
  0
ENDTAB
  0
TABLE
  2
STYLE
 70
     2
  0
STYLE
  2
STANDARD
 70
     0
 40
0.0
 41
1.0
 50
0.0
 71
     0
 42
6.0
  3
TXT
  4
BIGFONT
  0
STYLE
  2
STANDARD1
 70
     0
 40
0.0
 41
1.0
 50
0.0
 71
     0
 42
3.0
  3
txt
  4

  0
ENDTAB
  0
TABLE
  2
VIEW
 70
     1
  0
VIEW
  2
ALL
 70
     0
 40
270.0
 10
213.25689075630251
 20
135.0
 41
0.0
 11
0.0
 21
0.0
 31
1.0
 12
0.0
 22
0.0
 32
0.0
 42
0.0
 43
0.0
 44
0.0
 50
0.0
 71
     0
  0
ENDTAB
  0
TABLE
  2
UCS
 70
     0
  0
ENDTAB
  0
TABLE
  2
APPID
 70
     4
  0
APPID
  2
ACAD
 70
     0
  0
APPID
  2
ACAD_MLEADERVER
 70
     0
  0
APPID
  2
ACAD_NAV_VCDISPLAY
 70
     0
  0
APPID
  2
ACAD_EXEMPT_FROM_CAD_STANDARDS
 70
     0
  0
ENDTAB
  0
TABLE
  2
DIMSTYLE
 70
     1
  0
DIMSTYLE
  2
STANDARD
 70
     0
  3

  4

  5

  6

  7

 40
1.0
 41
0.18
 42
0.0625
 43
0.38
 44
0.18
 45
0.0
 46
0.0
 47
0.0
 48
0.0
140
0.18
141
0.09
142
0.0
143
25.399999999999999
144
1.0
145
0.0
146
1.0
147
0.09
 71
     0
 72
     0
 73
     1
 74
     1
 75
     0
 76
     0
 77
     0
 78
     0
170
     0
171
     2
172
     0
173
     0
174
     0
175
     0
176
     0
177
     0
178
     0
  0
ENDTAB
  0
ENDSEC
  0
SECTION
  2
BLOCKS
  0
BLOCK
  8
0
  2
$MODEL_SPACE
 70
     0
 10
0.0
 20
0.0
 30
0.0
  3
$MODEL_SPACE
  1

  0
ENDBLK
  5
126
  8
0
  0
BLOCK
 67
     1
  8
0
  2
$PAPER_SPACE
 70
     0
 10
0.0
 20
0.0
 30
0.0
  3
$PAPER_SPACE
  1

  0
ENDBLK
  5
124
 67
     1
  8
0
  0
ENDSEC
  0
SECTION
  2
ENTITIES
  0
LINE
  5
2C92
  8
0
 10
142.49999999999989
 20
216.99999999999989
 30
0.0
 11
143.5
 21
216.0
 31
0.0
  0
LINE
  5
2C93
  8
0
 10
256.5
 20
216.0
 30
0.0
 11
257.5
 21
217.0
 31
0.0
  0
ARC
  5
2C94
  8
0
 10
252.49999999999989
 20
277.81464869596238
 30
0.0
 40
5.0000000000000391
 50
0.0
 51
65.000000000000071
  0
ARC
  5
2C95
  8
0
 10
147.49999999999989
 20
277.81464869596238
 30
0.0
 40
4.9999999999999636
 50
114.9999999999992
 51
120.0000000000002
  0
LINE
  5
2C96
  8
0
 10
142.5
 20
233.80000000000001
 30
0.0
 11
142.5
 21
217.0
 31
0.0
  0
LINE
  5
2C97
  8
0
 10
142.49999999999989
 20
271.49999999999989
 30
0.0
 11
142.49999999999989
 21
240.1608083264685
 31
0.0
  0
LINE
  5
2C98
  8
0
 10
257.5
 20
277.68246043084639
 30
0.0
 11
257.5
 21
277.81464869596238
 31
0.0
  0
LINE
  5
2C99
  8
0
 10
257.5
 20
249.69707087510361
 30
0.0
 11
257.5
 21
266.30000000000001
 31
0.0
  0
LINE
  5
2C9A
  8
0
 10
257.5
 20
223.19542278805741
 30
0.0
 11
257.5
 21
224.3244829941369
 31
0.0
  0
LINE
  5
2C9B
  8
0
 10
257.5
 20
217.0
 30
0.0
 11
257.5
 21
217.80393902519771
 31
0.0
  0
LINE
  5
2C9C
  8
0
 10
254.6130913087035
 20
282.34618763114582
 30
0.0
 11
233.0321452147779
 21
292.40954806497319
 31
0.0
  0
LINE
  5
2C9D
  8
0
 10
166.9678547852219
 20
292.40954806497319
 30
0.0
 11
145.38690869129641
 21
282.34618763114571
 31
0.0
  0
ARC
  5
2CA2
  8
0
 10
165.6999999999999
 20
295.12847142608319
 30
0.0
 40
3.0
 50
294.99999999999977
 51
0.0
  0
ARC
  5
2CA3
  8
0
 10
234.2999999999999
 20
295.12847142608319
 30
0.0
 40
3.0
 50
180.0
 51
245.00000000000139
  0
LINE
  5
2CA4
  8
0
 10
168.5
 20
205.0
 30
0.0
 11
169.8397459621556
 21
200.0
 31
0.0
  0
LINE
  5
2CA5
  8
0
 10
230.1602540378444
 20
200.0
 30
0.0
 11
231.5
 21
205.0
 31
0.0
  0
LINE
  5
2CA6
  8
0
 10
231.5
 20
305.5
 30
0.0
 11
231.0
 21
305.99999999999989
 31
0.0
  0
LINE
  5
2CA7
  8
0
 10
168.99999999999989
 20
305.99999999999989
 30
0.0
 11
168.5
 21
305.5
 31
0.0
  0
LINE
  5
2CA8
  8
0
 10
168.5
 20
214.5
 30
0.0
 11
168.5
 21
205.0
 31
0.0
  0
LINE
  5
2CA9
  8
0
 10
231.5
 20
205.0
 30
0.0
 11
231.5
 21
214.5
 31
0.0
  0
LINE
  5
2CAA
  8
0
 10
168.5
 20
305.5
 30
0.0
 11
168.5
 21
296.05358983848618
 31
0.0
  0
LINE
  5
2CAB
  8
0
 10
231.5
 20
296.05358983848618
 30
0.0
 11
231.5
 21
305.5
 31
0.0
  0
LINE
  5
2CAC
  8
0
 10
168.5
 20
296.05358983848618
 30
0.0
 11
168.6999999999999
 21
295.99999999999989
 31
0.0
  0
LINE
  5
2CAD
  8
0
 10
231.30000000000001
 20
295.99999999999989
 30
0.0
 11
231.5
 21
296.05358983848618
 31
0.0
  0
LINE
  5
2CAE
  8
0
 10
231.5
 20
214.5
 30
0.0
 11
231.14644660940661
 21
214.85355339059331
 31
0.0
  0
LINE
  5
2CAF
  8
0
 10
168.85355339059319
 20
214.85355339059331
 30
0.0
 11
168.5
 21
214.5
 31
0.0
  0
LINE
  5
2CB0
  8
0
 10
168.6999999999999
 20
295.99999999999989
 30
0.0
 11
168.6999999999999
 21
295.12847142608319
 31
0.0
  0
LINE
  5
2CB1
  8
0
 10
231.2999999999999
 20
295.12847142608319
 30
0.0
 11
231.2999999999999
 21
295.99999999999989
 31
0.0
  0
ARC
  5
2CB2
  8
0
 10
168.5
 20
215.20710678118661
 30
0.0
 40
0.500000000000004
 50
315.00000000000011
 51
0.0
  0
ARC
  5
2CB3
  8
0
 10
231.5
 20
215.20710678118661
 30
0.0
 40
0.5000000000000443
 50
180.0
 51
224.99999999999579
  0
LINE
  5
2CB4
  8
0
 10
168.99999999999989
 20
216.0
 30
0.0
 11
168.99999999999989
 21
215.20710678118661
 31
0.0
  0
LINE
  5
2CB5
  8
0
 10
231.0
 20
215.20710678118661
 30
0.0
 11
231.0
 21
216.0
 31
0.0
  0
ARC
  5
2CB8
  8
0
 10
309.7576764162734
 20
220.70791829317201
 30
0.0
 40
52.31684645542024
 50
177.27473511624061
 51
178.04861150157501
  0
LINE
  5
2CBA
  8
0
 10
256.5
 20
216.0
 30
0.0
 11
143.5
 21
216.0
 31
0.0
  0
LINE
  5
2CBC
  8
0
 10
144.99999999999989
 20
277.81464869596238
 30
0.0
 11
144.99999999999989
 21
282.14477571488459
 31
0.0
  0
LINE
  5
2CBD
  8
0
 10
144.99999999999989
 20
273.99999999999989
 30
0.0
 11
142.49999999999989
 21
271.49999999999989
 31
0.0
  0
LINE
  5
2CBE
  8
0
 10
144.99999999999989
 20
277.81464869596238
 30
0.0
 11
144.99999999999989
 21
274.0
 31
0.0
  0
ARC
  5
2CBF
  8
0
 10
314.73396612739378
 20
236.82445925643441
 30
0.0
 40
58.664342893638668
 50
167.32454888672601
 51
179.82855413949989
  0
ARC
  5
2CC2
  8
0
 10
314.79243168321801
 20
237.18240607518521
 30
0.0
 40
58.722829111902499
 50
180.17797363019241
 51
192.64792856326949
  0
ARC
  5
2CC3
  8
0
 10
314.41926951546827
 20
272.00002616851691
 30
0.0
 40
57.203952466544422
 50
174.29904171378391
 51
185.6843645535198
  0
ARC
  5
2CC4
  8
0
 10
85.449830353874546
 20
236.99990789677861
 30
0.0
 40
57.139839579749882
 50
356.78967975568611
 51
3.171145592123346
  0
POLYLINE
  5
2CC5
  8
0
 66
     1
 10
0.0
 20
0.0
 30
0.0
 70
   128
  0
VERTEX
  5
38F8
  8
0
 10
257.49981858679041
 20
217.80393902519771
 30
0.0
  0
VERTEX
  5
38F9
  8
0
 10
257.49999504907311
 20
217.80010470623699
 30
0.0
  0
VERTEX
  5
38FA
  8
0
 10
257.49266324150813
 20
217.95988476112089
 30
0.0
  0
VERTEX
  5
38FB
  8
0
 10
257.47457665022171
 20
218.40542129727149
 30
0.0
  0
VERTEX
  5
38FC
  8
0
 10
257.45362225656208
 20
219.08729580867251
 30
0.0
  0
VERTEX
  5
38FD
  8
0
 10
257.43898913151958
 20
219.92888669117119
 30
0.0
  0
VERTEX
  5
38FE
  8
0
 10
257.43612992824541
 20
220.5
 30
0.0
  0
SEQEND
  5
38FF
  8
0
  0
LINE
  5
2CCF
  8
0
 10
230.1602540378444
 20
200.0
 30
0.0
 11
169.8397459621556
 21
200.0
 31
0.0
  0
LINE
  5
2CD0
  8
0
 10
168.5
 20
204.99999999999989
 30
0.0
 11
231.49999999999989
 21
205.0
 31
0.0
  0
LINE
  5
2CD2
  8
0
 10
168.99999999999989
 20
305.99999999999989
 30
0.0
 11
230.99999999999989
 21
305.99999999999989
 31
0.0
  0
LINE
  5
2CD6
  8
0
 10
168.6999999999999
 20
295.99999999999989
 30
0.0
 11
231.2999999999999
 21
295.99999999999989
 31
0.0
  0
LINE
  5
2CD9
  8
0
 10
145.38690869129641
 20
282.34618763114571
 30
0.0
 11
254.6130913087035
 21
282.34618763114582
 31
0.0
  0
LINE
  5
2CDA
  8
0
 10
257.50000000000011
 20
277.81464869596221
 30
0.0
 11
144.99999999999989
 21
277.81464869596238
 31
0.0
  0
LINE
  5
2CDB
  8
0
 10
257.49999999999989
 20
266.30000000000001
 30
0.0
 11
257.4966096894741
 21
266.33407733987269
 31
0.0
  0
ARC
  5
2CDC
  8
0
 10
310.52613192397928
 20
220.56343343279849
 30
0.0
 40
53.090039891748333
 50
177.92101302109381
 51
180.06845858190479
  0
LINE
  5
2CDE
  8
0
 10
166.9678547852219
 20
292.40954806497319
 30
0.0
 11
233.0321452147779
 21
292.40954806497319
 31
0.0
  0
LINE
  5
2CE6
  8
0
 10
168.6999999999999
 20
295.12847142608319
 30
0.0
 11
231.2999999999999
 21
295.12847142608319
 31
0.0
  0
LINE
  5
2CEA
  8
0
 10
168.99999999999989
 20
215.20710678118661
 30
0.0
 11
231.0
 21
215.20710678118661
 31
0.0
  0
LINE
  5
2E61
  8
0
 10
412.5
 20
111.1115314798927
 30
0.0
 11
412.5
 21
123.5262794416288
 31
0.0
  0
LINE
  5
2E62
  8
0
 10
387.5
 20
123.5262794416288
 30
0.0
 11
387.5
 21
111.1084300425438
 31
0.0
  0
POLYLINE
  5
2E65
  8
0
 66
     1
 10
0.0
 20
0.0
 30
0.0
 70
   128
  0
VERTEX
  5
3900
  8
0
 10
387.28540872823697
 20
156.08171134592661
 30
0.0
  0
VERTEX
  5
3901
  8
0
 10
387.28432807393631
 20
156.08152389653949
 30
0.0
  0
VERTEX
  5
3902
  8
0
 10
387.29532190257561
 20
156.08269353904419
 30
0.0
  0
VERTEX
  5
3903
  8
0
 10
387.31428312408872
 20
156.08313668950669
 30
0.0
  0
VERTEX
  5
3904
  8
0
 10
387.3250469650074
 20
156.08231120648611
 30
0.0
  0
SEQEND
  5
3905
  8
0
  0
ARC
  5
2E6C
  8
0
 10
406.0
 20
101.0
 30
0.0
 40
12.0
 50
0.0
 51
90.0
  0
LINE
  5
2E75
  8
0
 10
394.00000000000011
 20
113.0
 30
0.0
 11
405.99999999999989
 21
113.0
 31
0.0
  0
ARC
  5
2E78
  8
0
 10
394.0
 20
101.0
 30
0.0
 40
12.0
 50
90.0
 51
180.0
  0
CIRCLE
  5
2E7B
  8
0
 10
400.0
 20
100.0
 30
0.0
 40
30.1602540378444
  0
CIRCLE
  5
2E7C
  8
0
 10
400.0
 20
100.0
 30
0.0
 40
31.5
  0
CIRCLE
  5
2E7E
  8
0
 10
400.0
 20
100.0
 30
0.0
 40
26.999999999999972
  0
ARC
  5
2E7F
  8
0
 10
447.99999999999989
 20
100.0
 30
0.0
 40
5.0000000000000169
 50
72.542396876279355
 51
107.4576031237215
  0
LINE
  5
2E80
  8
0
 10
452.2537852736429
 20
100.0
 30
0.0
 11
449.49999999999989
 21
104.7696960070847
 31
0.0
  0
LINE
  5
2E81
  8
0
 10
452.2537852736429
 20
100.0
 30
0.0
 11
449.49999999999989
 21
95.230303992915253
 31
0.0
  0
ARC
  5
2E82
  8
0
 10
447.99999999999989
 20
100.0
 30
0.0
 40
5.0000000000000169
 50
252.5423968762785
 51
287.45760312372317
  0
LINE
  5
2E83
  8
0
 10
443.74621472635692
 20
100.0
 30
0.0
 11
446.49999999999989
 21
95.230303992915253
 31
0.0
  0
LINE
  5
2E84
  8
0
 10
443.74621472635692
 20
100.0
 30
0.0
 11
446.49999999999989
 21
104.7696960070847
 31
0.0
  0
CIRCLE
  5
2E85
  8
0
 10
447.99999999999989
 20
100.0
 30
0.0
 40
3.2679491924311028
  0
CIRCLE
  5
2E87
  8
0
 10
400.0
 20
100.0
 30
0.0
 40
57.500000000000007
  0
ARC
  5
2E8F
  8
0
 10
448.0
 20
100.0
 30
0.0
 40
5.0000000000000169
 50
107.4576031237215
 51
252.5423968762785
  0
ARC
  5
2E90
  8
0
 10
448.0
 20
100.0
 30
0.0
 40
5.0000000000000169
 50
287.45760312372317
 51
72.542396876279355
  0
CIRCLE
  5
2E91
  8
0
 10
431.8198051533949
 20
68.180194846605616
 30
0.0
 40
5.5
  0
CIRCLE
  5
2E92
  8
0
 10
431.81980515339433
 20
131.8198051533949
 30
0.0
 40
5.5
  0
CIRCLE
  5
2E94
  8
0
 10
400.0
 20
138.0
 30
0.0
 40
3.75
  0
CIRCLE
  5
2E95
  8
0
 10
368.1801948466051
 20
131.8198051533943
 30
0.0
 40
5.5
  0
CIRCLE
  5
2E96
  8
0
 10
368.18019484660562
 20
68.180194846605048
 30
0.0
 40
5.4999999999999707
  0
LINE
  5
2E99
  8
0
 10
400.0
 20
140.30940107675849
 30
0.0
 11
398.0
 21
139.15470053837919
 31
0.0
  0
LINE
  5
2E9A
  8
0
 10
398.0
 20
139.15470053837919
 30
0.0
 11
398.0
 21
136.8452994616207
 31
0.0
  0
LINE
  5
2E9B
  8
0
 10
398.0
 20
136.8452994616207
 30
0.0
 11
400.0
 21
135.6905989232414
 31
0.0
  0
LINE
  5
2E9C
  8
0
 10
400.0
 20
135.6905989232414
 30
0.0
 11
402.0
 21
136.8452994616207
 31
0.0
  0
LINE
  5
2E9D
  8
0
 10
402.0
 20
136.8452994616207
 30
0.0
 11
402.0
 21
139.15470053837919
 31
0.0
  0
LINE
  5
2E9E
  8
0
 10
402.0
 20
139.15470053837919
 30
0.0
 11
400.0
 21
140.30940107675849
 31
0.0
  0
LINE
  5
2E9F
  8
0
 10
418.0
 20
113.9999999999999
 30
0.0
 11
418.0
 21
91.0
 31
0.0
  0
ARC
  5
2EA0
  8
0
 10
407.0
 20
113.9999999999999
 30
0.0
 40
11.00000000000005
 50
0.0
 51
90.0
  0
LINE
  5
2EA1
  8
0
 10
393.0
 20
125.0
 30
0.0
 11
407.0
 21
125.0
 31
0.0
  0
ARC
  5
2EA2
  8
0
 10
393.0
 20
113.9999999999999
 30
0.0
 40
11.00000000000005
 50
90.0
 51
180.0
  0
LINE
  5
2EA3
  8
0
 10
382.0
 20
91.0
 30
0.0
 11
382.0
 21
113.9999999999999
 31
0.0
  0
ARC
  5
2EA4
  8
0
 10
393.0
 20
91.0
 30
0.0
 40
11.0
 50
180.0
 51
270.0
  0
LINE
  5
2EA5
  8
0
 10
407.0
 20
80.0
 30
0.0
 11
393.0
 21
80.0
 31
0.0
  0
ARC
  5
2EA6
  8
0
 10
407.0
 20
91.0
 30
0.0
 40
11.0
 50
270.0
 51
0.0
  0
ARC
  5
2EA7
  8
0
 10
393.95017968110579
 20
101.7430273579099
 30
0.0
 40
16.60084986429235
 50
112.8640045588287
 51
136.0423854735283
  0
ARC
  5
2EA8
  8
0
 10
406.0537721230009
 20
101.74787384858359
 30
0.0
 40
16.59494410304508
 50
43.956124889861691
 51
67.142204650966875
  0
LINE
  5
2F88
  8
0
 10
387.5
 20
394.891569957456
 30
0.0
 11
387.5
 21
388.96045675453468
 31
0.0
  0
LINE
  5
2F89
  8
0
 10
412.49999999999989
 20
388.9603533326424
 30
0.0
 11
412.49999999999989
 21
394.88846852010721
 31
0.0
  0
ARC
  5
2F9E
  8
0
 10
405.99999999999989
 20
404.99999999999977
 30
0.0
 40
12.0
 50
270.0
 51
0.0
  0
LINE
  5
2FA0
  8
0
 10
405.99999999999989
 20
392.99999999999989
 30
0.0
 11
393.99999999999989
 21
392.99999999999989
 31
0.0
  0
ARC
  5
2FA2
  8
0
 10
393.99999999999989
 20
404.99999999999977
 30
0.0
 40
12.0
 50
180.0
 51
270.0
  0
ARC
  5
2FA5
  8
0
 10
400.0
 20
405.99999999999972
 30
0.0
 40
7.5
 50
180.0
 51
0.0
  0
LINE
  5
2FA7
  8
0
 10
417.99999999999989
 20
413.99999999999972
 30
0.0
 11
417.99999999999989
 21
404.99999999999977
 31
0.0
  0
LINE
  5
2FA9
  8
0
 10
407.49999999999989
 20
405.99999999999972
 30
0.0
 11
407.49999999999989
 21
411.38562172233833
 31
0.0
  0
LINE
  5
2FAC
  8
0
 10
381.99999999999989
 20
413.99999999999972
 30
0.0
 11
382.00154128592209
 21
414.19232391054987
 31
0.0
  0
ARC
  5
2FAD
  8
0
 10
400.0
 20
417.99999999999972
 30
0.0
 40
10.000000000000011
 50
318.59037789073011
 51
0.0
  0
LINE
  5
2FAF
  8
0
 10
409.99999999999989
 20
417.99999999999972
 30
0.0
 11
409.99999999999989
 21
424.2397105979295
 31
0.0
  0
LINE
  5
2FB0
  8
0
 10
381.99999999999989
 20
404.99999999999977
 30
0.0
 11
381.99999999999989
 21
413.99999999999972
 31
0.0
  0
LINE
  5
2FB2
  8
0
 10
390.0
 20
424.25777317769348
 30
0.0
 11
390.0
 21
417.99999999999972
 31
0.0
  0
LINE
  5
2FB3
  8
0
 10
417.99874204297242
 20
414.1737509315235
 30
0.0
 11
417.99999999999989
 21
413.99999999999972
 31
0.0
  0
ARC
  5
2FB4
  8
0
 10
400.0
 20
417.99999999999972
 30
0.0
 40
10.000000000000011
 50
180.0
 51
221.4096221092727
  0
LINE
  5
2FB6
  8
0
 10
392.49999999999989
 20
411.38562172233833
 30
0.0
 11
392.49999999999989
 21
405.99999999999972
 31
0.0
  0
CIRCLE
  5
2FB9
  8
0
 10
400.0
 20
405.99999999999977
 30
0.0
 40
23.974965680359791
  0
CIRCLE
  5
2FBB
  8
0
 10
400.0
 20
405.99999999999977
 30
0.0
 40
31.5
  0
POLYLINE
  5
2FBC
  8
0
 66
     1
 10
0.0
 20
0.0
 30
0.0
 70
   128
  0
VERTEX
  5
3906
  8
0
 10
399.99997205609441
 20
385.33735339274131
 30
0.0
  0
VERTEX
  5
3907
  8
0
 10
402.7723646908446
 20
385.45809277472449
 30
0.0
  0
VERTEX
  5
3908
  8
0
 10
405.5427295179403
 20
385.80571267355509
 30
0.0
  0
VERTEX
  5
3909
  8
0
 10
407.96585832058099
 20
386.32032766133739
 30
0.0
  0
VERTEX
  5
390A
  8
0
 10
410.33812645416782
 20
387.03237030314313
 30
0.0
  0
VERTEX
  5
390B
  8
0
 10
412.71279441385678
 20
387.98488431028352
 30
0.0
  0
VERTEX
  5
390C
  8
0
 10
414.97671388800342
 20
389.1743757940294
 30
0.0
  0
VERTEX
  5
390D
  8
0
 10
416.8951563877294
 20
390.47951837212622
 30
0.0
  0
VERTEX
  5
390E
  8
0
 10
418.65103717539409
 20
392.0560078097356
 30
0.0
  0
VERTEX
  5
390F
  8
0
 10
419.8678059315701
 20
393.55316820786391
 30
0.0
  0
VERTEX
  5
3910
  8
0
 10
420.83708618265609
 20
395.28529323204287
 30
0.0
  0
VERTEX
  5
3911
  8
0
 10
421.48216050746788
 20
397.10389795007598
 30
0.0
  0
VERTEX
  5
3912
  8
0
 10
421.87571042610938
 20
399.03491968389369
 30
0.0
  0
VERTEX
  5
3913
  8
0
 10
422.03863464347347
 20
400.77742522411381
 30
0.0
  0
VERTEX
  5
3914
  8
0
 10
422.0508871955671
 20
402.52812379948051
 30
0.0
  0
VERTEX
  5
3915
  8
0
 10
421.92588088072489
 20
404.32029899587621
 30
0.0
  0
VERTEX
  5
3916
  8
0
 10
421.6745996943414
 20
406.09944363300588
 30
0.0
  0
VERTEX
  5
3917
  8
0
 10
421.12446179051682
 20
408.58107685599867
 30
0.0
  0
VERTEX
  5
3918
  8
0
 10
420.36529857000608
 20
411.00736734232999
 30
0.0
  0
VERTEX
  5
3919
  8
0
 10
419.38414782361588
 20
413.43037239804721
 30
0.0
  0
VERTEX
  5
391A
  8
0
 10
418.2125806908021
 20
415.76739610840218
 30
0.0
  0
VERTEX
  5
391B
  8
0
 10
416.87426275491549
 20
417.98455100031828
 30
0.0
  0
VERTEX
  5
391C
  8
0
 10
415.36643660608701
 20
420.08998413897223
 30
0.0
  0
VERTEX
  5
391D
  8
0
 10
413.6470978026926
 20
422.1194777515949
 30
0.0
  0
VERTEX
  5
391E
  8
0
 10
411.75923427317161
 20
423.9926364223312
 30
0.0
  0
VERTEX
  5
391F
  8
0
 10
409.09136062082951
 20
426.12564977998431
 30
0.0
  0
VERTEX
  5
3920
  8
0
 10
407.62819748031001
 20
427.07010642343221
 30
0.0
  0
VERTEX
  5
3921
  8
0
 10
406.09638264022402
 20
427.89774115318301
 30
0.0
  0
VERTEX
  5
3922
  8
0
 10
403.9972129171569
 20
428.76361338084342
 30
0.0
  0
VERTEX
  5
3923
  8
0
 10
401.74889429932671
 20
429.32334194443752
 30
0.0
  0
VERTEX
  5
3924
  8
0
 10
399.82307364837681
 20
429.46087381971017
 30
0.0
  0
VERTEX
  5
3925
  8
0
 10
397.84307745515599
 20
429.25238726973862
 30
0.0
  0
VERTEX
  5
3926
  8
0
 10
396.58401869394748
 20
428.94673335715981
 30
0.0
  0
VERTEX
  5
3927
  8
0
 10
395.35642142368499
 20
428.53070801065559
 30
0.0
  0
VERTEX
  5
3928
  8
0
 10
392.94792804486792
 20
427.40023006512172
 30
0.0
  0
VERTEX
  5
3929
  8
0
 10
391.17136556696778
 20
426.30635668349362
 30
0.0
  0
VERTEX
  5
392A
  8
0
 10
389.49448260099922
 20
425.0641368175219
 30
0.0
  0
VERTEX
  5
392B
  8
0
 10
387.87775893025099
 20
423.6579438696163
 30
0.0
  0
VERTEX
  5
392C
  8
0
 10
386.36868557386327
 20
422.13647472110529
 30
0.0
  0
VERTEX
  5
392D
  8
0
 10
384.6164424276044
 20
420.06803681087962
 30
0.0
  0
VERTEX
  5
392E
  8
0
 10
383.04387021325812
 20
417.85966768583057
 30
0.0
  0
VERTEX
  5
392F
  8
0
 10
381.62022390252559
 20
415.46074377701763
 30
0.0
  0
VERTEX
  5
3930
  8
0
 10
380.40324856202562
 20
412.95072622857322
 30
0.0
  0
VERTEX
  5
3931
  8
0
 10
379.42935245502071
 20
410.41660722520652
 30
0.0
  0
VERTEX
  5
3932
  8
0
 10
378.67942373475643
 20
407.807825803372
 30
0.0
  0
VERTEX
  5
3933
  8
0
 10
378.1609012947294
 20
405.0418244652592
 30
0.0
  0
VERTEX
  5
3934
  8
0
 10
377.94164541763081
 20
402.23760384555118
 30
0.0
  0
VERTEX
  5
3935
  8
0
 10
378.02972290812539
 20
399.82964357673302
 30
0.0
  0
VERTEX
  5
3936
  8
0
 10
378.43668650129922
 20
397.41548733467909
 30
0.0
  0
VERTEX
  5
3937
  8
0
 10
379.04902153213942
 20
395.54877096006322
 30
0.0
  0
VERTEX
  5
3938
  8
0
 10
379.99118120580653
 20
393.76401540600801
 30
0.0
  0
VERTEX
  5
3939
  8
0
 10
381.20127092128661
 20
392.21409655628543
 30
0.0
  0
VERTEX
  5
393A
  8
0
 10
382.66642602326408
 20
390.8305916663785
 30
0.0
  0
VERTEX
  5
393B
  8
0
 10
384.00659991944792
 20
389.82436724725579
 30
0.0
  0
VERTEX
  5
393C
  8
0
 10
385.42906302153358
 20
388.9371052794562
 30
0.0
  0
VERTEX
  5
393D
  8
0
 10
388.5306147690402
 20
387.45289209853462
 30
0.0
  0
VERTEX
  5
393E
  8
0
 10
390.91710060290927
 20
386.62990069742182
 30
0.0
  0
VERTEX
  5
393F
  8
0
 10
393.36589462610561
 20
386.0142566883045
 30
0.0
  0
VERTEX
  5
3940
  8
0
 10
395.92658894481588
 20
385.58329449140859
 30
0.0
  0
VERTEX
  5
3941
  8
0
 10
398.5135337009101
 20
385.36255936572968
 30
0.0
  0
VERTEX
  5
3942
  8
0
 10
399.99997205609441
 20
385.33735339274131
 30
0.0
  0
SEQEND
  5
3943
  8
0
  0
POLYLINE
  5
2FBD
  8
0
 66
     1
 10
0.0
 20
0.0
 30
0.0
 70
   128
  0
VERTEX
  5
3944
  8
0
 10
418.0
 20
392.73345394955209
 30
0.0
  0
VERTEX
  5
3945
  8
0
 10
419.42720692535192
 20
394.60450694290847
 30
0.0
  0
VERTEX
  5
3946
  8
0
 10
420.39607028019049
 20
396.74872396419289
 30
0.0
  0
VERTEX
  5
3947
  8
0
 10
420.92841998302032
 20
399.04218882048758
 30
0.0
  0
VERTEX
  5
3948
  8
0
 10
421.12021456579521
 20
401.38951706843778
 30
0.0
  0
VERTEX
  5
3949
  8
0
 10
420.96208854323282
 20
404.49355876153459
 30
0.0
  0
VERTEX
  5
394A
  8
0
 10
420.41634685830888
 20
407.55383884430699
 30
0.0
  0
VERTEX
  5
394B
  8
0
 10
419.53761543943909
 20
410.53582345651103
 30
0.0
  0
VERTEX
  5
394C
  8
0
 10
418.35920192440369
 20
413.41272259800633
 30
0.0
  0
VERTEX
  5
394D
  8
0
 10
417.99999999999972
 20
414.15519856306912
 30
0.0
  0
SEQEND
  5
394E
  8
0
  0
ARC
  5
2FBE
  8
0
 10
391.39956109432069
 20
401.26299005154391
 30
0.0
 40
29.559979537872
 50
25.857681662864788
 51
56.748619569349721
  0
ARC
  5
2FBF
  8
0
 10
400.00029719367473
 20
415.39318339909153
 30
0.0
 40
13.03920830443993
 50
54.308220232521442
 51
125.6915115593616
  0
ARC
  5
2FC0
  8
0
 10
408.69535295702889
 20
401.17809629262217
 30
0.0
 40
29.682710762972011
 50
123.31366580067881
 51
154.07367275605691
  0
POLYLINE
  5
2FC1
  8
0
 66
     1
 10
0.0
 20
0.0
 30
0.0
 70
   128
  0
VERTEX
  5
394F
  8
0
 10
382.00000000000028
 20
414.15582524409592
 30
0.0
  0
VERTEX
  5
3950
  8
0
 10
380.77288306017448
 20
411.37596834252048
 30
0.0
  0
VERTEX
  5
3951
  8
0
 10
379.8229747260994
 20
408.48969672248148
 30
0.0
  0
VERTEX
  5
3952
  8
0
 10
379.17981516076162
 20
405.52012979176948
 30
0.0
  0
VERTEX
  5
3953
  8
0
 10
378.93860875004481
 20
403.46124277803551
 30
0.0
  0
VERTEX
  5
3954
  8
0
 10
378.87924861363592
 20
401.3891706261424
 30
0.0
  0
VERTEX
  5
3955
  8
0
 10
379.03228366245872
 20
399.32203253143803
 30
0.0
  0
VERTEX
  5
3956
  8
0
 10
379.44022617767263
 20
397.29006754220762
 30
0.0
  0
VERTEX
  5
3957
  8
0
 10
380.03470667609793
 20
395.63503757400122
 30
0.0
  0
VERTEX
  5
3958
  8
0
 10
380.89454199622543
 20
394.10142926039492
 30
0.0
  0
VERTEX
  5
3959
  8
0
 10
382.00000000000011
 20
392.73389051072991
 30
0.0
  0
SEQEND
  5
395A
  8
0
  0
ARC
  5
2FC2
  8
0
 10
398.25559983184189
 20
410.39770033047182
 30
0.0
 40
24.00530573104604
 50
227.3773462322946
 51
269.38992368996497
  0
ARC
  5
2FC3
  8
0
 10
401.59870839907842
 20
410.66589069671079
 30
0.0
 40
24.30174178673844
 50
270.94616099215477
 51
312.44653230672981
  0
CIRCLE
  5
2FCD
  8
0
 10
368.1776590658996
 20
374.17848233939321
 30
0.0
 40
8.9998395525419124
  0
CIRCLE
  5
2FCE
  8
0
 10
431.81980515339518
 20
437.81980515339478
 30
0.0
 40
9.0000000000000178
  0
CIRCLE
  5
2FCF
  8
0
 10
368.17437295687552
 20
437.81472504660888
 30
0.0
 40
8.9994787819285236
  0
CIRCLE
  5
2FD0
  8
0
 10
431.81542196924352
 20
374.17673290849473
 30
0.0
 40
8.9993502904106624
  0
LINE
  5
2FD2
  8
0
 10
383.22949016875162
 20
460.99999999999977
 30
0.0
 11
416.77050983124838
 21
460.99999999999977
 31
0.0
  0
CIRCLE
  5
2FD6
  8
0
 10
431.81980515339433
 20
374.18019484660488
 30
0.0
 40
5.4999999999999432
  0
CIRCLE
  5
2FD7
  8
0
 10
368.1801948466051
 20
374.1801948466055
 30
0.0
 40
5.5
  0
CIRCLE
  5
2FD8
  8
0
 10
431.81980515339478
 20
437.8198051533941
 30
0.0
 40
5.5
  0
CIRCLE
  5
2FD9
  8
0
 10
368.18019484660562
 20
437.81980515339478
 30
0.0
 40
5.5
  0
LINE
  5
2FDA
  8
0
 10
393.0
 20
425.99999999999977
 30
0.0
 11
406.99999999999989
 21
425.99999999999977
 31
0.0
  0
ARC
  5
2FDB
  8
0
 10
406.99999999999989
 20
414.99999999999972
 30
0.0
 40
11.000000000000011
 50
86.833091067147535
 51
90.0
  0
ARC
  5
2FDC
  8
0
 10
393.0
 20
414.99999999999972
 30
0.0
 40
11.0
 50
90.0
 51
93.163549606232266
  0
LINE
  5
2FDD
  8
0
 10
381.99999999999989
 20
392.73389051073002
 30
0.0
 11
381.99999999999989
 21
404.99999999999977
 31
0.0
  0
LINE
  5
2FDE
  8
0
 10
381.99999999999989
 20
413.99999999999972
 30
0.0
 11
381.99999999999989
 21
414.15582523921159
 31
0.0
  0
LINE
  5
2FDF
  8
0
 10
417.99999999999989
 20
414.15519856306872
 30
0.0
 11
417.99999999999989
 21
413.99999999999972
 31
0.0
  0
LINE
  5
2FE0
  8
0
 10
417.99999999999989
 20
404.99999999999977
 30
0.0
 11
417.99999999999989
 21
392.7334539288413
 31
0.0
  0
LINE
  5
30F4
  8
0
 10
595.74621472635715
 20
208.70751818059361
 30
0.0
 11
596.73205080756895
 21
207.0
 31
0.0
  0
LINE
  5
30F5
  8
0
 10
603.26794919243116
 20
207.0
 30
0.0
 11
604.25378527364308
 21
208.70751818059361
 31
0.0
  0
POLYLINE
  5
310E
  8
0
 66
     1
 10
0.0
 20
0.0
 30
0.0
 70
   128
  0
VERTEX
  5
395B
  8
0
 10
595.74621472635715
 20
208.70751818059361
 30
0.0
  0
VERTEX
  5
395C
  8
0
 10
596.02682179817975
 20
208.27278988449359
 30
0.0
  0
VERTEX
  5
395D
  8
0
 10
596.34357271952274
 20
207.92153223339281
 30
0.0
  0
VERTEX
  5
395E
  8
0
 10
596.72372286733935
 20
207.72736484881179
 30
0.0
  0
VERTEX
  5
395F
  8
0
 10
597.11608657543354
 20
207.8081159165734
 30
0.0
  0
VERTEX
  5
3960
  8
0
 10
597.57645022948475
 20
208.25123194150029
 30
0.0
  0
VERTEX
  5
3961
  8
0
 10
598.06172869758541
 20
209.05499913258859
 30
0.0
  0
VERTEX
  5
3962
  8
0
 10
598.50000000000011
 20
210.0
 30
0.0
  0
SEQEND
  5
3963
  8
0
  0
LINE
  5
310F
  8
0
 10
601.50000000000011
 20
210.0
 30
0.0
 11
598.50000000000011
 21
210.0
 31
0.0
  0
POLYLINE
  5
3110
  8
0
 66
     1
 10
0.0
 20
0.0
 30
0.0
 70
   128
  0
VERTEX
  5
3964
  8
0
 10
604.25378527364308
 20
208.70751818059361
 30
0.0
  0
VERTEX
  5
3965
  8
0
 10
603.97317820182013
 20
208.2727898844937
 30
0.0
  0
VERTEX
  5
3966
  8
0
 10
603.65642728047737
 20
207.92153223339281
 30
0.0
  0
VERTEX
  5
3967
  8
0
 10
603.27627713266054
 20
207.72736484881179
 30
0.0
  0
VERTEX
  5
3968
  8
0
 10
602.88391342456657
 20
207.8081159165734
 30
0.0
  0
VERTEX
  5
3969
  8
0
 10
602.42354977051548
 20
208.25123194150041
 30
0.0
  0
VERTEX
  5
396A
  8
0
 10
601.93827130241482
 20
209.05499913258859
 30
0.0
  0
VERTEX
  5
396B
  8
0
 10
601.50000000000011
 20
210.0
 30
0.0
  0
SEQEND
  5
396C
  8
0
  0
LINE
  5
3111
  8
0
 10
603.26794919243116
 20
207.0
 30
0.0
 11
596.73205080756895
 21
207.0
 31
0.0
  0
LINE
  5
3112
  8
0
 10
601.50000000000011
 20
216.0
 30
0.0
 11
601.50000000000011
 21
210.0
 31
0.0
  0
LINE
  5
3113
  8
0
 10
598.50000000000011
 20
216.0
 30
0.0
 11
598.50000000000011
 21
210.0
 31
0.0
  0
LINE
  5
3114
  8
0
 10
595.74621472635715
 20
216.0
 30
0.0
 11
595.74621472635715
 21
208.70751818059361
 31
0.0
  0
LINE
  5
3115
  8
0
 10
604.25378527364308
 20
216.0
 30
0.0
 11
604.25378527364308
 21
208.70751818059361
 31
0.0
  0
LINE
  5
3228
  8
0
 10
342.49999999999989
 20
217.0
 30
0.0
 11
343.5
 21
216.0
 31
0.0
  0
LINE
  5
3229
  8
0
 10
456.49999999999989
 20
216.0
 30
0.0
 11
457.49999999999989
 21
217.0
 31
0.0
  0
LINE
  5
322A
  8
0
 10
342.49999999999989
 20
277.81464869596238
 30
0.0
 11
342.49999999999989
 21
217.0
 31
0.0
  0
LINE
  5
322B
  8
0
 10
457.49999999999989
 20
217.0
 30
0.0
 11
457.49999999999989
 21
277.81464869596238
 31
0.0
  0
ARC
  5
322C
  8
0
 10
452.49999999999989
 20
277.81464869596238
 30
0.0
 40
5.0000000000000631
 50
0.0
 51
65.000000000000071
  0
ARC
  5
322D
  8
0
 10
347.5
 20
277.81464869596238
 30
0.0
 40
5.0000000000000151
 50
114.9999999999992
 51
180.0
  0
LINE
  5
322E
  8
0
 10
454.61309130870347
 20
282.34618763114582
 30
0.0
 11
433.03214521477793
 21
292.40954806497319
 31
0.0
  0
LINE
  5
322F
  8
0
 10
366.96785478522207
 20
292.40954806497319
 30
0.0
 11
345.38690869129653
 21
282.34618763114582
 31
0.0
  0
ARC
  5
3232
  8
0
 10
425.2079593763807
 20
289.58652288798697
 30
0.0
 40
2.4003583000640858
 50
184.8153758873751
 51
216.05438805383821
  0
POLYLINE
  5
3233
  8
0
 66
     1
 10
0.0
 20
0.0
 30
0.0
 70
   128
  0
VERTEX
  5
396D
  8
0
 10
440.81477225965432
 20
283.37658767657013
 30
0.0
  0
VERTEX
  5
396E
  8
0
 10
440.78887468061532
 20
283.24247977588101
 30
0.0
  0
VERTEX
  5
396F
  8
0
 10
440.6618851477927
 20
283.04467508409653
 30
0.0
  0
VERTEX
  5
3970
  8
0
 10
440.45257724646012
 20
282.88708668408691
 30
0.0
  0
VERTEX
  5
3971
  8
0
 10
439.8533885305576
 20
282.62284549392109
 30
0.0
  0
SEQEND
  5
3972
  8
0
  0
ARC
  5
3234
  8
0
 10
365.69999999999999
 20
295.12847142608319
 30
0.0
 40
3.0
 50
294.99999999999989
 51
0.0
  0
ARC
  5
3235
  8
0
 10
434.2999999999999
 20
295.12847142608319
 30
0.0
 40
3.0
 50
180.0
 51
245.00000000000139
  0
LINE
  5
3236
  8
0
 10
368.5
 20
205.0
 30
0.0
 11
369.83974596215558
 21
200.0
 31
0.0
  0
LINE
  5
3237
  8
0
 10
430.16025403784442
 20
200.0
 30
0.0
 11
431.49999999999989
 21
205.0
 31
0.0
  0
LINE
  5
3238
  8
0
 10
431.49999999999989
 20
214.5
 30
0.0
 11
431.14644660940672
 21
214.85355339059331
 31
0.0
  0
LINE
  5
3239
  8
0
 10
368.85355339059328
 20
214.85355339059331
 30
0.0
 11
368.5
 21
214.5
 31
0.0
  0
LINE
  5
323A
  8
0
 10
368.5
 20
214.5
 30
0.0
 11
368.5
 21
205.0
 31
0.0
  0
LINE
  5
323B
  8
0
 10
431.49999999999989
 20
205.0
 30
0.0
 11
431.49999999999989
 21
214.5
 31
0.0
  0
LINE
  5
323C
  8
0
 10
431.49999999999989
 20
305.5
 30
0.0
 11
431.0
 21
305.99999999999989
 31
0.0
  0
LINE
  5
323D
  8
0
 10
368.99999999999989
 20
305.99999999999989
 30
0.0
 11
368.5
 21
305.5
 31
0.0
  0
LINE
  5
323E
  8
0
 10
368.5
 20
296.05358983848618
 30
0.0
 11
368.69999999999999
 21
295.99999999999989
 31
0.0
  0
LINE
  5
323F
  8
0
 10
431.30000000000001
 20
295.99999999999989
 30
0.0
 11
431.49999999999989
 21
296.05358983848618
 31
0.0
  0
LINE
  5
3240
  8
0
 10
368.5
 20
305.5
 30
0.0
 11
368.5
 21
296.05358983848618
 31
0.0
  0
LINE
  5
3241
  8
0
 10
431.49999999999989
 20
296.05358983848618
 30
0.0
 11
431.49999999999989
 21
305.5
 31
0.0
  0
LINE
  5
3242
  8
0
 10
368.69999999999999
 20
295.99999999999989
 30
0.0
 11
368.69999999999999
 21
295.12847142608319
 31
0.0
  0
LINE
  5
3243
  8
0
 10
431.30000000000001
 20
295.12847142608319
 30
0.0
 11
431.30000000000001
 21
295.99999999999989
 31
0.0
  0
ARC
  5
3244
  8
0
 10
368.5
 20
215.20710678118661
 30
0.0
 40
0.4999999999999639
 50
314.99999999999551
 51
0.0
  0
ARC
  5
3245
  8
0
 10
431.49999999999989
 20
215.20710678118661
 30
0.0
 40
0.4999999999998864
 50
180.0
 51
225.00000000001421
  0
LINE
  5
3246
  8
0
 10
368.99999999999989
 20
216.0
 30
0.0
 11
368.99999999999989
 21
215.20710678118661
 31
0.0
  0
LINE
  5
3247
  8
0
 10
431.0
 20
215.20710678118661
 30
0.0
 11
431.0
 21
216.0
 31
0.0
  0
LINE
  5
3248
  8
0
 10
443.74621472635698
 20
208.70751818059361
 30
0.0
 11
444.7320508075689
 21
207.0
 31
0.0
  0
LINE
  5
3249
  8
0
 10
451.2679491924311
 20
207.0
 30
0.0
 11
452.25378527364302
 21
208.70751818059361
 31
0.0
  0
CIRCLE
  5
3258
  8
0
 10
399.99999999999972
 20
236.9999999999998
 30
0.0
 40
11.0
  0
LINE
  5
3260
  8
0
 10
404.07031939778648
 20
229.9499999999999
 30
0.0
 11
408.14063879557369
 21
237.0
 31
0.0
  0
LINE
  5
3264
  8
0
 10
408.14063879557369
 20
237.0
 30
0.0
 11
404.07031939778659
 21
244.0499999999999
 31
0.0
  0
LINE
  5
326E
  8
0
 10
395.92968060221301
 20
229.9499999999999
 30
0.0
 11
404.07031939778659
 21
229.9499999999999
 31
0.0
  0
LINE
  5
3272
  8
0
 10
404.07031939778648
 20
244.0499999999999
 30
0.0
 11
395.9296806022129
 21
244.0499999999999
 31
0.0
  0
LINE
  5
327A
  8
0
 10
395.9296806022129
 20
244.0499999999999
 30
0.0
 11
391.85936120442608
 21
236.9999999999998
 31
0.0
  0
LINE
  5
327E
  8
0
 10
391.85936120442608
 20
236.9999999999998
 30
0.0
 11
395.92968060221301
 21
229.9499999999999
 31
0.0
  0
CIRCLE
  5
329A
  8
0
 10
400.0
 20
237.00000000000199
 30
0.0
 40
12.50000000000011
  0
CIRCLE
  5
329C
  8
0
 10
399.99998245274861
 20
271.99969907551201
 30
0.0
 40
5.4996990755400619
  0
LINE
  5
329D
  8
0
 10
456.49999999999989
 20
216.0
 30
0.0
 11
343.5
 21
216.0
 31
0.0
  0
CIRCLE
  5
32A0
  8
0
 10
400.0
 20
220.5000000000002
 30
0.0
 40
2.5000000000001128
  0
CIRCLE
  5
32A2
  8
0
 10
399.99999999999972
 20
272.0
 30
0.0
 40
5.0
  0
LINE
  5
32A3
  8
0
 10
397.49999999999977
 20
273.44337567297413
 30
0.0
 11
397.49999999999977
 21
270.55662432702587
 31
0.0
  0
LINE
  5
32A4
  8
0
 10
399.99999999999972
 20
269.11324865405192
 30
0.0
 11
397.49999999999977
 21
270.55662432702587
 31
0.0
  0
LINE
  5
32A5
  8
0
 10
399.99999999999972
 20
269.11324865405192
 30
0.0
 11
402.49999999999977
 21
270.55662432702587
 31
0.0
  0
LINE
  5
32A6
  8
0
 10
402.49999999999977
 20
270.55662432702587
 30
0.0
 11
402.49999999999977
 21
273.44337567297413
 31
0.0
  0
LINE
  5
32A7
  8
0
 10
399.99999999999972
 20
274.88675134594808
 30
0.0
 11
402.49999999999977
 21
273.44337567297413
 31
0.0
  0
LINE
  5
32A8
  8
0
 10
399.99999999999972
 20
274.88675134594808
 30
0.0
 11
397.49999999999977
 21
273.44337567297413
 31
0.0
  0
POLYLINE
  5
32AA
  8
0
 66
     1
 10
0.0
 20
0.0
 30
0.0
 70
   128
  0
VERTEX
  5
3973
  8
0
 10
439.8533885305576
 20
282.62284549392109
 30
0.0
  0
VERTEX
  5
3974
  8
0
 10
438.99788323650472
 20
282.51720194743609
 30
0.0
  0
VERTEX
  5
3975
  8
0
 10
437.85815931482739
 20
282.51000754771343
 30
0.0
  0
VERTEX
  5
3976
  8
0
 10
436.62729076608701
 20
282.60357837226468
 30
0.0
  0
VERTEX
  5
3977
  8
0
 10
435.2297340701698
 20
282.798645955984
 30
0.0
  0
VERTEX
  5
3978
  8
0
 10
433.67884229741139
 20
283.10350052924292
 30
0.0
  0
VERTEX
  5
3979
  8
0
 10
432.03729257039299
 20
283.51686412782919
 30
0.0
  0
VERTEX
  5
397A
  8
0
 10
430.34326389793972
 20
284.04096378571347
 30
0.0
  0
VERTEX
  5
397B
  8
0
 10
428.67126126991872
 20
284.66592033196082
 30
0.0
  0
VERTEX
  5
397C
  8
0
 10
427.1233219412361
 20
285.36197838984288
 30
0.0
  0
VERTEX
  5
397D
  8
0
 10
425.714980144111
 20
286.13078851035903
 30
0.0
  0
VERTEX
  5
397E
  8
0
 10
424.59166448242331
 20
286.88882472402781
 30
0.0
  0
VERTEX
  5
397F
  8
0
 10
423.68279109008267
 20
287.67695011490662
 30
0.0
  0
VERTEX
  5
3980
  8
0
 10
423.26736888689533
 20
288.17378493606338
 30
0.0
  0
SEQEND
  5
3981
  8
0
  0
LINE
  5
32AE
  8
0
 10
399.99999999999972
 20
221.6547005383793
 30
0.0
 11
398.99999999999972
 21
221.07735026918959
 31
0.0
  0
LINE
  5
32AF
  8
0
 10
398.99999999999972
 20
221.07735026918959
 30
0.0
 11
398.99999999999972
 21
219.92264973081029
 31
0.0
  0
LINE
  5
32B0
  8
0
 10
398.99999999999972
 20
219.92264973081029
 30
0.0
 11
399.99999999999972
 21
219.34529946162081
 31
0.0
  0
LINE
  5
32B1
  8
0
 10
400.99999999999972
 20
221.07735026918959
 30
0.0
 11
399.99999999999972
 21
221.6547005383793
 31
0.0
  0
LINE
  5
32B2
  8
0
 10
399.99999999999972
 20
219.34529946162081
 30
0.0
 11
400.99999999999972
 21
219.92264973081029
 31
0.0
  0
LINE
  5
32B3
  8
0
 10
400.99999999999972
 20
219.92264973081029
 30
0.0
 11
400.99999999999972
 21
221.07735026918959
 31
0.0
  0
LINE
  5
32B7
  8
0
 10
440.81477225965432
 20
283.37658767657013
 30
0.0
 11
440.81477225965432
 21
283.3915763915694
 31
0.0
  0
LINE
  5
32B8
  8
0
 10
430.16025403784442
 20
200.0
 30
0.0
 11
369.83974596215558
 21
200.0
 31
0.0
  0
LINE
  5
32B9
  8
0
 10
368.5
 20
205.0
 30
0.0
 11
431.49999999999989
 21
205.0
 31
0.0
  0
LINE
  5
32BC
  8
0
 10
368.99999999999989
 20
305.99999999999989
 30
0.0
 11
431.0
 21
305.99999999999989
 31
0.0
  0
LINE
  5
32BE
  8
0
 10
368.69999999999999
 20
295.99999999999989
 30
0.0
 11
431.30000000000001
 21
295.99999999999989
 31
0.0
  0
LINE
  5
32BF
  8
0
 10
449.49999999999989
 20
210.0
 30
0.0
 11
446.49999999999989
 21
210.0
 31
0.0
  0
POLYLINE
  5
32C0
  8
0
 66
     1
 10
0.0
 20
0.0
 30
0.0
 70
   128
  0
VERTEX
  5
3982
  8
0
 10
452.25378527364302
 20
208.70751818059361
 30
0.0
  0
VERTEX
  5
3983
  8
0
 10
451.97317820182002
 20
208.27278988449359
 30
0.0
  0
VERTEX
  5
3984
  8
0
 10
451.65642728047732
 20
207.92153223339281
 30
0.0
  0
VERTEX
  5
3985
  8
0
 10
451.27627713266043
 20
207.72736484881179
 30
0.0
  0
VERTEX
  5
3986
  8
0
 10
450.88391342456652
 20
207.8081159165734
 30
0.0
  0
VERTEX
  5
3987
  8
0
 10
450.42354977051531
 20
208.25123194150029
 30
0.0
  0
VERTEX
  5
3988
  8
0
 10
449.93827130241459
 20
209.05499913258859
 30
0.0
  0
VERTEX
  5
3989
  8
0
 10
449.49999999999989
 20
210.0
 30
0.0
  0
SEQEND
  5
398A
  8
0
  0
POLYLINE
  5
32C1
  8
0
 66
     1
 10
0.0
 20
0.0
 30
0.0
 70
   128
  0
VERTEX
  5
398B
  8
0
 10
443.74621472635698
 20
208.70751818059361
 30
0.0
  0
VERTEX
  5
398C
  8
0
 10
444.02682179817981
 20
208.2727898844937
 30
0.0
  0
VERTEX
  5
398D
  8
0
 10
444.34357271952251
 20
207.92153223339281
 30
0.0
  0
VERTEX
  5
398E
  8
0
 10
444.72372286733952
 20
207.72736484881179
 30
0.0
  0
VERTEX
  5
398F
  8
0
 10
445.11608657543331
 20
207.8081159165734
 30
0.0
  0
VERTEX
  5
3990
  8
0
 10
445.57645022948452
 20
208.25123194150041
 30
0.0
  0
VERTEX
  5
3991
  8
0
 10
446.06172869758518
 20
209.05499913258859
 30
0.0
  0
VERTEX
  5
3992
  8
0
 10
446.49999999999989
 20
210.0
 30
0.0
  0
SEQEND
  5
3993
  8
0
  0
LINE
  5
32C3
  8
0
 10
451.2679491924311
 20
207.0
 30
0.0
 11
444.7320508075689
 21
207.0
 31
0.0
  0
LINE
  5
32C4
  8
0
 10
449.49999999999989
 20
216.0
 30
0.0
 11
449.49999999999989
 21
210.0
 31
0.0
  0
LINE
  5
32C5
  8
0
 10
446.49999999999989
 20
216.0
 30
0.0
 11
446.49999999999989
 21
210.0
 31
0.0
  0
LINE
  5
32C6
  8
0
 10
452.25378527364302
 20
216.0
 30
0.0
 11
452.25378527364302
 21
208.70751818059361
 31
0.0
  0
LINE
  5
32C7
  8
0
 10
443.74621472635698
 20
216.0
 30
0.0
 11
443.74621472635698
 21
208.70751818059361
 31
0.0
  0
LINE
  5
32C9
  8
0
 10
457.49999999999989
 20
277.81464869596238
 30
0.0
 11
342.49999999999989
 21
277.81464869596238
 31
0.0
  0
LINE
  5
32CA
  8
0
 10
345.38690869129653
 20
282.34618763114582
 30
0.0
 11
454.61309130870347
 21
282.34618763114582
 31
0.0
  0
LINE
  5
32CB
  8
0
 10
366.96785478522207
 20
292.40954806497319
 30
0.0
 11
433.03214521477793
 21
292.40954806497319
 31
0.0
  0
POLYLINE
  5
32D3
  8
0
 66
     1
 10
0.0
 20
0.0
 30
0.0
 70
   128
  0
VERTEX
  5
3994
  8
0
 10
425.4508112289754
 20
290.89820059817077
 30
0.0
  0
VERTEX
  5
3995
  8
0
 10
425.21331241351601
 20
290.89429739262692
 30
0.0
  0
VERTEX
  5
3996
  8
0
 10
424.38695465260281
 20
290.80539405128371
 30
0.0
  0
VERTEX
  5
3997
  8
0
 10
423.72548223169548
 20
290.60688756170941
 30
0.0
  0
VERTEX
  5
3998
  8
0
 10
423.24061381062899
 20
290.30710709102641
 30
0.0
  0
VERTEX
  5
3999
  8
0
 10
422.93837720498539
 20
289.92458055183829
 30
0.0
  0
VERTEX
  5
399A
  8
0
 10
422.81607345876029
 20
289.3850241887946
 30
0.0
  0
VERTEX
  5
399B
  8
0
 10
422.81607345876029
 20
289.3850241887946
 30
0.0
  0
SEQEND
  5
399C
  8
0
  0
POLYLINE
  5
32D4
  8
0
 66
     1
 10
0.0
 20
0.0
 30
0.0
 70
   128
  0
VERTEX
  5
399D
  8
0
 10
440.81477225965432
 20
283.3915763915694
 30
0.0
  0
VERTEX
  5
399E
  8
0
 10
440.75770909731608
 20
283.69640767051322
 30
0.0
  0
VERTEX
  5
399F
  8
0
 10
440.48904599960662
 20
284.1935602439907
 30
0.0
  0
VERTEX
  5
39A0
  8
0
 10
439.97018229440579
 20
284.78274487770591
 30
0.0
  0
VERTEX
  5
39A1
  8
0
 10
439.23687544989929
 20
285.41750506210212
 30
0.0
  0
VERTEX
  5
39A2
  8
0
 10
438.2356467808284
 20
286.13620865432938
 30
0.0
  0
VERTEX
  5
39A3
  8
0
 10
437.04672208924887
 20
286.8761557992899
 30
0.0
  0
VERTEX
  5
39A4
  8
0
 10
435.62138335527578
 20
287.66177191143061
 30
0.0
  0
VERTEX
  5
39A5
  8
0
 10
434.06070981600152
 20
288.42917653127972
 30
0.0
  0
VERTEX
  5
39A6
  8
0
 10
432.39185987221208
 20
289.15706676427197
 30
0.0
  0
VERTEX
  5
39A7
  8
0
 10
430.67287737914791
 20
289.80738919321141
 30
0.0
  0
VERTEX
  5
39A8
  8
0
 10
429.07657807777821
 20
290.30795428877229
 30
0.0
  0
VERTEX
  5
39A9
  8
0
 10
427.54009499835729
 20
290.6738061292545
 30
0.0
  0
VERTEX
  5
39AA
  8
0
 10
426.44297942151547
 20
290.84057065351169
 30
0.0
  0
VERTEX
  5
39AB
  8
0
 10
425.4508112289754
 20
290.89820059817077
 30
0.0
  0
SEQEND
  5
39AC
  8
0
  0
LINE
  5
32D5
  8
0
 10
368.69999999999999
 20
295.12847142608319
 30
0.0
 11
431.30000000000001
 21
295.12847142608319
 31
0.0
  0
LINE
  5
32D7
  8
0
 10
368.99999999999989
 20
215.20710678118661
 30
0.0
 11
431.0
 21
215.20710678118661
 31
0.0
  0
LINE
  5
332D
  8
2
 10
422.81607345876029
 20
271.0
 30
0.0
 11
440.81477225965432
 21
271.0
 31
0.0
  0
LINE
  5
336C
  8
2
 10
422.81607345876029
 20
289.3850241887946
 30
0.0
 11
422.81607345876029
 21
271.0
 31
0.0
  0
LINE
  5
336D
  8
2
 10
440.81477225965432
 20
271.0
 30
0.0
 11
440.81477225965432
 21
283.3915763915694
 31
0.0
  0
LINE
  5
3374
  8
2
 10
426.31980515339421
 20
271.0
 30
0.0
 11
426.31980515339421
 21
216.0
 31
0.0
  0
LINE
  5
3375
  8
2
 10
437.3198051533941
 20
216.0
 30
0.0
 11
437.31980515339421
 21
271.0
 31
0.0
  0
LINE
  5
3376
  8
2
 10
362.68019484660488
 20
271.0
 30
0.0
 11
362.68019484660488
 21
216.0
 31
0.0
  0
LINE
  5
3377
  8
2
 10
373.68019484660488
 20
216.0
 30
0.0
 11
373.68019484660488
 21
271.0
 31
0.0
  0
LINE
  5
33B6
  8
1
 10
400.0
 20
32.5
 30
0.0
 11
400.0
 21
167.5
 31
0.0
  0
LINE
  5
33B7
  8
1
 10
600.0
 20
190.0
 30
0.0
 11
600.0
 21
315.99999999999989
 31
0.0
  0
LINE
  5
33B8
  8
1
 10
200.0
 20
190.0
 30
0.0
 11
200.0
 21
315.99999999999989
 31
0.0
  0
LINE
  5
33C2
  8
0
 10
657.50000000000011
 20
216.99999999999989
 30
0.0
 11
656.50000000000011
 21
216.0
 31
0.0
  0
LINE
  5
33C3
  8
0
 10
543.50000000000011
 20
216.0
 30
0.0
 11
542.50000000000011
 21
217.0
 31
0.0
  0
ARC
  5
33C4
  8
0
 10
547.50000000000011
 20
277.81464869596238
 30
0.0
 40
5.0000000000000391
 50
114.9999999999992
 51
180.0
  0
ARC
  5
33C5
  8
0
 10
652.50000000000011
 20
277.81464869596238
 30
0.0
 40
4.9999999999999636
 50
59.825799830585488
 51
65.000000000000526
  0
LINE
  5
33C6
  8
0
 10
657.50000000000011
 20
233.80000000000001
 30
0.0
 11
657.50000000000011
 21
217.0
 31
0.0
  0
LINE
  5
33C7
  8
0
 10
657.50000000000011
 20
271.49999999999989
 30
0.0
 11
657.50000000000011
 21
240.1608083264685
 31
0.0
  0
LINE
  5
33C8
  8
0
 10
542.50000000000011
 20
277.68246043084639
 30
0.0
 11
542.50000000000011
 21
277.81464869596238
 31
0.0
  0
LINE
  5
33C9
  8
0
 10
542.50000000000011
 20
249.69707087510361
 30
0.0
 11
542.50000000000011
 21
266.30000000000001
 31
0.0
  0
LINE
  5
33CA
  8
0
 10
542.50000000000011
 20
223.19542278805619
 30
0.0
 11
542.50000000000011
 21
224.3244829941369
 31
0.0
  0
LINE
  5
33CB
  8
0
 10
542.50000000000011
 20
217.0
 30
0.0
 11
542.50000000000011
 21
217.80393902519771
 31
0.0
  0
LINE
  5
33CC
  8
0
 10
545.38690869129653
 20
282.34618763114582
 30
0.0
 11
566.96785478522213
 21
292.40954806497319
 31
0.0
  0
LINE
  5
33CD
  8
0
 10
633.0321452147781
 20
292.40954806497319
 30
0.0
 11
654.61309130870347
 21
282.34618763114571
 31
0.0
  0
ARC
  5
33D2
  8
0
 10
634.29999999999995
 20
295.12847142608319
 30
0.0
 40
3.0
 50
180.0
 51
245.00000000000071
  0
ARC
  5
33D3
  8
0
 10
565.70000000000005
 20
295.12847142608319
 30
0.0
 40
3.0
 50
294.99999999999932
 51
0.0
  0
LINE
  5
33D4
  8
0
 10
631.50000000000011
 20
205.0
 30
0.0
 11
630.16025403784431
 21
200.0
 31
0.0
  0
LINE
  5
33D5
  8
0
 10
569.83974596215558
 20
200.0
 30
0.0
 11
568.50000000000011
 21
205.0
 31
0.0
  0
LINE
  5
33D6
  8
0
 10
568.50000000000011
 20
305.5
 30
0.0
 11
568.99999999999977
 21
305.99999999999989
 31
0.0
  0
LINE
  5
33D7
  8
0
 10
631.00000000000011
 20
305.99999999999989
 30
0.0
 11
631.50000000000011
 21
305.5
 31
0.0
  0
LINE
  5
33D8
  8
0
 10
631.50000000000011
 20
214.5
 30
0.0
 11
631.50000000000011
 21
205.0
 31
0.0
  0
LINE
  5
33D9
  8
0
 10
568.50000000000011
 20
205.0
 30
0.0
 11
568.50000000000011
 21
214.5
 31
0.0
  0
LINE
  5
33DA
  8
0
 10
631.50000000000011
 20
305.5
 30
0.0
 11
631.50000000000011
 21
296.05358983848618
 31
0.0
  0
LINE
  5
33DB
  8
0
 10
568.50000000000011
 20
296.05358983848618
 30
0.0
 11
568.50000000000011
 21
305.5
 31
0.0
  0
LINE
  5
33DC
  8
0
 10
631.50000000000011
 20
296.05358983848618
 30
0.0
 11
631.29999999999995
 21
295.99999999999989
 31
0.0
  0
LINE
  5
33DD
  8
0
 10
568.69999999999993
 20
295.99999999999989
 30
0.0
 11
568.50000000000011
 21
296.05358983848618
 31
0.0
  0
LINE
  5
33DE
  8
0
 10
568.50000000000011
 20
214.5
 30
0.0
 11
568.85355339059345
 21
214.85355339059331
 31
0.0
  0
LINE
  5
33DF
  8
0
 10
631.14644660940678
 20
214.85355339059331
 30
0.0
 11
631.50000000000011
 21
214.5
 31
0.0
  0
LINE
  5
33E0
  8
0
 10
631.29999999999995
 20
295.99999999999989
 30
0.0
 11
631.29999999999995
 21
295.12847142608319
 31
0.0
  0
LINE
  5
33E1
  8
0
 10
568.70000000000016
 20
295.12847142608319
 30
0.0
 11
568.70000000000016
 21
295.99999999999989
 31
0.0
  0
ARC
  5
33E2
  8
0
 10
631.50000000000011
 20
215.20710678118661
 30
0.0
 40
0.500000000000004
 50
180.0
 51
224.99999999999989
  0
ARC
  5
33E3
  8
0
 10
568.50000000000011
 20
215.20710678118661
 30
0.0
 40
0.5000000000000443
 50
315.00000000000409
 51
0.0
  0
LINE
  5
33E4
  8
0
 10
631.00000000000011
 20
216.0
 30
0.0
 11
631.00000000000011
 21
215.20710678118661
 31
0.0
  0
LINE
  5
33E5
  8
0
 10
569.00000000000011
 20
215.20710678118661
 30
0.0
 11
569.00000000000011
 21
216.0
 31
0.0
  0
ARC
  5
33E8
  8
0
 10
490.24232358372649
 20
220.70791829317201
 30
0.0
 40
52.31684645542024
 50
1.951388498424937
 51
2.725264883752863
  0
LINE
  5
33EA
  8
0
 10
543.50000000000011
 20
216.0
 30
0.0
 11
656.50000000000011
 21
216.0
 31
0.0
  0
LINE
  5
33EC
  8
0
 10
655.00000000000011
 20
277.81464869596238
 30
0.0
 11
655.00000000000011
 21
282.13430322660622
 31
0.0
  0
LINE
  5
33ED
  8
0
 10
655.00000000000011
 20
273.99999999999989
 30
0.0
 11
657.50000000000011
 21
271.49999999999989
 31
0.0
  0
LINE
  5
33EE
  8
0
 10
655.00000000000011
 20
277.81464869596238
 30
0.0
 11
655.00000000000011
 21
274.0
 31
0.0
  0
ARC
  5
33EF
  8
0
 10
485.26603387260599
 20
236.82445925643441
 30
0.0
 40
58.664342893638668
 50
0.1714458605000906
 51
12.675451113274001
  0
ARC
  5
33F2
  8
0
 10
485.20756831678199
 20
237.18240607518521
 30
0.0
 40
58.722829111902499
 50
347.35207143673051
 51
359.82202636980759
  0
ARC
  5
33F3
  8
0
 10
485.58073048453161
 20
272.00002616851691
 30
0.0
 40
57.203952466544422
 50
354.3156354464802
 51
5.7009582862160508
  0
ARC
  5
33F4
  8
0
 10
714.55016964612548
 20
236.99990789677861
 30
0.0
 40
57.139839579749882
 50
176.82885440787661
 51
183.21032024431381
  0
POLYLINE
  5
33F5
  8
0
 66
     1
 10
0.0
 20
0.0
 30
0.0
 70
   128
  0
VERTEX
  5
39AD
  8
0
 10
542.50018141320948
 20
217.80393902519771
 30
0.0
  0
VERTEX
  5
39AE
  8
0
 10
542.50000495092706
 20
217.80010470623699
 30
0.0
  0
VERTEX
  5
39AF
  8
0
 10
542.50733675849165
 20
217.95988476112089
 30
0.0
  0
VERTEX
  5
39B0
  8
0
 10
542.52542334977807
 20
218.40542129727149
 30
0.0
  0
VERTEX
  5
39B1
  8
0
 10
542.54637774343803
 20
219.08729580867251
 30
0.0
  0
VERTEX
  5
39B2
  8
0
 10
542.56101086848037
 20
219.92888669117119
 30
0.0
  0
VERTEX
  5
39B3
  8
0
 10
542.56387007175465
 20
220.5
 30
0.0
  0
SEQEND
  5
39B4
  8
0
  0
LINE
  5
33FF
  8
0
 10
569.83974596215558
 20
200.0
 30
0.0
 11
630.16025403784431
 21
200.0
 31
0.0
  0
LINE
  5
3400
  8
0
 10
631.49999999999977
 20
204.99999999999989
 30
0.0
 11
568.50000000000011
 21
205.0
 31
0.0
  0
LINE
  5
3402
  8
0
 10
631.00000000000011
 20
305.99999999999989
 30
0.0
 11
569.00000000000011
 21
305.99999999999989
 31
0.0
  0
LINE
  5
3406
  8
0
 10
631.29999999999995
 20
295.99999999999989
 30
0.0
 11
568.70000000000016
 21
295.99999999999989
 31
0.0
  0
LINE
  5
3409
  8
0
 10
654.61309130870347
 20
282.34618763114571
 30
0.0
 11
545.38690869129653
 21
282.34618763114582
 31
0.0
  0
LINE
  5
340A
  8
0
 10
542.49999999999977
 20
277.81464869596221
 30
0.0
 11
655.00000000000011
 21
277.81464869596238
 31
0.0
  0
LINE
  5
340B
  8
0
 10
542.50000000000011
 20
266.30000000000001
 30
0.0
 11
542.5033903105259
 21
266.33407733987269
 31
0.0
  0
ARC
  5
340C
  8
0
 10
489.84705245604817
 20
220.5664843469751
 30
0.0
 40
52.716859539392473
 50
359.9277408872893
 51
2.0903895235509018
  0
LINE
  5
340E
  8
0
 10
633.03214521477776
 20
292.40954806497319
 30
0.0
 11
566.96785478522213
 21
292.40954806497319
 31
0.0
  0
LINE
  5
3416
  8
0
 10
631.29999999999995
 20
295.12847142608319
 30
0.0
 11
568.70000000000016
 21
295.12847142608319
 31
0.0
  0
LINE
  5
341A
  8
0
 10
595.74621472635715
 20
215.20710678118661
 30
0.0
 11
569.00000000000011
 21
215.20710678118661
 31
0.0
  0
LINE
  5
341B
  8
0
 10
630.99999999999977
 20
215.20710678118661
 30
0.0
 11
604.25378527364308
 21
215.20710678118661
 31
0.0
  0
LINE
  5
3595
  8
1
 10
467.49999999999989
 20
405.99999999999977
 30
0.0
 11
332.5
 21
405.99999999999977
 31
0.0
  0
LINE
  5
3596
  8
1
 10
467.49999999999989
 20
100.0
 30
0.0
 11
332.5
 21
100.0
 31
0.0
  0
LINE
  5
359C
  8
1
 10
400.0
 20
338.49999999999989
 30
0.0
 11
400.0
 21
473.49999999999977
 31
0.0
  0
LINE
  5
359D
  8
1
 10
400.0
 20
190.0
 30
0.0
 11
400.0
 21
315.99999999999989
 31
0.0
  0
ARC
  5
363B
  8
0
 10
374.78561270082128
 20
289.58652288798697
 30
0.0
 40
2.4003583000640858
 50
323.94561194616227
 51
355.18462411262487
  0
POLYLINE
  5
363C
  8
0
 66
     1
 10
0.0
 20
0.0
 30
0.0
 70
   128
  0
VERTEX
  5
39B5
  8
0
 10
359.17781951335769
 20
283.37658767657013
 30
0.0
  0
VERTEX
  5
39B6
  8
0
 10
359.2046973965866
 20
283.24247977588101
 30
0.0
  0
VERTEX
  5
39B7
  8
0
 10
359.33168692940927
 20
283.04467508409653
 30
0.0
  0
VERTEX
  5
39B8
  8
0
 10
359.54099483074191
 20
282.88708668408691
 30
0.0
  0
VERTEX
  5
39B9
  8
0
 10
360.14018354664432
 20
282.62284549392109
 30
0.0
  0
SEQEND
  5
39BA
  8
0
  0
POLYLINE
  5
363D
  8
0
 66
     1
 10
0.0
 20
0.0
 30
0.0
 70
   128
  0
VERTEX
  5
39BB
  8
0
 10
360.14018354664432
 20
282.62284549392109
 30
0.0
  0
VERTEX
  5
39BC
  8
0
 10
360.99568884069731
 20
282.51720194743609
 30
0.0
  0
VERTEX
  5
39BD
  8
0
 10
362.13541276237447
 20
282.51000754771343
 30
0.0
  0
VERTEX
  5
39BE
  8
0
 10
363.36628131111502
 20
282.60357837226468
 30
0.0
  0
VERTEX
  5
39BF
  8
0
 10
364.76383800703212
 20
282.798645955984
 30
0.0
  0
VERTEX
  5
39C0
  8
0
 10
366.31472977979053
 20
283.10350052924292
 30
0.0
  0
VERTEX
  5
39C1
  8
0
 10
367.95627950680893
 20
283.51686412782919
 30
0.0
  0
VERTEX
  5
39C2
  8
0
 10
369.65030817926231
 20
284.04096378571347
 30
0.0
  0
VERTEX
  5
39C3
  8
0
 10
371.32231080728332
 20
284.66592033196082
 30
0.0
  0
VERTEX
  5
39C4
  8
0
 10
372.87025013596582
 20
285.36197838984288
 30
0.0
  0
VERTEX
  5
39C5
  8
0
 10
374.27859193309092
 20
286.13078851035903
 30
0.0
  0
VERTEX
  5
39C6
  8
0
 10
375.40190759477861
 20
286.88882472402781
 30
0.0
  0
VERTEX
  5
39C7
  8
0
 10
376.31078098711919
 20
287.67695011490662
 30
0.0
  0
VERTEX
  5
39C8
  8
0
 10
376.72620319030659
 20
288.17378493606338
 30
0.0
  0
SEQEND
  5
39C9
  8
0
  0
LINE
  5
363E
  8
0
 10
359.17781951335769
 20
283.37658767657013
 30
0.0
 11
359.17781951335769
 21
283.3915763915694
 31
0.0
  0
POLYLINE
  5
363F
  8
0
 66
     1
 10
0.0
 20
0.0
 30
0.0
 70
   128
  0
VERTEX
  5
39CA
  8
0
 10
374.5417805440365
 20
290.89820059817077
 30
0.0
  0
VERTEX
  5
39CB
  8
0
 10
374.78025966368591
 20
290.89429739262692
 30
0.0
  0
VERTEX
  5
39CC
  8
0
 10
375.60661742459911
 20
290.80539405128371
 30
0.0
  0
VERTEX
  5
39CD
  8
0
 10
376.26808984550649
 20
290.60688756170941
 30
0.0
  0
VERTEX
  5
39CE
  8
0
 10
376.75295826657299
 20
290.30710709102641
 30
0.0
  0
VERTEX
  5
39CF
  8
0
 10
377.05519487221648
 20
289.92458055183829
 30
0.0
  0
VERTEX
  5
39D0
  8
0
 10
377.17749861844158
 20
289.3850241887946
 30
0.0
  0
VERTEX
  5
39D1
  8
0
 10
377.17749861844158
 20
289.3850241887946
 30
0.0
  0
SEQEND
  5
39D2
  8
0
  0
POLYLINE
  5
3640
  8
0
 66
     1
 10
0.0
 20
0.0
 30
0.0
 70
   128
  0
VERTEX
  5
39D3
  8
0
 10
359.17781951335769
 20
283.3915763915694
 30
0.0
  0
VERTEX
  5
39D4
  8
0
 10
359.23488267569593
 20
283.69640767051322
 30
0.0
  0
VERTEX
  5
39D5
  8
0
 10
359.50354577340528
 20
284.1935602439907
 30
0.0
  0
VERTEX
  5
39D6
  8
0
 10
360.02240947860611
 20
284.78274487770591
 30
0.0
  0
VERTEX
  5
39D7
  8
0
 10
360.75571632311272
 20
285.41750506210212
 30
0.0
  0
VERTEX
  5
39D8
  8
0
 10
361.75694499218361
 20
286.13620865432938
 30
0.0
  0
VERTEX
  5
39D9
  8
0
 10
362.94586968376308
 20
286.8761557992899
 30
0.0
  0
VERTEX
  5
39DA
  8
0
 10
364.37120841773611
 20
287.66177191143061
 30
0.0
  0
VERTEX
  5
39DB
  8
0
 10
365.93188195701049
 20
288.42917653127972
 30
0.0
  0
VERTEX
  5
39DC
  8
0
 10
367.60073190079987
 20
289.15706676427197
 30
0.0
  0
VERTEX
  5
39DD
  8
0
 10
369.3197143938641
 20
289.80738919321141
 30
0.0
  0
VERTEX
  5
39DE
  8
0
 10
370.9160136952338
 20
290.30795428877229
 30
0.0
  0
VERTEX
  5
39DF
  8
0
 10
372.45249677465472
 20
290.6738061292545
 30
0.0
  0
VERTEX
  5
39E0
  8
0
 10
373.54961235149648
 20
290.84057065351169
 30
0.0
  0
VERTEX
  5
39E1
  8
0
 10
374.5417805440365
 20
290.89820059817077
 30
0.0
  0
SEQEND
  5
39E2
  8
0
  0
LINE
  5
3641
  8
2
 10
377.17749861844158
 20
271.0
 30
0.0
 11
359.17879981754771
 21
271.0
 31
0.0
  0
LINE
  5
3642
  8
2
 10
377.17749861844158
 20
289.3850241887946
 30
0.0
 11
377.17749861844158
 21
271.0
 31
0.0
  0
LINE
  5
3643
  8
2
 10
359.17781951335769
 20
271.0
 30
0.0
 11
359.17781951335769
 21
283.3915763915694
 31
0.0
  0
LINE
  5
364C
  8
0
 10
401.99999999999977
 20
386.367462374691
 30
0.0
 11
398.00000000000023
 21
386.3937554053777
 31
0.0
  0
LINE
  5
3653
  8
1
 10
423.33452377915597
 20
446.30508652763268
 30
0.0
 11
440.30508652763308
 21
429.3345237791554
 31
0.0
  0
LINE
  5
3654
  8
1
 10
359.69274656666198
 20
446.29963754584662
 30
0.0
 11
376.6625715651374
 21
429.32981254737132
 31
0.0
  0
LINE
  5
3655
  8
1
 10
440.30152738120921
 20
382.66191707441988
 30
0.0
 11
423.33188416710692
 21
365.6922738603177
 31
0.0
  0
LINE
  5
3656
  8
1
 10
440.30508652763382
 20
446.30508652763342
 30
0.0
 11
423.33452377915671
 21
429.3345237791562
 31
0.0
  0
LINE
  5
365C
  8
1
 10
431.81980515339433
 20
292.37348549787112
 30
0.0
 11
431.81980515339433
 21
213.0
 31
0.0
  0
LINE
  5
365D
  8
1
 10
368.1776590658996
 20
292.37348549787112
 30
0.0
 11
368.1776590658996
 21
213.0
 31
0.0
  0
LINE
  5
365E
  8
1
 10
376.65665531498001
 20
446.30090565160413
 30
0.0
 11
359.68683120095523
 21
429.33108153757928
 31
0.0
  0
LINE
  5
365F
  8
1
 10
423.33743171920429
 20
382.66256828079469
 30
0.0
 11
440.30707450741153
 21
365.69292549258751
 31
0.0
  0
LINE
  5
3660
  8
1
 10
376.6628269002465
 20
382.66536268095172
 30
0.0
 11
359.69249123155282
 21
365.69502701225798
 31
0.0
  0
LINE
  5
3661
  8
1
 10
359.69370207060899
 20
382.66415184189538
 30
0.0
 11
376.66403791211479
 21
365.69381600038957
 31
0.0
  0
LINE
  5
3662
  8
1
 10
423.33452377915569
 20
140.30508652763359
 30
0.0
 11
440.3050865276328
 21
123.3345237791563
 31
0.0
  0
LINE
  5
3663
  8
1
 10
423.33614791428988
 20
76.665667660031033
 30
0.0
 11
440.30579070249712
 21
59.696024871823909
 31
0.0
  0
LINE
  5
3664
  8
1
 10
359.69537626556991
 20
140.3034491046499
 30
0.0
 11
376.66520126404532
 21
123.3336241061745
 31
0.0
  0
LINE
  5
3665
  8
1
 10
359.69249114514668
 20
76.663650260146255
 30
0.0
 11
376.66282698665259
 21
59.693314418640341
 31
0.0
  0
LINE
  5
3666
  8
1
 10
440.30024357629469
 20
76.665016453656165
 30
0.0
 11
423.3306003621924
 21
59.695373239553987
 31
0.0
  0
LINE
  5
3667
  8
1
 10
376.66161597478418
 20
76.664861099202369
 30
0.0
 11
359.69128030609062
 21
59.69452543050874
 31
0.0
  0
LINE
  5
3668
  8
1
 10
440.30508652763348
 20
140.30508652763419
 30
0.0
 11
423.33452377915643
 21
123.3345237791571
 31
0.0
  0
LINE
  5
3669
  8
1
 10
376.65928501388788
 20
140.3047172104072
 30
0.0
 11
359.68946089986309
 21
123.3348930963825
 31
0.0
  0
LINE
  5
36AF
  8
1
 10
415.5
 20
237.00000000000199
 30
0.0
 11
384.49999999999977
 21
237.00000000000199
 31
0.0
  0
LINE
  5
36B3
  8
1
 10
447.99999999999989
 20
204.0
 30
0.0
 11
447.99999999999989
 21
219.0
 31
0.0
  0
ARC
  5
370A
  8
0
 10
225.20795937638059
 20
289.58652288798697
 30
0.0
 40
2.4003583000640858
 50
184.8153758873751
 51
216.0543880538381
  0
POLYLINE
  5
370B
  8
0
 66
     1
 10
0.0
 20
0.0
 30
0.0
 70
   128
  0
VERTEX
  5
39E3
  8
0
 10
240.81477225965421
 20
283.37658767657013
 30
0.0
  0
VERTEX
  5
39E4
  8
0
 10
240.78887468061529
 20
283.24247977588101
 30
0.0
  0
VERTEX
  5
39E5
  8
0
 10
240.66188514779259
 20
283.04467508409653
 30
0.0
  0
VERTEX
  5
39E6
  8
0
 10
240.45257724646001
 20
282.88708668408691
 30
0.0
  0
VERTEX
  5
39E7
  8
0
 10
239.8533885305576
 20
282.62284549392109
 30
0.0
  0
SEQEND
  5
39E8
  8
0
  0
POLYLINE
  5
370C
  8
0
 66
     1
 10
0.0
 20
0.0
 30
0.0
 70
   128
  0
VERTEX
  5
39E9
  8
0
 10
239.8533885305576
 20
282.62284549392109
 30
0.0
  0
VERTEX
  5
39EA
  8
0
 10
238.99788323650469
 20
282.51720194743609
 30
0.0
  0
VERTEX
  5
39EB
  8
0
 10
237.85815931482739
 20
282.51000754771343
 30
0.0
  0
VERTEX
  5
39EC
  8
0
 10
236.6272907660869
 20
282.60357837226468
 30
0.0
  0
VERTEX
  5
39ED
  8
0
 10
235.2297340701698
 20
282.798645955984
 30
0.0
  0
VERTEX
  5
39EE
  8
0
 10
233.67884229741139
 20
283.10350052924292
 30
0.0
  0
VERTEX
  5
39EF
  8
0
 10
232.03729257039299
 20
283.51686412782919
 30
0.0
  0
VERTEX
  5
39F0
  8
0
 10
230.34326389793969
 20
284.04096378571347
 30
0.0
  0
VERTEX
  5
39F1
  8
0
 10
228.67126126991869
 20
284.66592033196082
 30
0.0
  0
VERTEX
  5
39F2
  8
0
 10
227.1233219412361
 20
285.36197838984288
 30
0.0
  0
VERTEX
  5
39F3
  8
0
 10
225.714980144111
 20
286.13078851035903
 30
0.0
  0
VERTEX
  5
39F4
  8
0
 10
224.59166448242331
 20
286.88882472402781
 30
0.0
  0
VERTEX
  5
39F5
  8
0
 10
223.6827910900827
 20
287.67695011490662
 30
0.0
  0
VERTEX
  5
39F6
  8
0
 10
223.2673688868953
 20
288.17378493606338
 30
0.0
  0
SEQEND
  5
39F7
  8
0
  0
LINE
  5
370D
  8
0
 10
240.81477225965421
 20
283.37658767657013
 30
0.0
 11
240.81477225965421
 21
283.3915763915694
 31
0.0
  0
POLYLINE
  5
370E
  8
0
 66
     1
 10
0.0
 20
0.0
 30
0.0
 70
   128
  0
VERTEX
  5
39F8
  8
0
 10
225.45081122897551
 20
290.89820059817077
 30
0.0
  0
VERTEX
  5
39F9
  8
0
 10
225.21331241351601
 20
290.89429739262692
 30
0.0
  0
VERTEX
  5
39FA
  8
0
 10
224.38695465260281
 20
290.80539405128371
 30
0.0
  0
VERTEX
  5
39FB
  8
0
 10
223.72548223169539
 20
290.60688756170941
 30
0.0
  0
VERTEX
  5
39FC
  8
0
 10
223.2406138106289
 20
290.30710709102641
 30
0.0
  0
VERTEX
  5
39FD
  8
0
 10
222.93837720498539
 20
289.92458055183829
 30
0.0
  0
VERTEX
  5
39FE
  8
0
 10
222.81607345876029
 20
289.3850241887946
 30
0.0
  0
VERTEX
  5
39FF
  8
0
 10
222.81607345876029
 20
289.3850241887946
 30
0.0
  0
SEQEND
  5
3A00
  8
0
  0
POLYLINE
  5
370F
  8
0
 66
     1
 10
0.0
 20
0.0
 30
0.0
 70
   128
  0
VERTEX
  5
3A01
  8
0
 10
240.81477225965421
 20
283.3915763915694
 30
0.0
  0
VERTEX
  5
3A02
  8
0
 10
240.757709097316
 20
283.69640767051322
 30
0.0
  0
VERTEX
  5
3A03
  8
0
 10
240.4890459996067
 20
284.1935602439907
 30
0.0
  0
VERTEX
  5
3A04
  8
0
 10
239.97018229440579
 20
284.78274487770591
 30
0.0
  0
VERTEX
  5
3A05
  8
0
 10
239.2368754498992
 20
285.41750506210212
 30
0.0
  0
VERTEX
  5
3A06
  8
0
 10
238.23564678082829
 20
286.13620865432938
 30
0.0
  0
VERTEX
  5
3A07
  8
0
 10
237.0467220892489
 20
286.8761557992899
 30
0.0
  0
VERTEX
  5
3A08
  8
0
 10
235.62138335527581
 20
287.66177191143061
 30
0.0
  0
VERTEX
  5
3A09
  8
0
 10
234.06070981600149
 20
288.42917653127972
 30
0.0
  0
VERTEX
  5
3A0A
  8
0
 10
232.39185987221211
 20
289.15706676427197
 30
0.0
  0
VERTEX
  5
3A0B
  8
0
 10
230.67287737914791
 20
289.80738919321141
 30
0.0
  0
VERTEX
  5
3A0C
  8
0
 10
229.07657807777821
 20
290.30795428877229
 30
0.0
  0
VERTEX
  5
3A0D
  8
0
 10
227.54009499835729
 20
290.6738061292545
 30
0.0
  0
VERTEX
  5
3A0E
  8
0
 10
226.4429794215155
 20
290.84057065351169
 30
0.0
  0
VERTEX
  5
3A0F
  8
0
 10
225.45081122897551
 20
290.89820059817077
 30
0.0
  0
SEQEND
  5
3A10
  8
0
  0
LINE
  5
3710
  8
2
 10
222.81607345876029
 20
271.0
 30
0.0
 11
240.81477225965421
 21
271.0
 31
0.0
  0
LINE
  5
3711
  8
2
 10
222.81607345876029
 20
289.3850241887946
 30
0.0
 11
222.81607345876029
 21
271.0
 31
0.0
  0
LINE
  5
3712
  8
2
 10
240.81477225965421
 20
271.0
 30
0.0
 11
240.81477225965421
 21
283.3915763915694
 31
0.0
  0
LINE
  5
3713
  8
2
 10
226.31980515339421
 20
271.0
 30
0.0
 11
226.31980515339421
 21
216.0
 31
0.0
  0
LINE
  5
3714
  8
2
 10
237.3198051533941
 20
216.0
 30
0.0
 11
237.31980515339421
 21
271.0
 31
0.0
  0
LINE
  5
3715
  8
2
 10
162.68019484660491
 20
271.0
 30
0.0
 11
162.68019484660491
 21
216.0
 31
0.0
  0
LINE
  5
3716
  8
2
 10
173.68019484660491
 20
216.0
 30
0.0
 11
173.68019484660491
 21
271.0
 31
0.0
  0
ARC
  5
3717
  8
0
 10
174.78561270082119
 20
289.58652288798697
 30
0.0
 40
2.4003583000640858
 50
323.94561194616188
 51
355.18462411262487
  0
POLYLINE
  5
3718
  8
0
 66
     1
 10
0.0
 20
0.0
 30
0.0
 70
   128
  0
VERTEX
  5
3A11
  8
0
 10
159.17781951335769
 20
283.37658767657013
 30
0.0
  0
VERTEX
  5
3A12
  8
0
 10
159.20469739658651
 20
283.24247977588101
 30
0.0
  0
VERTEX
  5
3A13
  8
0
 10
159.33168692940919
 20
283.04467508409653
 30
0.0
  0
VERTEX
  5
3A14
  8
0
 10
159.54099483074179
 20
282.88708668408691
 30
0.0
  0
VERTEX
  5
3A15
  8
0
 10
160.14018354664421
 20
282.62284549392109
 30
0.0
  0
SEQEND
  5
3A16
  8
0
  0
POLYLINE
  5
3719
  8
0
 66
     1
 10
0.0
 20
0.0
 30
0.0
 70
   128
  0
VERTEX
  5
3A17
  8
0
 10
160.14018354664421
 20
282.62284549392109
 30
0.0
  0
VERTEX
  5
3A18
  8
0
 10
160.9956888406972
 20
282.51720194743609
 30
0.0
  0
VERTEX
  5
3A19
  8
0
 10
162.13541276237439
 20
282.51000754771343
 30
0.0
  0
VERTEX
  5
3A1A
  8
0
 10
163.3662813111149
 20
282.60357837226468
 30
0.0
  0
VERTEX
  5
3A1B
  8
0
 10
164.76383800703201
 20
282.798645955984
 30
0.0
  0
VERTEX
  5
3A1C
  8
0
 10
166.31472977979041
 20
283.10350052924292
 30
0.0
  0
VERTEX
  5
3A1D
  8
0
 10
167.95627950680881
 20
283.51686412782919
 30
0.0
  0
VERTEX
  5
3A1E
  8
0
 10
169.6503081792622
 20
284.04096378571347
 30
0.0
  0
VERTEX
  5
3A1F
  8
0
 10
171.3223108072832
 20
284.66592033196082
 30
0.0
  0
VERTEX
  5
3A20
  8
0
 10
172.8702501359657
 20
285.36197838984288
 30
0.0
  0
VERTEX
  5
3A21
  8
0
 10
174.27859193309081
 20
286.13078851035903
 30
0.0
  0
VERTEX
  5
3A22
  8
0
 10
175.40190759477849
 20
286.88882472402781
 30
0.0
  0
VERTEX
  5
3A23
  8
0
 10
176.31078098711919
 20
287.67695011490662
 30
0.0
  0
VERTEX
  5
3A24
  8
0
 10
176.72620319030659
 20
288.17378493606338
 30
0.0
  0
SEQEND
  5
3A25
  8
0
  0
LINE
  5
371A
  8
0
 10
159.17781951335769
 20
283.37658767657013
 30
0.0
 11
159.17781951335769
 21
283.3915763915694
 31
0.0
  0
POLYLINE
  5
371B
  8
0
 66
     1
 10
0.0
 20
0.0
 30
0.0
 70
   128
  0
VERTEX
  5
3A26
  8
0
 10
174.54178054403641
 20
290.89820059817077
 30
0.0
  0
VERTEX
  5
3A27
  8
0
 10
174.78025966368591
 20
290.89429739262692
 30
0.0
  0
VERTEX
  5
3A28
  8
0
 10
175.60661742459911
 20
290.80539405128371
 30
0.0
  0
VERTEX
  5
3A29
  8
0
 10
176.26808984550641
 20
290.60688756170941
 30
0.0
  0
VERTEX
  5
3A2A
  8
0
 10
176.7529582665729
 20
290.30710709102641
 30
0.0
  0
VERTEX
  5
3A2B
  8
0
 10
177.0551948722165
 20
289.92458055183829
 30
0.0
  0
VERTEX
  5
3A2C
  8
0
 10
177.17749861844149
 20
289.3850241887946
 30
0.0
  0
VERTEX
  5
3A2D
  8
0
 10
177.17749861844149
 20
289.3850241887946
 30
0.0
  0
SEQEND
  5
3A2E
  8
0
  0
POLYLINE
  5
371C
  8
0
 66
     1
 10
0.0
 20
0.0
 30
0.0
 70
   128
  0
VERTEX
  5
3A2F
  8
0
 10
159.17781951335769
 20
283.3915763915694
 30
0.0
  0
VERTEX
  5
3A30
  8
0
 10
159.2348826756959
 20
283.69640767051322
 30
0.0
  0
VERTEX
  5
3A31
  8
0
 10
159.50354577340519
 20
284.1935602439907
 30
0.0
  0
VERTEX
  5
3A32
  8
0
 10
160.02240947860599
 20
284.78274487770591
 30
0.0
  0
VERTEX
  5
3A33
  8
0
 10
160.75571632311269
 20
285.41750506210212
 30
0.0
  0
VERTEX
  5
3A34
  8
0
 10
161.75694499218349
 20
286.13620865432938
 30
0.0
  0
VERTEX
  5
3A35
  8
0
 10
162.94586968376299
 20
286.8761557992899
 30
0.0
  0
VERTEX
  5
3A36
  8
0
 10
164.371208417736
 20
287.66177191143061
 30
0.0
  0
VERTEX
  5
3A37
  8
0
 10
165.9318819570104
 20
288.42917653127972
 30
0.0
  0
VERTEX
  5
3A38
  8
0
 10
167.60073190079979
 20
289.15706676427197
 30
0.0
  0
VERTEX
  5
3A39
  8
0
 10
169.31971439386399
 20
289.80738919321141
 30
0.0
  0
VERTEX
  5
3A3A
  8
0
 10
170.91601369523369
 20
290.30795428877229
 30
0.0
  0
VERTEX
  5
3A3B
  8
0
 10
172.45249677465461
 20
290.6738061292545
 30
0.0
  0
VERTEX
  5
3A3C
  8
0
 10
173.54961235149639
 20
290.84057065351169
 30
0.0
  0
VERTEX
  5
3A3D
  8
0
 10
174.54178054403641
 20
290.89820059817077
 30
0.0
  0
SEQEND
  5
3A3E
  8
0
  0
LINE
  5
371D
  8
2
 10
177.17749861844149
 20
271.0
 30
0.0
 11
159.1787998175476
 21
271.0
 31
0.0
  0
LINE
  5
371E
  8
2
 10
177.17749861844149
 20
289.3850241887946
 30
0.0
 11
177.17749861844149
 21
271.0
 31
0.0
  0
LINE
  5
371F
  8
2
 10
159.17781951335769
 20
271.0
 30
0.0
 11
159.17781951335769
 21
283.3915763915694
 31
0.0
  0
LINE
  5
3720
  8
1
 10
231.81980515339421
 20
292.37348549787112
 30
0.0
 11
231.81980515339421
 21
213.0
 31
0.0
  0
LINE
  5
3721
  8
1
 10
168.1776590658996
 20
292.37348549787112
 30
0.0
 11
168.1776590658996
 21
213.0
 31
0.0
  0
ARC
  5
3722
  8
0
 10
625.20922726673382
 20
289.62258545508928
 30
0.0
 40
2.4003583000640858
 50
184.8153758873751
 51
216.05438805384119
  0
POLYLINE
  5
3723
  8
0
 66
     1
 10
0.0
 20
0.0
 30
0.0
 70
   128
  0
VERTEX
  5
3A3F
  8
0
 10
640.81604015000732
 20
283.41265024367232
 30
0.0
  0
VERTEX
  5
3A40
  8
0
 10
640.79014257096844
 20
283.27854234298309
 30
0.0
  0
VERTEX
  5
3A41
  8
0
 10
640.66315303814565
 20
283.0807376511986
 30
0.0
  0
VERTEX
  5
3A42
  8
0
 10
640.45384513681313
 20
282.9231492511891
 30
0.0
  0
VERTEX
  5
3A43
  8
0
 10
639.85465642091049
 20
282.65890806102328
 30
0.0
  0
SEQEND
  5
3A44
  8
0
  0
POLYLINE
  5
3724
  8
0
 66
     1
 10
0.0
 20
0.0
 30
0.0
 70
   128
  0
VERTEX
  5
3A45
  8
0
 10
639.85465642091049
 20
282.65890806102328
 30
0.0
  0
VERTEX
  5
3A46
  8
0
 10
638.99915112685767
 20
282.55326451453828
 30
0.0
  0
VERTEX
  5
3A47
  8
0
 10
637.85942720518028
 20
282.54607011481551
 30
0.0
  0
VERTEX
  5
3A48
  8
0
 10
636.62855865644008
 20
282.63964093936693
 30
0.0
  0
VERTEX
  5
3A49
  8
0
 10
635.23100196052269
 20
282.83470852308619
 30
0.0
  0
VERTEX
  5
3A4A
  8
0
 10
633.6801101877644
 20
283.13956309634511
 30
0.0
  0
VERTEX
  5
3A4B
  8
0
 10
632.038560460746
 20
283.55292669493127
 30
0.0
  0
VERTEX
  5
3A4C
  8
0
 10
630.34453178829267
 20
284.07702635281572
 30
0.0
  0
VERTEX
  5
3A4D
  8
0
 10
628.67252916027155
 20
284.7019828990629
 30
0.0
  0
VERTEX
  5
3A4E
  8
0
 10
627.12458983158911
 20
285.39804095694512
 30
0.0
  0
VERTEX
  5
3A4F
  8
0
 10
625.71624803446389
 20
286.16685107746122
 30
0.0
  0
VERTEX
  5
3A50
  8
0
 10
624.59293237277632
 20
286.92488729112989
 30
0.0
  0
VERTEX
  5
3A51
  8
0
 10
623.68405898043568
 20
287.71301268200892
 30
0.0
  0
VERTEX
  5
3A52
  8
0
 10
623.26863677724828
 20
288.20984750316558
 30
0.0
  0
SEQEND
  5
3A53
  8
0
  0
LINE
  5
3725
  8
0
 10
640.81604015000732
 20
283.41265024367232
 30
0.0
 11
640.81604015000732
 21
283.42763895867171
 31
0.0
  0
POLYLINE
  5
3726
  8
0
 66
     1
 10
0.0
 20
0.0
 30
0.0
 70
   128
  0
VERTEX
  5
3A54
  8
0
 10
625.45207911932835
 20
290.93426316527291
 30
0.0
  0
VERTEX
  5
3A55
  8
0
 10
625.21458030386896
 20
290.93035995972912
 30
0.0
  0
VERTEX
  5
3A56
  8
0
 10
624.38822254295565
 20
290.84145661838579
 30
0.0
  0
VERTEX
  5
3A57
  8
0
 10
623.72675012204843
 20
290.64295012881161
 30
0.0
  0
VERTEX
  5
3A58
  8
0
 10
623.24188170098193
 20
290.34316965812872
 30
0.0
  0
VERTEX
  5
3A59
  8
0
 10
622.93964509533851
 20
289.96064311894048
 30
0.0
  0
VERTEX
  5
3A5A
  8
0
 10
622.81734134911335
 20
289.42108675589679
 30
0.0
  0
VERTEX
  5
3A5B
  8
0
 10
622.81734134911335
 20
289.42108675589679
 30
0.0
  0
SEQEND
  5
3A5C
  8
0
  0
POLYLINE
  5
3727
  8
0
 66
     1
 10
0.0
 20
0.0
 30
0.0
 70
   128
  0
VERTEX
  5
3A5D
  8
0
 10
640.81604015000732
 20
283.42763895867171
 30
0.0
  0
VERTEX
  5
3A5E
  8
0
 10
640.75897698766914
 20
283.7324702376153
 30
0.0
  0
VERTEX
  5
3A5F
  8
0
 10
640.49031388995979
 20
284.2296228110929
 30
0.0
  0
VERTEX
  5
3A60
  8
0
 10
639.97145018475885
 20
284.8188074448081
 30
0.0
  0
VERTEX
  5
3A61
  8
0
 10
639.23814334025235
 20
285.45356762920431
 30
0.0
  0
VERTEX
  5
3A62
  8
0
 10
638.23691467118135
 20
286.17227122143157
 30
0.0
  0
VERTEX
  5
3A63
  8
0
 10
637.04798997960199
 20
286.91221836639198
 30
0.0
  0
VERTEX
  5
3A64
  8
0
 10
635.62265124562884
 20
287.6978344785328
 30
0.0
  0
VERTEX
  5
3A65
  8
0
 10
634.06197770635436
 20
288.46523909838191
 30
0.0
  0
VERTEX
  5
3A66
  8
0
 10
632.39312776256509
 20
289.19312933137422
 30
0.0
  0
VERTEX
  5
3A67
  8
0
 10
630.67414526950085
 20
289.84345176031371
 30
0.0
  0
VERTEX
  5
3A68
  8
0
 10
629.07784596813121
 20
290.34401685587449
 30
0.0
  0
VERTEX
  5
3A69
  8
0
 10
627.54136288871018
 20
290.70986869635681
 30
0.0
  0
VERTEX
  5
3A6A
  8
0
 10
626.44424731186837
 20
290.87663322061388
 30
0.0
  0
VERTEX
  5
3A6B
  8
0
 10
625.45207911932835
 20
290.93426316527291
 30
0.0
  0
SEQEND
  5
3A6C
  8
0
  0
LINE
  5
3728
  8
2
 10
622.81734134911335
 20
271.03606256710208
 30
0.0
 11
640.81604015000732
 21
271.03606256710208
 31
0.0
  0
LINE
  5
3729
  8
2
 10
622.81734134911335
 20
289.42108675589679
 30
0.0
 11
622.81734134911335
 21
271.03606256710208
 31
0.0
  0
LINE
  5
372A
  8
2
 10
640.81604015000732
 20
271.03606256710208
 30
0.0
 11
640.81604015000732
 21
283.42763895867171
 31
0.0
  0
LINE
  5
372B
  8
2
 10
626.32107304374733
 20
271.03606256710208
 30
0.0
 11
626.32107304374733
 21
216.03606256710211
 31
0.0
  0
LINE
  5
372C
  8
2
 10
637.32107304374733
 20
216.03606256710211
 30
0.0
 11
637.32107304374733
 21
271.03606256710208
 31
0.0
  0
LINE
  5
372D
  8
2
 10
562.68146273695788
 20
271.03606256710208
 30
0.0
 11
562.68146273695788
 21
216.03606256710211
 31
0.0
  0
LINE
  5
372E
  8
2
 10
573.681462736958
 20
216.03606256710211
 30
0.0
 11
573.681462736958
 21
271.03606256710208
 31
0.0
  0
ARC
  5
372F
  8
0
 10
574.78688059117428
 20
289.62258545508928
 30
0.0
 40
2.4003583000640858
 50
323.94561194616227
 51
355.18462411262487
  0
POLYLINE
  5
3730
  8
0
 66
     1
 10
0.0
 20
0.0
 30
0.0
 70
   128
  0
VERTEX
  5
3A6D
  8
0
 10
559.1790874037107
 20
283.41265024367232
 30
0.0
  0
VERTEX
  5
3A6E
  8
0
 10
559.20596528693954
 20
283.27854234298309
 30
0.0
  0
VERTEX
  5
3A6F
  8
0
 10
559.33295481976222
 20
283.0807376511986
 30
0.0
  0
VERTEX
  5
3A70
  8
0
 10
559.54226272109486
 20
282.9231492511891
 30
0.0
  0
VERTEX
  5
3A71
  8
0
 10
560.14145143699716
 20
282.65890806102328
 30
0.0
  0
SEQEND
  5
3A72
  8
0
  0
POLYLINE
  5
3731
  8
0
 66
     1
 10
0.0
 20
0.0
 30
0.0
 70
   128
  0
VERTEX
  5
3A73
  8
0
 10
560.14145143699716
 20
282.65890806102328
 30
0.0
  0
VERTEX
  5
3A74
  8
0
 10
560.99695673105032
 20
282.55326451453828
 30
0.0
  0
VERTEX
  5
3A75
  8
0
 10
562.13668065272748
 20
282.54607011481551
 30
0.0
  0
VERTEX
  5
3A76
  8
0
 10
563.36754920146802
 20
282.63964093936693
 30
0.0
  0
VERTEX
  5
3A77
  8
0
 10
564.76510589738496
 20
282.83470852308619
 30
0.0
  0
VERTEX
  5
3A78
  8
0
 10
566.31599767014336
 20
283.13956309634511
 30
0.0
  0
VERTEX
  5
3A79
  8
0
 10
567.95754739716187
 20
283.55292669493127
 30
0.0
  0
VERTEX
  5
3A7A
  8
0
 10
569.6515760696152
 20
284.07702635281572
 30
0.0
  0
VERTEX
  5
3A7B
  8
0
 10
571.32357869763621
 20
284.7019828990629
 30
0.0
  0
VERTEX
  5
3A7C
  8
0
 10
572.87151802631865
 20
285.39804095694512
 30
0.0
  0
VERTEX
  5
3A7D
  8
0
 10
574.27985982344376
 20
286.16685107746122
 30
0.0
  0
VERTEX
  5
3A7E
  8
0
 10
575.40317548513156
 20
286.92488729112989
 30
0.0
  0
VERTEX
  5
3A7F
  8
0
 10
576.31204887747208
 20
287.71301268200892
 30
0.0
  0
VERTEX
  5
3A80
  8
0
 10
576.72747108065971
 20
288.20984750316558
 30
0.0
  0
SEQEND
  5
3A81
  8
0
  0
LINE
  5
3732
  8
0
 10
559.1790874037107
 20
283.41265024367232
 30
0.0
 11
559.1790874037107
 21
283.42763895867171
 31
0.0
  0
POLYLINE
  5
3733
  8
0
 66
     1
 10
0.0
 20
0.0
 30
0.0
 70
   128
  0
VERTEX
  5
3A82
  8
0
 10
574.54304843438945
 20
290.93426316527291
 30
0.0
  0
VERTEX
  5
3A83
  8
0
 10
574.7815275540388
 20
290.93035995972912
 30
0.0
  0
VERTEX
  5
3A84
  8
0
 10
575.60788531495211
 20
290.84145661838579
 30
0.0
  0
VERTEX
  5
3A85
  8
0
 10
576.26935773585944
 20
290.64295012881161
 30
0.0
  0
VERTEX
  5
3A86
  8
0
 10
576.75422615692594
 20
290.34316965812872
 30
0.0
  0
VERTEX
  5
3A87
  8
0
 10
577.05646276256948
 20
289.96064311894048
 30
0.0
  0
VERTEX
  5
3A88
  8
0
 10
577.17876650879464
 20
289.42108675589679
 30
0.0
  0
VERTEX
  5
3A89
  8
0
 10
577.17876650879464
 20
289.42108675589679
 30
0.0
  0
SEQEND
  5
3A8A
  8
0
  0
POLYLINE
  5
3734
  8
0
 66
     1
 10
0.0
 20
0.0
 30
0.0
 70
   128
  0
VERTEX
  5
3A8B
  8
0
 10
559.1790874037107
 20
283.42763895867171
 30
0.0
  0
VERTEX
  5
3A8C
  8
0
 10
559.23615056604876
 20
283.7324702376153
 30
0.0
  0
VERTEX
  5
3A8D
  8
0
 10
559.50481366375823
 20
284.2296228110929
 30
0.0
  0
VERTEX
  5
3A8E
  8
0
 10
560.02367736895906
 20
284.8188074448081
 30
0.0
  0
VERTEX
  5
3A8F
  8
0
 10
560.75698421346556
 20
285.45356762920431
 30
0.0
  0
VERTEX
  5
3A90
  8
0
 10
561.75821288253655
 20
286.17227122143157
 30
0.0
  0
VERTEX
  5
3A91
  8
0
 10
562.94713757411603
 20
286.91221836639198
 30
0.0
  0
VERTEX
  5
3A92
  8
0
 10
564.37247630808906
 20
287.6978344785328
 30
0.0
  0
VERTEX
  5
3A93
  8
0
 10
565.93314984736355
 20
288.46523909838191
 30
0.0
  0
VERTEX
  5
3A94
  8
0
 10
567.60199979115293
 20
289.19312933137422
 30
0.0
  0
VERTEX
  5
3A95
  8
0
 10
569.32098228421705
 20
289.84345176031371
 30
0.0
  0
VERTEX
  5
3A96
  8
0
 10
570.91728158558669
 20
290.34401685587449
 30
0.0
  0
VERTEX
  5
3A97
  8
0
 10
572.45376466500772
 20
290.70986869635681
 30
0.0
  0
VERTEX
  5
3A98
  8
0
 10
573.55088024184954
 20
290.87663322061388
 30
0.0
  0
VERTEX
  5
3A99
  8
0
 10
574.54304843438945
 20
290.93426316527291
 30
0.0
  0
SEQEND
  5
3A9A
  8
0
  0
LINE
  5
3735
  8
2
 10
577.17876650879464
 20
271.03606256710208
 30
0.0
 11
559.18006770790078
 21
271.03606256710208
 31
0.0
  0
LINE
  5
3736
  8
2
 10
577.17876650879464
 20
289.42108675589679
 30
0.0
 11
577.17876650879464
 21
271.03606256710208
 31
0.0
  0
LINE
  5
3737
  8
2
 10
559.1790874037107
 20
271.03606256710208
 30
0.0
 11
559.1790874037107
 21
283.42763895867171
 31
0.0
  0
LINE
  5
3738
  8
1
 10
631.82107304374733
 20
292.40954806497319
 30
0.0
 11
631.82107304374733
 21
213.03606256710211
 31
0.0
  0
LINE
  5
3739
  8
1
 10
568.17892695625267
 20
292.40954806497319
 30
0.0
 11
568.17892695625267
 21
213.03606256710211
 31
0.0
  0
LINE
  5
37E3
  8
1
 10
447.99999999999989
 20
91.999999999999986
 30
0.0
 11
447.99999999999989
 21
108.0
 31
0.0
  0
CIRCLE
  5
3836
  8
0
 10
400.0
 20
405.99999999999977
 30
0.0
 40
57.5
  0
TEXT
  5
389E
  8
0
 62
     3
 10
0.0
 20
0.0
 30
0.0
 40
10.0
  1
QZSD-C6-B
  7
STANDARD1
  0
ENDSEC
  0
EOF
