  0
SECTION
  2
HEADER
  9
$ACADVER
  1
AC1009
  9
$INSBASE
 10
0.0
 20
0.0
 30
0.0
  9
$EXTMIN
 10
0.0
 20
-2.960436562073669
 30
0.0
  9
$EXTMAX
 10
270.52510999264678
 20
203.0415684262544
 30
0.0
  9
$LIMMIN
 10
0.0
 20
0.0
  9
$LIMMAX
 10
187.5
 20
135.0
  9
$ORTHOMODE
 70
     1
  9
$REGENMODE
 70
     1
  9
$FILLMODE
 70
     1
  9
$QTEXTMODE
 70
     0
  9
$MIRRTEXT
 70
     0
  9
$DRAGMODE
 70
     2
  9
$LTSCALE
 40
5.0
  9
$OSMODE
 70
  3071
  9
$ATTMODE
 70
     1
  9
$TEXTSIZE
 40
0.2
  9
$TRACEWID
 40
0.05
  9
$TEXTSTYLE
  7
STANDARD
  9
$CLAYER
  8
0
  9
$CELTYPE
  6
BYLAYER
  9
$CECOLOR
 62
     4
  9
$DIMSCALE
 40
0.5
  9
$DIMASZ
 40
3.0
  9
$DIMEXO
 40
2.0
  9
$DIMDLI
 40
0.3799999999999999
  9
$DIMRND
 40
0.0
  9
$DIMDLE
 40
0.0
  9
$DIMEXE
 40
2.0
  9
$DIMTP
 40
0.0
  9
$DIMTM
 40
0.0
  9
$DIMTXT
 40
3.2000000000000002
  9
$DIMCEN
 40
0.09
  9
$DIMTSZ
 40
0.0
  9
$DIMTOL
 70
     0
  9
$DIMLIM
 70
     0
  9
$DIMTIH
 70
     0
  9
$DIMTOH
 70
     0
  9
$DIMSE1
 70
     0
  9
$DIMSE2
 70
     0
  9
$DIMTAD
 70
     1
  9
$DIMZIN
 70
     0
  9
$DIMBLK
  1

  9
$DIMASO
 70
     0
  9
$DIMSHO
 70
     0
  9
$DIMPOST
  1

  9
$DIMAPOST
  1

  9
$DIMALT
 70
     0
  9
$DIMALTD
 70
     2
  9
$DIMALTF
 40
25.399999999999999
  9
$DIMLFAC
 40
1.0
  9
$DIMTOFL
 70
     0
  9
$DIMTVP
 40
1.6000000000000001
  9
$DIMTIX
 70
     1
  9
$DIMSOXD
 70
     0
  9
$DIMSAH
 70
     0
  9
$DIMBLK1
  1

  9
$DIMBLK2
  1

  9
$DIMSTYLE
  2
STANDARD
  9
$DIMCLRD
 70
     0
  9
$DIMCLRE
 70
     0
  9
$DIMCLRT
 70
     0
  9
$DIMTFAC
 40
1.0
  9
$DIMGAP
 40
0.09
  9
$LUNITS
 70
     2
  9
$LUPREC
 70
     4
  9
$SKETCHINC
 40
0.1
  9
$FILLETRAD
 40
0.4
  9
$AUNITS
 70
     0
  9
$AUPREC
 70
     0
  9
$MENU
  1
E:\r13\win\SUPPORT\ACAD
  9
$ELEVATION
 40
0.0
  9
$PELEVATION
 40
0.0
  9
$THICKNESS
 40
0.0
  9
$LIMCHECK
 70
     0
  9
$BLIPMODE
 70
     0
  9
$CHAMFERA
 40
0.0
  9
$CHAMFERB
 40
0.0
  9
$SKPOLY
 70
     0
  9
$TDCREATE
 40
2451824.6906229062
  9
$TDUPDATE
 40
2456598.4344616672
  9
$TDINDWG
 40
0.225991169
  9
$TDUSRTIMER
 40
0.225991169
  9
$USRTIMER
 70
     1
  9
$ANGBASE
 50
0.0
  9
$ANGDIR
 70
     0
  9
$PDMODE
 70
     0
  9
$PDSIZE
 40
0.0
  9
$PLINEWID
 40
0.0
  9
$COORDS
 70
     1
  9
$SPLFRAME
 70
     0
  9
$SPLINETYPE
 70
     6
  9
$SPLINESEGS
 70
     8
  9
$ATTDIA
 70
     0
  9
$ATTREQ
 70
     1
  9
$HANDLING
 70
     1
  9
$HANDSEED
  5
BC7A
  9
$SURFTAB1
 70
     6
  9
$SURFTAB2
 70
     6
  9
$SURFTYPE
 70
     6
  9
$SURFU
 70
     6
  9
$SURFV
 70
     6
  9
$UCSNAME
  2

  9
$UCSORG
 10
0.0
 20
0.0
 30
0.0
  9
$UCSXDIR
 10
1.0
 20
0.0
 30
0.0
  9
$UCSYDIR
 10
0.0
 20
1.0
 30
0.0
  9
$PUCSNAME
  2

  9
$PUCSORG
 10
0.0
 20
0.0
 30
0.0
  9
$PUCSXDIR
 10
1.0
 20
0.0
 30
0.0
  9
$PUCSYDIR
 10
0.0
 20
1.0
 30
0.0
  9
$USERI1
 70
     0
  9
$USERI2
 70
     1
  9
$USERI3
 70
     0
  9
$USERI4
 70
     0
  9
$USERI5
 70
     0
  9
$USERR1
 40
0.0
  9
$USERR2
 40
0.0
  9
$USERR3
 40
0.0
  9
$USERR4
 40
0.0
  9
$USERR5
 40
0.0
  9
$WORLDVIEW
 70
     1
  9
$SHADEDGE
 70
     3
  9
$SHADEDIF
 70
    70
  9
$TILEMODE
 70
     1
  9
$MAXACTVP
 70
    16
  9
$PLIMCHECK
 70
     0
  9
$PEXTMIN
 10
1.0000000000000000E+020
 20
1.0000000000000000E+020
 30
1.0000000000000000E+020
  9
$PEXTMAX
 10
-1.0000000000000000E+020
 20
-1.0000000000000000E+020
 30
-1.0000000000000000E+020
  9
$PLIMMIN
 10
0.0
 20
0.0
  9
$PLIMMAX
 10
12.0
 20
9.0
  9
$UNITMODE
 70
     0
  9
$VISRETAIN
 70
     0
  9
$PLINEGEN
 70
     0
  9
$PSLTSCALE
 70
     0
  0
ENDSEC
  0
SECTION
  2
TABLES
  0
TABLE
  2
VPORT
 70
     1
  0
VPORT
  2
*ACTIVE
 70
     0
 10
0.0
 20
0.0
 11
1.0
 21
1.0
 12
135.26255562618871
 22
112.0127944373924
 13
0.0
 23
0.0
 14
5.0
 24
5.0
 15
5.0
 25
5.0
 16
0.0
 26
0.0
 36
1.0
 17
0.0
 27
0.0
 37
0.0
 40
232.84351104811341
 41
2.304913294797688
 42
50.0
 43
0.0
 44
0.0
 50
0.0
 51
0.0
 71
     0
 72
   500
 73
     1
 74
     0
 75
     0
 76
     0
 77
     0
 78
     2
  0
ENDTAB
  0
TABLE
  2
LTYPE
 70
     4
  0
LTYPE
  2
CONTINUOUS
 70
     0
  3
Solid Line
 72
    65
 73
     0
 40
0.0
  0
LTYPE
  2
CENTER
 70
     0
  3
____ _ ____ _ ____ _ ____ _ ____ _ ____ _ ____
 72
    65
 73
     4
 40
2.0
 49
1.25
 49
-0.25
 49
0.25
 49
-0.25
  0
LTYPE
  2
HIDDEN
 70
     0
  3
__ __ __ __ __ __ __ __ __ __ __ __ __ __ __ __
 72
    65
 73
     2
 40
0.375
 49
0.25
 49
-0.125
  0
LTYPE
  2
PHANTOM2
 70
     0
  3
___ _ _ ___ _ _ ___ _ _ ___ _ _
 72
    65
 73
     6
 40
1.25
 49
0.625
 49
-0.125
 49
0.125
 49
-0.125
 49
0.125
 49
-0.125
  0
ENDTAB
  0
TABLE
  2
LAYER
 70
     4
  0
LAYER
  2
0
 70
     0
 62
     7
  6
CONTINUOUS
  0
LAYER
  2
1
 70
     0
 62
     1
  6
CENTER
  0
LAYER
  2
2
 70
     0
 62
     2
  6
HIDDEN
  0
LAYER
  2
DEFPOINTS
 70
     0
 62
     7
  6
CONTINUOUS
  0
ENDTAB
  0
TABLE
  2
STYLE
 70
     2
  0
STYLE
  2
STANDARD
 70
     0
 40
0.0
 41
1.0
 50
0.0
 71
     0
 42
0.2
  3
TXT
  4
BIGFONT
  0
STYLE
  2
STANDARD1
 70
     0
 40
0.0
 41
1.0
 50
0.0
 71
     0
 42
3.0
  3
txt
  4

  0
ENDTAB
  0
TABLE
  2
VIEW
 70
     0
  0
ENDTAB
  0
TABLE
  2
UCS
 70
     0
  0
ENDTAB
  0
TABLE
  2
APPID
 70
     3
  0
APPID
  2
ACAD
 70
     0
  0
APPID
  2
ACAD_MLEADERVER
 70
     0
  0
APPID
  2
ACAD_NAV_VCDISPLAY
 70
     0
  0
ENDTAB
  0
TABLE
  2
DIMSTYLE
 70
     1
  0
DIMSTYLE
  2
STANDARD
 70
     0
  3

  4

  5

  6

  7

 40
1.0
 41
0.18
 42
0.0625
 43
0.38
 44
0.18
 45
0.0
 46
0.0
 47
0.0
 48
0.0
140
0.18
141
0.09
142
0.0
143
25.399999999999999
144
1.0
145
0.0
146
1.0
147
0.09
 71
     0
 72
     0
 73
     1
 74
     1
 75
     0
 76
     0
 77
     0
 78
     0
170
     0
171
     2
172
     0
173
     0
174
     0
175
     0
176
     0
177
     0
178
     0
  0
ENDTAB
  0
ENDSEC
  0
SECTION
  2
BLOCKS
  0
BLOCK
  8
0
  2
$MODEL_SPACE
 70
     0
 10
0.0
 20
0.0
 30
0.0
  3
$MODEL_SPACE
  1

  0
ENDBLK
  5
9
  8
0
  0
BLOCK
 67
     1
  8
0
  2
$PAPER_SPACE
 70
     0
 10
0.0
 20
0.0
 30
0.0
  3
$PAPER_SPACE
  1

  0
ENDBLK
  5
E
 67
     1
  8
0
  0
ENDSEC
  0
SECTION
  2
ENTITIES
  0
CIRCLE
  5
84BB
  8
0
 10
49.778930310976193
 20
54.088907116413139
 30
0.0
 40
11.5
  0
LINE
  5
84BC
  8
0
 10
54.778930683505223
 20
51.2021571633816
 30
0.0
 11
54.778930683505223
 21
56.975656771421448
 31
0.0
  0
LINE
  5
84BD
  8
0
 10
54.778930683505223
 20
56.975656771421448
 30
0.0
 11
49.77892986394135
 21
59.862410300731682
 31
0.0
  0
LINE
  5
84BE
  8
0
 10
49.77892986394135
 20
59.862410300731682
 30
0.0
 11
44.778929975700059
 21
56.975656771421448
 31
0.0
  0
LINE
  5
84BF
  8
0
 10
44.778929975700059
 20
56.975656771421448
 30
0.0
 11
44.778929975700059
 21
51.2021571633816
 31
0.0
  0
LINE
  5
84C0
  8
0
 10
44.778929975700059
 20
51.2021571633816
 30
0.0
 11
49.77892986394135
 21
48.315403634071373
 31
0.0
  0
LINE
  5
84C1
  8
0
 10
49.77892986394135
 20
48.315403634071373
 30
0.0
 11
54.778930683505223
 21
51.2021571633816
 31
0.0
  0
LINE
  5
84C4
  8
0
 10
29.7789303109762
 20
29.08890845751765
 30
0.0
 11
29.7789303109762
 21
107.0889063415527
 31
0.0
  0
LINE
  5
84C6
  8
0
 10
30.778930358473652
 20
108.0889065054655
 30
0.0
 11
29.7789303109762
 21
107.0889063415527
 31
0.0
  0
LINE
  5
84C8
  8
0
 10
30.778930358473652
 20
28.088906430959732
 30
0.0
 11
29.7789303109762
 21
29.08890845751765
 31
0.0
  0
LINE
  5
84CB
  8
0
 10
30.778930358473652
 20
108.0889065054655
 30
0.0
 11
68.778931115638841
 21
108.0889065054655
 31
0.0
  0
LINE
  5
84CD
  8
0
 10
68.778931115638841
 20
28.088906430959732
 30
0.0
 11
30.778930358473652
 21
28.088906430959732
 31
0.0
  0
CIRCLE
  5
84D1
  8
0
 10
49.778930310976193
 20
54.088907116413139
 30
0.0
 40
11.75
  0
LINE
  5
84D2
  8
0
 10
69.778929416906522
 20
107.0889063415527
 30
0.0
 11
68.778931115638841
 21
108.0889065054655
 31
0.0
  0
LINE
  5
84D5
  8
0
 10
68.778931115638841
 20
28.088906430959732
 30
0.0
 11
69.778929416906522
 21
29.08890845751765
 31
0.0
  0
LINE
  5
84D6
  8
0
 10
69.778929416906522
 20
107.0889063415527
 30
0.0
 11
69.778929416906522
 21
29.08890845751765
 31
0.0
  0
LINE
  5
8793
  8
0
 10
259.5251099404926
 20
101.5889073026776
 30
0.0
 11
231.52510814490279
 21
101.5889073026776
 31
0.0
  0
ARC
  5
8794
  8
0
 10
259.52510999264672
 20
99.588907116413154
 30
0.0
 40
2.0
 50
0.0
 51
90.0
  0
LINE
  5
8795
  8
0
 10
261.5251098026568
 20
88.588907092664414
 30
0.0
 11
261.5251098026568
 21
99.588906974852108
 31
0.0
  0
LINE
  5
8796
  8
0
 10
231.52510814490279
 20
86.588907172292494
 30
0.0
 11
259.5251099404926
 21
86.588907172292494
 31
0.0
  0
ARC
  5
8797
  8
0
 10
231.5251099926468
 20
88.588907116413125
 30
0.0
 40
2.0
 50
179.9999999999996
 51
270.0
  0
LINE
  5
8798
  8
0
 10
229.52511154236751
 20
99.588906974852108
 30
0.0
 11
229.52511154236751
 21
88.588907092664414
 31
0.0
  0
ARC
  5
8799
  8
0
 10
231.5251099926468
 20
99.588907116413154
 30
0.0
 40
2.0
 50
90.0
 51
179.9999999999996
  0
ARC
  5
879A
  8
0
 10
259.52510999264672
 20
88.588907116413125
 30
0.0
 40
2.0
 50
270.0
 51
0.0
  0
LINE
  5
879B
  8
0
 10
230.1460466546055
 20
76.136849471688294
 30
0.0
 11
229.92803521575891
 21
74.41857422268393
 31
0.0
  0
LINE
  5
879C
  8
0
 10
231.3070967060562
 20
73.370631435275101
 30
0.0
 11
229.92803521575891
 21
74.41857422268393
 31
0.0
  0
LINE
  5
879D
  8
0
 10
231.3070967060562
 20
73.370631435275101
 30
0.0
 11
232.9041733604904
 21
74.040964828193211
 31
0.0
  0
LINE
  5
879E
  8
0
 10
232.9041733604904
 20
74.040964828193211
 30
0.0
 11
233.12218479933699
 21
75.759240077197575
 31
0.0
  0
LINE
  5
879F
  8
0
 10
231.7431233090397
 20
76.807182864606403
 30
0.0
 11
233.12218479933699
 21
75.759240077197575
 31
0.0
  0
LINE
  5
87A0
  8
0
 10
231.7431233090397
 20
76.807182864606403
 30
0.0
 11
230.1460466546055
 21
76.136849471688294
 31
0.0
  0
CIRCLE
  5
87A1
  8
0
 10
231.5251099926468
 20
75.088907116413125
 30
0.0
 40
3.4999999999999889
  0
LINE
  5
87A2
  8
0
 10
260.9041737590963
 20
32.040966325759911
 30
0.0
 11
261.1221865949268
 21
33.759241574764282
 31
0.0
  0
LINE
  5
87A3
  8
0
 10
259.74312277632299
 20
34.807184362173111
 30
0.0
 11
261.1221865949268
 21
33.759241574764282
 31
0.0
  0
LINE
  5
87A4
  8
0
 10
259.74312277632299
 20
34.807184362173111
 30
0.0
 11
258.14604612188879
 21
34.13684817528727
 31
0.0
  0
LINE
  5
87A5
  8
0
 10
258.14604612188879
 20
34.13684817528727
 30
0.0
 11
257.92803328605839
 21
32.418572926282913
 31
0.0
  0
LINE
  5
87A6
  8
0
 10
259.30709710466209
 20
31.37063013887408
 30
0.0
 11
257.92803328605839
 21
32.418572926282913
 31
0.0
  0
LINE
  5
87A7
  8
0
 10
259.30709710466209
 20
31.37063013887408
 30
0.0
 11
260.9041737590963
 21
32.040966325759911
 31
0.0
  0
CIRCLE
  5
87A8
  8
0
 10
259.52510999264649
 20
33.088907116413033
 30
0.0
 40
3.4999999999999911
  0
LINE
  5
87A9
  8
0
 10
258.14604612188879
 20
76.136849471688294
 30
0.0
 11
257.92803328605839
 21
74.41857422268393
 31
0.0
  0
LINE
  5
87AA
  8
0
 10
259.30709710466209
 20
73.370631435275101
 30
0.0
 11
257.92803328605839
 21
74.41857422268393
 31
0.0
  0
LINE
  5
87AB
  8
0
 10
259.30709710466209
 20
73.370631435275101
 30
0.0
 11
260.9041737590963
 21
74.040964828193211
 31
0.0
  0
LINE
  5
87AC
  8
0
 10
260.9041737590963
 20
74.040964828193211
 30
0.0
 11
261.1221865949268
 21
75.759240077197575
 31
0.0
  0
LINE
  5
87AD
  8
0
 10
259.74312277632299
 20
76.807182864606403
 30
0.0
 11
261.1221865949268
 21
75.759240077197575
 31
0.0
  0
LINE
  5
87AE
  8
0
 10
259.74312277632299
 20
76.807182864606403
 30
0.0
 11
258.14604612188879
 21
76.136849471688294
 31
0.0
  0
CIRCLE
  5
87AF
  8
0
 10
259.52510999264672
 20
75.088907116413111
 30
0.0
 40
3.5000000000000431
  0
LINE
  5
87B0
  8
0
 10
232.9041733604904
 20
32.040966325759911
 30
0.0
 11
233.12218479933699
 21
33.759241574764282
 31
0.0
  0
LINE
  5
87B1
  8
0
 10
231.7431233090397
 20
34.807184362173111
 30
0.0
 11
233.12218479933699
 21
33.759241574764282
 31
0.0
  0
LINE
  5
87B2
  8
0
 10
231.7431233090397
 20
34.807184362173111
 30
0.0
 11
230.1460466546055
 21
34.13684817528727
 31
0.0
  0
LINE
  5
87B3
  8
0
 10
230.1460466546055
 20
34.13684817528727
 30
0.0
 11
229.92803521575891
 21
32.418572926282913
 31
0.0
  0
LINE
  5
87B4
  8
0
 10
231.3070967060562
 20
31.37063013887408
 30
0.0
 11
229.92803521575891
 21
32.418572926282913
 31
0.0
  0
LINE
  5
87B5
  8
0
 10
231.3070967060562
 20
31.37063013887408
 30
0.0
 11
232.9041733604904
 21
32.040966325759911
 31
0.0
  0
CIRCLE
  5
87B6
  8
0
 10
231.52510999264661
 20
33.088907116413232
 30
0.0
 40
3.5000000000000209
  0
CIRCLE
  5
87B7
  8
0
 10
245.5251099926468
 20
54.088907116413139
 30
0.0
 40
1.7499999999999929
  0
CIRCLE
  5
87B8
  8
0
 10
245.5251099926468
 20
54.088907116413139
 30
0.0
 40
1.2499999999999769
  0
LINE
  5
87BD
  8
0
 10
227.025110201263
 20
80.08890750384333
 30
0.0
 11
264.02510997960809
 21
80.08890750384333
 31
0.0
  0
LINE
  5
87C7
  8
0
 10
264.02510997960809
 20
28.088906430959732
 30
0.0
 11
227.025110201263
 21
28.088906430959732
 31
0.0
  0
CIRCLE
  5
87CA
  8
0
 10
259.52510999264678
 20
33.088907116413132
 30
0.0
 40
3.9999999999999138
  0
CIRCLE
  5
87CB
  8
0
 10
259.52510999264672
 20
75.088907116413111
 30
0.0
 40
3.9999999999999711
  0
CIRCLE
  5
87CC
  8
0
 10
231.5251099926468
 20
33.088907116413139
 30
0.0
 40
4.0
  0
CIRCLE
  5
87CD
  8
0
 10
231.5251099926468
 20
75.088907116413125
 30
0.0
 40
4.0
  0
CIRCLE
  5
87CE
  8
0
 10
245.5251099926468
 20
54.088907116413139
 30
0.0
 40
5.2499999999999707
  0
CIRCLE
  5
87CF
  8
0
 10
245.5251099926468
 20
54.088907116413139
 30
0.0
 40
4.5734999999999948
  0
CIRCLE
  5
87D3
  8
0
 10
245.5251099926468
 20
54.088907116413139
 30
0.0
 40
4.376101696693496
  0
LINE
  5
87D6
  8
0
 10
265.52510999264661
 20
107.0889063415527
 30
0.0
 11
265.52510999264661
 21
80.08890750384333
 31
0.0
  0
LINE
  5
87D8
  8
0
 10
264.52510994514921
 20
108.0889065054655
 30
0.0
 11
265.52510999264661
 21
107.0889063415527
 31
0.0
  0
LINE
  5
87DB
  8
0
 10
265.52510999264661
 20
80.08890750384333
 30
0.0
 11
264.02510997960809
 21
80.08890750384333
 31
0.0
  0
LINE
  5
87DC
  8
0
 10
227.025110201263
 20
80.08890750384333
 30
0.0
 11
225.52511088671639
 21
80.08890750384333
 31
0.0
  0
LINE
  5
87DE
  8
0
 10
226.5251091879841
 20
108.0889065054655
 30
0.0
 11
264.52510994514921
 21
108.0889065054655
 31
0.0
  0
LINE
  5
87E2
  8
0
 10
225.52511088671639
 20
80.08890750384333
 30
0.0
 11
225.52511088671639
 21
107.0889063415527
 31
0.0
  0
LINE
  5
87E4
  8
0
 10
225.52511088671639
 20
107.0889063415527
 30
0.0
 11
226.5251091879841
 21
108.0889065054655
 31
0.0
  0
LINE
  5
87E7
  8
0
 10
225.52511088671639
 20
29.08890845751765
 30
0.0
 11
225.52511088671639
 21
80.08890750384333
 31
0.0
  0
LINE
  5
87E8
  8
0
 10
265.52510999264678
 20
29.08890845751765
 30
0.0
 11
265.52510999264678
 21
80.08890750384333
 31
0.0
  0
LINE
  5
87E9
  8
0
 10
265.52510999264678
 20
29.08890845751765
 30
0.0
 11
264.52510994514932
 21
28.088906430959732
 31
0.0
  0
LINE
  5
87EA
  8
0
 10
264.52510994514932
 20
28.088906430959732
 30
0.0
 11
264.02510997960832
 21
28.088906430959732
 31
0.0
  0
LINE
  5
87EB
  8
0
 10
227.025110201263
 20
28.088906430959732
 30
0.0
 11
226.5251091879841
 21
28.088906430959732
 31
0.0
  0
LINE
  5
87EC
  8
0
 10
225.52511088671639
 20
29.08890845751765
 30
0.0
 11
226.5251091879841
 21
28.088906430959732
 31
0.0
  0
LINE
  5
87F0
  8
1
 10
245.52510999264669
 20
113.0889065054655
 30
0.0
 11
245.52510999264669
 21
23.08890643095971
 31
0.0
  0
LINE
  5
87F1
  8
1
 10
220.5251108867165
 20
54.088907116413139
 30
0.0
 11
270.52510999264678
 21
54.088907116413139
 31
0.0
  0
LINE
  5
8800
  8
0
 10
164.1405379630213
 20
176.64156809648111
 30
0.0
 11
164.1405379630213
 21
179.4415681014541
 31
0.0
  0
ARC
  5
8801
  8
0
 10
162.0405379654454
 20
176.64156809648111
 30
0.0
 40
2.0999999975759058
 50
269.99999865066798
 51
0.0
  0
LINE
  5
8802
  8
0
 10
134.24053791101679
 20
174.54156875360351
 30
0.0
 11
162.0405379159898
 21
174.54156809890529
 31
0.0
  0
ARC
  5
8803
  8
0
 10
134.24053796047241
 20
176.64156875105459
 30
0.0
 40
2.0999999974511492
 50
180.0
 51
269.99999865066798
  0
LINE
  5
8804
  8
0
 10
132.1405379630213
 20
179.44156875602761
 30
0.0
 11
132.1405379630213
 21
176.64156875105459
 31
0.0
  0
LINE
  5
8805
  8
0
 10
153.91553796302139
 20
176.86031818074241
 30
0.0
 11
154.70303796302139
 21
176.8603181807425
 31
0.0
  0
LINE
  5
8806
  8
0
 10
154.70303796302139
 20
176.8603181807425
 30
0.0
 11
154.70303796302139
 21
175.94156818074251
 31
0.0
  0
LINE
  5
8807
  8
0
 10
154.70303796302139
 20
175.94156818074251
 30
0.0
 11
156.0155379630215
 21
175.94156818074251
 31
0.0
  0
LINE
  5
8808
  8
0
 10
156.0155379630215
 20
175.94156818074251
 30
0.0
 11
156.0155379630215
 21
178.43531835775929
 31
0.0
  0
ARC
  5
8809
  8
0
 10
154.3092879630214
 20
178.43531835775929
 30
0.0
 40
1.7062500000000109
 50
0.0
 51
180.0
  0
LINE
  5
880A
  8
0
 10
152.60303796302139
 20
178.43531835775929
 30
0.0
 11
152.60303796302139
 21
175.94156818074251
 31
0.0
  0
LINE
  5
880B
  8
0
 10
152.60303796302139
 20
175.94156818074251
 30
0.0
 11
153.91553796302139
 21
175.94156818074251
 31
0.0
  0
LINE
  5
880C
  8
0
 10
153.91553796302139
 20
175.94156818074251
 30
0.0
 11
153.91553796302139
 21
176.86031818074241
 31
0.0
  0
LINE
  5
880D
  8
0
 10
146.04053796302139
 20
180.1415681807425
 30
0.0
 11
144.72803796302139
 21
180.1415681807425
 31
0.0
  0
LINE
  5
880E
  8
0
 10
144.72803796302139
 20
180.1415681807425
 30
0.0
 11
144.72803796302139
 21
175.94156818074251
 31
0.0
  0
LINE
  5
880F
  8
0
 10
144.72803796302139
 20
175.94156818074251
 30
0.0
 11
146.04053796302139
 21
175.94156818074251
 31
0.0
  0
LINE
  5
8810
  8
0
 10
146.04053796302139
 20
175.94156818074251
 30
0.0
 11
146.04053796302139
 21
180.1415681807425
 31
0.0
  0
ARC
  5
8811
  8
0
 10
141.22803796302151
 20
181.6415681807419
 30
0.0
 40
2.699999999999898
 50
232.33177022329241
 51
264.26082952273191
  0
LINE
  5
8812
  8
0
 10
140.9580379630213
 20
178.95510210055409
 30
0.0
 11
140.9580379630213
 21
178.31156818074271
 31
0.0
  0
LINE
  5
8813
  8
0
 10
140.9580379630213
 20
178.31156818074271
 30
0.0
 11
140.50803796302191
 21
178.31156818074271
 31
0.0
  0
LINE
  5
8814
  8
0
 10
140.50803796302191
 20
178.31156818074271
 30
0.0
 11
140.50803796302191
 21
178.0415681807425
 31
0.0
  0
ARC
  5
8815
  8
0
 10
138.30303796302189
 20
178.0415681807425
 30
0.0
 40
2.2050000000000121
 50
277.03346131539041
 51
0.0
  0
LINE
  5
8816
  8
0
 10
138.5730379630223
 20
175.85316122590081
 30
0.0
 11
138.5730379630223
 21
175.3551021005546
 31
0.0
  0
ARC
  5
8817
  8
0
 10
138.30303796302189
 20
178.0415681807425
 30
0.0
 40
2.700000000000117
 50
275.73917047727468
 51
302.79716829581741
  0
ARC
  5
8818
  8
0
 10
141.22803796302151
 20
178.04156818074239
 30
0.0
 40
2.6999999999999651
 50
237.2028317041794
 51
122.79716829581309
  0
LINE
  5
8819
  8
0
 10
138.03303796302191
 20
175.3551021005546
 30
0.0
 11
138.03303796302191
 21
175.853161225901
 31
0.0
  0
ARC
  5
881A
  8
0
 10
138.30303796302189
 20
178.0415681807425
 30
0.0
 40
2.204999999999719
 50
180.0
 51
262.96653868461948
  0
LINE
  5
881B
  8
0
 10
136.09803796302231
 20
178.0415681807425
 30
0.0
 11
136.09803796302239
 21
178.31156818074271
 31
0.0
  0
LINE
  5
881C
  8
0
 10
136.09803796302239
 20
178.31156818074271
 30
0.0
 11
136.59303796302211
 21
178.31156818074271
 31
0.0
  0
LINE
  5
881D
  8
0
 10
136.59303796302211
 20
178.31156818074271
 30
0.0
 11
136.59303796302211
 21
178.04156818074259
 31
0.0
  0
ARC
  5
881E
  8
0
 10
138.30303796302189
 20
178.0415681807425
 30
0.0
 40
1.70999999999992
 50
179.9999999999971
 51
260.9152797126103
  0
LINE
  5
881F
  8
0
 10
138.03303796302191
 20
176.3530185072062
 30
0.0
 11
138.03303796302191
 21
176.8569479884452
 31
0.0
  0
ARC
  5
8820
  8
0
 10
138.30303796302189
 20
178.0415681807425
 30
0.0
 40
1.214999999999411
 50
180.0
 51
257.1604115930889
  0
LINE
  5
8821
  8
0
 10
137.08803796302249
 20
178.0415681807425
 30
0.0
 11
137.0880379630226
 21
178.31156818074271
 31
0.0
  0
LINE
  5
8822
  8
0
 10
137.0880379630226
 20
178.31156818074271
 30
0.0
 11
137.58303796302241
 21
178.31156818074271
 31
0.0
  0
LINE
  5
8823
  8
0
 10
137.58303796302241
 20
178.31156818074271
 30
0.0
 11
137.58303796302241
 21
178.0415681807425
 31
0.0
  0
ARC
  5
8824
  8
0
 10
138.30303796302189
 20
178.0415681807425
 30
0.0
 40
0.7199999999995157
 50
180.0000000000052
 51
359.99999999999642
  0
ARC
  5
8825
  8
0
 10
141.22803796302151
 20
178.04156818074239
 30
0.0
 40
2.2050000000001262
 50
138.4408524081351
 51
179.99999999999631
  0
LINE
  5
8826
  8
0
 10
147.8780379630214
 20
175.94156818074251
 30
0.0
 11
147.8780379630214
 21
178.43531818074251
 31
0.0
  0
ARC
  5
8827
  8
0
 10
148.27178796302141
 20
178.43531818074251
 30
0.0
 40
0.3937500000000114
 50
0.0
 51
180.0
  0
LINE
  5
8828
  8
0
 10
148.66553796302151
 20
178.43531818074251
 30
0.0
 11
148.66553796302151
 21
175.94156818074251
 31
0.0
  0
LINE
  5
8829
  8
0
 10
148.66553796302151
 20
175.94156818074251
 30
0.0
 11
149.97803796302151
 21
175.94156818074251
 31
0.0
  0
LINE
  5
882A
  8
0
 10
149.97803796302151
 20
175.94156818074251
 30
0.0
 11
149.97803796302151
 21
178.43531818074251
 31
0.0
  0
ARC
  5
882B
  8
0
 10
150.3717879630214
 20
178.43531818074251
 30
0.0
 40
0.3937500000000114
 50
0.0
 51
180.0
  0
LINE
  5
882C
  8
0
 10
150.7655379630215
 20
178.43531818074251
 30
0.0
 11
150.7655379630215
 21
175.94156818074251
 31
0.0
  0
LINE
  5
882D
  8
0
 10
150.7655379630215
 20
175.94156818074251
 30
0.0
 11
152.07803796302139
 21
175.94156818074251
 31
0.0
  0
LINE
  5
882E
  8
0
 10
152.07803796302139
 20
175.94156818074251
 30
0.0
 11
152.07803796302139
 21
178.43531818074251
 31
0.0
  0
ARC
  5
882F
  8
0
 10
150.3717879630214
 20
178.43531818074251
 30
0.0
 40
1.7062499999999841
 50
0.0
 51
127.9798724448506
  0
ARC
  5
8830
  8
0
 10
148.27178796302141
 20
178.43531818074251
 30
0.0
 40
1.7062500000000009
 50
52.02012755514658
 51
180.0
  0
LINE
  5
8831
  8
0
 10
146.56553796302151
 20
178.43531818074251
 30
0.0
 11
146.56553796302151
 21
175.94156818074251
 31
0.0
  0
LINE
  5
8832
  8
0
 10
146.56553796302151
 20
175.94156818074251
 30
0.0
 11
147.8780379630214
 21
175.94156818074251
 31
0.0
  0
LINE
  5
8833
  8
0
 10
140.01303796302241
 20
178.0415681807425
 30
0.0
 11
140.01303796302241
 21
178.31156818074271
 31
0.0
  0
LINE
  5
8834
  8
0
 10
140.01303796302241
 20
178.31156818074271
 30
0.0
 11
139.5180379630215
 21
178.31156818074271
 31
0.0
  0
LINE
  5
8835
  8
0
 10
139.5180379630215
 20
178.31156818074271
 30
0.0
 11
139.5180379630215
 21
178.0415681807425
 31
0.0
  0
ARC
  5
8836
  8
0
 10
138.30303796302189
 20
178.0415681807425
 30
0.0
 40
1.214999999999743
 50
282.83958840692458
 51
0.0
  0
LINE
  5
8837
  8
0
 10
138.57303796302219
 20
176.85694798844489
 30
0.0
 11
138.5730379630223
 21
176.35301850720589
 31
0.0
  0
ARC
  5
8838
  8
0
 10
138.30303796302189
 20
178.0415681807425
 30
0.0
 40
1.710000000000462
 50
279.08472028740289
 51
0.0
  0
CIRCLE
  5
8839
  8
0
 10
158.64053796302139
 20
178.0415681807425
 30
0.0
 40
2.0999999999999091
  0
ARC
  5
883A
  8
0
 10
138.30303796302189
 20
178.0415681807425
 30
0.0
 40
2.7000000000000952
 50
57.202831704174919
 51
264.26082952273509
  0
ARC
  5
883B
  8
0
 10
134.24053796059721
 20
179.44156875602761
 30
0.0
 40
2.0999999975758921
 50
89.999998650668033
 51
180.0
  0
LINE
  5
883C
  8
0
 10
162.04053801502579
 20
181.54156809890529
 30
0.0
 11
134.24053801005289
 21
181.54156875360351
 31
0.0
  0
ARC
  5
883D
  8
0
 10
162.04053796557019
 20
179.4415681014541
 30
0.0
 40
2.0999999974511638
 50
0.0
 51
89.999998650668033
  0
ARC
  5
883E
  8
0
 10
141.22803796302151
 20
178.04156818074239
 30
0.0
 40
2.2050000000001768
 50
54.718738172724152
 51
82.96653868461614
  0
ARC
  5
883F
  8
0
 10
141.22803796302151
 20
181.6415681807419
 30
0.0
 40
2.2049999999999552
 50
277.03346131538723
 51
305.28126182728329
  0
LINE
  5
8840
  8
0
 10
141.49803796302169
 20
180.2299751355842
 30
0.0
 11
141.49803796302169
 21
179.4531612259002
 31
0.0
  0
LINE
  5
8841
  8
0
 10
140.9580379630213
 20
179.4531612259002
 30
0.0
 11
140.9580379630213
 21
180.22997513558431
 31
0.0
  0
ARC
  5
8842
  8
0
 10
141.22803796302151
 20
178.04156818074239
 30
0.0
 40
2.205000000000167
 50
97.033461315383875
 51
125.2812618272756
  0
ARC
  5
8843
  8
0
 10
141.22803796302151
 20
181.6415681807419
 30
0.0
 40
2.2049999999999339
 50
234.7187381727208
 51
262.96653868461618
  0
LINE
  5
8844
  8
0
 10
141.49803796302169
 20
178.95510210055409
 30
0.0
 11
141.49803796302169
 21
178.31156818074271
 31
0.0
  0
ARC
  5
8845
  8
0
 10
141.22803796302151
 20
181.6415681807419
 30
0.0
 40
2.6999999999999269
 50
275.73917047727463
 51
307.66822977671188
  0
LINE
  5
8846
  8
0
 10
141.49803796302169
 20
178.31156818074271
 30
0.0
 11
143.4164449178634
 21
178.31156818074271
 31
0.0
  0
ARC
  5
8847
  8
0
 10
141.22803796302151
 20
178.04156818074239
 30
0.0
 40
2.2050000000001071
 50
7.0334613153890606
 51
41.559147591865212
  0
CIRCLE
  5
8848
  8
0
 10
158.64053796302139
 20
178.0415681807425
 30
0.0
 40
0.7874999999999944
  0
LINE
  5
8849
  8
0
 10
154.70303796302139
 20
177.91031818074259
 30
0.0
 11
154.70303796302139
 21
178.43531835775929
 31
0.0
  0
LINE
  5
884A
  8
0
 10
153.91553796302139
 20
177.91031818074259
 30
0.0
 11
154.70303796302139
 21
177.91031818074259
 31
0.0
  0
LINE
  5
884B
  8
0
 10
153.91553796302139
 20
178.43531835775929
 30
0.0
 11
153.91553796302139
 21
177.91031818074259
 31
0.0
  0
ARC
  5
884C
  8
0
 10
154.3092879630214
 20
178.43531835775929
 30
0.0
 40
0.3937500000000114
 50
0.0
 51
180.0
  0
ARC
  5
884D
  8
0
 10
141.22803796302139
 20
174.4415681807433
 30
0.0
 40
2.699999999999799
 50
52.331770223284231
 51
84.260829522725331
  0
LINE
  5
884E
  8
0
 10
143.41644491786329
 20
177.77156818074229
 30
0.0
 11
141.49803796302169
 21
177.77156818074229
 31
0.0
  0
ARC
  5
884F
  8
0
 10
141.22803796302151
 20
178.04156818074239
 30
0.0
 40
2.204999999999973
 50
318.4408524081403
 51
352.96653868462153
  0
LINE
  5
8850
  8
0
 10
141.49803796302169
 20
177.77156818074229
 30
0.0
 11
141.49803796302169
 21
177.12803426093089
 31
0.0
  0
LINE
  5
8851
  8
0
 10
140.9580379630213
 20
177.12803426093089
 30
0.0
 11
140.9580379630213
 21
177.55067613557941
 31
0.0
  0
LINE
  5
8852
  8
0
 10
140.8384559194275
 20
177.11331402032229
 30
0.0
 11
140.9580379630213
 21
177.12803426093089
 31
0.0
  0
ARC
  5
8853
  8
0
 10
138.30303796302189
 20
178.0415681807425
 30
0.0
 40
2.7000000000002902
 50
339.89157145152058
 51
349.52468615667578
  0
ARC
  5
8854
  8
0
 10
141.22803796302151
 20
178.04156818074239
 30
0.0
 40
2.2049999999998069
 50
241.63809460783901
 51
262.96653868461618
  0
ARC
  5
8855
  8
0
 10
141.22803796302139
 20
174.4415681807433
 30
0.0
 40
2.2049999999997301
 50
97.033461315380563
 51
108.0201607483823
  0
LINE
  5
8856
  8
0
 10
140.9580379630213
 20
175.85316122590081
 30
0.0
 11
140.9580379630213
 21
176.6299751355848
 31
0.0
  0
ARC
  5
8857
  8
0
 10
138.30303796302189
 20
178.0415681807425
 30
0.0
 40
2.700000000000204
 50
314.05787401223449
 51
326.17031835295029
  0
LINE
  5
8858
  8
0
 10
141.49803796302169
 20
176.6299751355848
 30
0.0
 11
141.49803796302169
 21
175.85316122590081
 31
0.0
  0
ARC
  5
8859
  8
0
 10
141.22803796302151
 20
178.04156818074239
 30
0.0
 40
2.2049999999998189
 50
277.03346131538711
 51
305.28126182728039
  0
ARC
  5
885A
  8
0
 10
141.22803796302139
 20
174.4415681807433
 30
0.0
 40
2.2049999999998948
 50
54.718738172716009
 51
82.966538684609617
  0
LINE
  5
88E8
  8
0
 10
177.19053796302131
 20
196.7915684262544
 30
0.0
 11
177.1405379630213
 21
196.8415684262545
 31
0.0
  0
LINE
  5
88EA
  8
0
 10
177.19053796302131
 20
196.7915684262544
 30
0.0
 11
177.44053796302131
 21
196.5415684262544
 31
0.0
  0
LINE
  5
88EB
  8
0
 10
177.44053796302131
 20
196.5415684262544
 30
0.0
 11
177.44053796302131
 21
159.54156842625451
 31
0.0
  0
LINE
  5
88EC
  8
0
 10
177.44053796302131
 20
159.54156842625451
 30
0.0
 11
177.19053796302131
 21
159.29156842625451
 31
0.0
  0
LINE
  5
88EE
  8
0
 10
177.1405379630213
 20
159.2415684262545
 30
0.0
 11
177.19053796302131
 21
159.29156842625451
 31
0.0
  0
LINE
  5
88EF
  8
0
 10
119.1405379630213
 20
197.0415684262544
 30
0.0
 11
120.1405379630213
 21
198.0415684262544
 31
0.0
  0
LINE
  5
88F2
  8
0
 10
138.64053743403011
 20
197.5415684262544
 30
0.0
 11
152.1405379630213
 21
197.5415684262544
 31
0.0
  0
LINE
  5
88F3
  8
0
 10
152.1405379630213
 20
197.5415684262544
 30
0.0
 11
152.1405379630213
 21
198.0415684262544
 31
0.0
  0
LINE
  5
88F4
  8
0
 10
152.1405379630213
 20
198.0415684262544
 30
0.0
 11
176.1405379630213
 21
198.0415684262544
 31
0.0
  0
LINE
  5
88F7
  8
0
 10
120.1405379630213
 20
198.0415684262544
 30
0.0
 11
138.64053743403011
 21
198.0415684262544
 31
0.0
  0
LINE
  5
88F8
  8
0
 10
138.64053743403011
 20
198.0415684262544
 30
0.0
 11
138.64053743403011
 21
197.5415684262544
 31
0.0
  0
LINE
  5
88F9
  8
0
 10
177.1405379630213
 20
197.0415684262544
 30
0.0
 11
176.1405379630213
 21
198.0415684262544
 31
0.0
  0
LINE
  5
88FB
  8
0
 10
119.1405379630213
 20
159.0415684262544
 30
0.0
 11
119.1405379630213
 21
197.0415684262544
 31
0.0
  0
LINE
  5
88FF
  8
0
 10
177.1405379630213
 20
197.0415684262544
 30
0.0
 11
177.1405379630213
 21
159.0415684262544
 31
0.0
  0
LINE
  5
8903
  8
0
 10
120.1405379630213
 20
158.0415684262544
 30
0.0
 11
119.1405379630213
 21
159.0415684262544
 31
0.0
  0
LINE
  5
8904
  8
0
 10
138.64053743403011
 20
158.0415684262544
 30
0.0
 11
120.1405379630213
 21
158.0415684262544
 31
0.0
  0
LINE
  5
8906
  8
0
 10
176.1405379630213
 20
158.0415684262544
 30
0.0
 11
152.1405379630213
 21
158.0415684262544
 31
0.0
  0
LINE
  5
8907
  8
0
 10
152.1405379630213
 20
158.0415684262544
 30
0.0
 11
152.1405379630213
 21
158.5415684262544
 31
0.0
  0
LINE
  5
8908
  8
0
 10
152.1405379630213
 20
158.5415684262544
 30
0.0
 11
138.64053743403011
 21
158.5415684262544
 31
0.0
  0
LINE
  5
8909
  8
0
 10
138.64053743403011
 20
158.5415684262544
 30
0.0
 11
138.64053743403011
 21
158.0415684262544
 31
0.0
  0
LINE
  5
890A
  8
0
 10
176.1405379630213
 20
158.0415684262544
 30
0.0
 11
177.1405379630213
 21
159.0415684262544
 31
0.0
  0
LINE
  5
89C9
  8
2
 10
160.89053796302139
 20
192.5415684262544
 30
0.0
 11
170.39053796302139
 21
192.5415684262544
 31
0.0
  0
LINE
  5
89CA
  8
2
 10
125.8905379630214
 20
192.5415684262544
 30
0.0
 11
135.3905379630213
 21
192.5415684262544
 31
0.0
  0
LINE
  5
89CB
  8
2
 10
170.3905379630213
 20
163.5415684262544
 30
0.0
 11
160.89053796302139
 21
163.5415684262544
 31
0.0
  0
LINE
  5
89CC
  8
2
 10
135.39053796302139
 20
163.5415684262544
 30
0.0
 11
125.8905379630214
 21
163.5415684262544
 31
0.0
  0
LINE
  5
8A98
  8
1
 10
148.14053796302119
 20
202.5415684262544
 30
0.0
 11
148.1405379630213
 21
153.54156842625429
 31
0.0
  0
LINE
  5
958C
  8
2
 10
125.8905379630214
 20
163.5415684262544
 30
0.0
 11
125.8905379630214
 21
158.0415684262544
 31
0.0
  0
LINE
  5
958D
  8
2
 10
135.39053796302139
 20
163.5415684262544
 30
0.0
 11
135.39053796302139
 21
158.0415684262544
 31
0.0
  0
LINE
  5
958E
  8
2
 10
133.39053796302139
 20
163.5415684262544
 30
0.0
 11
133.3905379630213
 21
192.5415684262544
 31
0.0
  0
LINE
  5
958F
  8
2
 10
127.8905379630214
 20
163.5415684262544
 30
0.0
 11
127.8905379630215
 21
192.54156842625451
 31
0.0
  0
LINE
  5
9590
  8
2
 10
135.3905379630213
 20
192.5415684262544
 30
0.0
 11
135.3905379630213
 21
198.0415684262544
 31
0.0
  0
LINE
  5
9591
  8
2
 10
125.8905379630214
 20
192.5415684262544
 30
0.0
 11
125.8905379630214
 21
198.0415684262544
 31
0.0
  0
LINE
  5
9592
  8
2
 10
140.14053712855619
 20
197.5415684262544
 30
0.0
 11
140.14053712855619
 21
158.5415684262544
 31
0.0
  0
LINE
  5
9593
  8
2
 10
156.1405371285567
 20
198.0415684262544
 30
0.0
 11
156.1405371285563
 21
158.0415684262544
 31
0.0
  0
LINE
  5
9594
  8
2
 10
170.39053796302139
 20
163.5415684262544
 30
0.0
 11
170.39053796302139
 21
158.0415684262544
 31
0.0
  0
LINE
  5
9595
  8
2
 10
160.89053796302139
 20
163.5415684262544
 30
0.0
 11
160.89053796302139
 21
158.0415684262544
 31
0.0
  0
LINE
  5
9596
  8
2
 10
160.89053796302139
 20
192.5415684262544
 30
0.0
 11
160.89053796302139
 21
198.0415684262544
 31
0.0
  0
LINE
  5
9597
  8
2
 10
170.3905379630213
 20
192.5415684262544
 30
0.0
 11
170.3905379630213
 21
198.0415684262544
 31
0.0
  0
LINE
  5
9598
  8
2
 10
162.8905379630213
 20
163.5415684262544
 30
0.0
 11
162.89053796302139
 21
192.54156842625451
 31
0.0
  0
LINE
  5
9599
  8
2
 10
168.3905379630213
 20
163.5415684262544
 30
0.0
 11
168.3905379630213
 21
192.5415684262544
 31
0.0
  0
LINE
  5
959B
  8
1
 10
49.778930310976193
 20
113.0889065054655
 30
0.0
 11
49.778930310976193
 21
23.088906430959721
 31
0.0
  0
LINE
  5
959C
  8
1
 10
24.77893031097619
 20
54.088907116413139
 30
0.0
 11
74.778929416906522
 21
54.088907116413161
 31
0.0
  0
LINE
  5
959D
  8
1
 10
122.8905371285563
 20
89.088907116413168
 30
0.0
 11
173.39053712855639
 21
89.088907116413168
 31
0.0
  0
LINE
  5
959E
  8
1
 10
130.6405371285563
 20
96.838907116413182
 30
0.0
 11
130.6405371285563
 21
81.338907116413168
 31
0.0
  0
LINE
  5
95A0
  8
1
 10
165.6405371285563
 20
96.838907116413196
 30
0.0
 11
165.6405371285563
 21
81.338907116413196
 31
0.0
  0
LINE
  5
95A2
  8
1
 10
148.14053712855619
 20
99.588907116413225
 30
0.0
 11
148.14053712855619
 21
78.588907116413168
 31
0.0
  0
LINE
  5
95A3
  8
1
 10
182.44053796302131
 20
178.0415684262544
 30
0.0
 11
114.1405379630213
 21
178.0415684262544
 31
0.0
  0
LINE
  5
95A4
  8
1
 10
130.64053796302139
 20
203.0415684262544
 30
0.0
 11
130.6405379630215
 21
153.0415684262544
 31
0.0
  0
LINE
  5
95A5
  8
1
 10
165.64053796302139
 20
203.0415684262544
 30
0.0
 11
165.6405379630215
 21
153.0415684262544
 31
0.0
  0
LINE
  5
95B2
  8
1
 10
224.5251099926468
 20
75.088907116413125
 30
0.0
 11
238.5251099926468
 21
75.088907116413125
 31
0.0
  0
LINE
  5
95B3
  8
1
 10
231.5251099926468
 20
82.088907116413154
 30
0.0
 11
231.5251099926468
 21
68.088907116413139
 31
0.0
  0
LINE
  5
95B9
  8
1
 10
259.52510999264672
 20
82.088907116413111
 30
0.0
 11
259.52510999264672
 21
68.088907116413111
 31
0.0
  0
LINE
  5
95BA
  8
1
 10
252.52510999264669
 20
75.088907116413111
 30
0.0
 11
266.52510999264672
 21
75.088907116413111
 31
0.0
  0
LINE
  5
95BB
  8
1
 10
259.52510999264649
 20
40.088907116413019
 30
0.0
 11
259.52510999264649
 21
26.088907116413029
 31
0.0
  0
LINE
  5
95BC
  8
1
 10
252.52510999264661
 20
33.088907116413033
 30
0.0
 11
266.52510999264649
 21
33.088907116413033
 31
0.0
  0
LINE
  5
95BD
  8
1
 10
231.52510999264661
 20
40.088907116413218
 30
0.0
 11
231.52510999264661
 21
26.088907116413221
 31
0.0
  0
LINE
  5
95BE
  8
1
 10
224.52510999264649
 20
33.088907116413232
 30
0.0
 11
238.52510999264661
 21
33.088907116413232
 31
0.0
  0
ARC
  5
A95F
  8
0
 10
158.64053712855639
 20
54.088907116413118
 30
0.0
 40
6.5
 50
157.3801350519592
 51
202.61986494804151
  0
LINE
  5
A98E
  8
0
 10
152.64053693484121
 20
51.58890562629702
 30
0.0
 11
152.64053693484121
 21
56.588908308506028
 31
0.0
  0
LINE
  5
A990
  8
0
 10
170.44053649972719
 20
79.088907339930557
 30
0.0
 11
170.44053649972719
 21
80.08890750384333
 31
0.0
  0
LINE
  5
A991
  8
0
 10
176.1405379928236
 20
80.08890750384333
 30
0.0
 11
176.9405366338377
 21
80.08890750384333
 31
0.0
  0
LINE
  5
A992
  8
0
 10
177.1905371404772
 20
79.83890699720385
 30
0.0
 11
176.9405366338377
 21
80.08890750384333
 31
0.0
  0
LINE
  5
A994
  8
0
 10
177.1905371404772
 20
28.338906937599202
 30
0.0
 11
177.44053764711671
 21
28.588907444238679
 31
0.0
  0
LINE
  5
A997
  8
0
 10
177.44053764711671
 20
79.588907421886944
 30
0.0
 11
177.1905371404772
 21
79.83890699720385
 31
0.0
  0
LINE
  5
A998
  8
0
 10
177.44053764711671
 20
79.588907421886944
 30
0.0
 11
177.44053764711671
 21
28.588907444238679
 31
0.0
  0
LINE
  5
A99A
  8
0
 10
170.44053649972719
 20
79.088907339930557
 30
0.0
 11
170.44053649972719
 21
29.08890845751765
 31
0.0
  0
LINE
  5
A99B
  8
0
 10
176.9405366338377
 20
28.088906430959721
 30
0.0
 11
177.1905371404772
 21
28.338906937599202
 31
0.0
  0
LINE
  5
A99C
  8
0
 10
176.9405366338377
 20
28.088906430959721
 30
0.0
 11
170.44053649972719
 21
28.088906430959721
 31
0.0
  0
LINE
  5
A99D
  8
0
 10
170.44053649972719
 20
28.088906430959721
 30
0.0
 11
170.44053649972719
 21
29.08890845751765
 31
0.0
  0
LINE
  5
A99E
  8
0
 10
136.6405371062045
 20
28.088906430959721
 30
0.0
 11
120.1405362642889
 21
28.088906430959721
 31
0.0
  0
LINE
  5
A9A1
  8
0
 10
136.6405371062045
 20
29.08890845751765
 30
0.0
 11
136.6405371062045
 21
28.088906430959721
 31
0.0
  0
LINE
  5
A9A2
  8
0
 10
136.6405371062045
 20
81.397619215160645
 30
0.0
 11
136.6405371062045
 21
29.08890845751765
 31
0.0
  0
LINE
  5
A9A5
  8
0
 10
138.64053743403011
 20
85.980194970354475
 30
0.0
 11
138.64053743403011
 21
107.0889063415527
 31
0.0
  0
ARC
  5
A9A6
  8
0
 10
137.6405371285563
 20
83.688907116413148
 30
0.0
 40
2.5000000000000089
 50
66.421821521796275
 51
246.42182152179959
  0
LINE
  5
A9AA
  8
0
 10
170.14053700934701
 20
80.08890750384333
 30
0.0
 11
176.1405379928236
 21
80.08890750384333
 31
0.0
  0
LINE
  5
A9AB
  8
0
 10
170.14053700934701
 20
29.08890845751765
 30
0.0
 11
170.14053700934701
 21
80.08890750384333
 31
0.0
  0
LINE
  5
A9AE
  8
0
 10
152.14053731854611
 20
107.0889063415527
 30
0.0
 11
152.14053731854611
 21
96.017110236997965
 31
0.0
  0
LINE
  5
A9B0
  8
0
 10
154.14053718071031
 20
29.08890845751765
 30
0.0
 11
154.14053718071031
 21
83.797404553421117
 31
0.0
  0
LINE
  5
A9B1
  8
0
 10
170.14053700934701
 20
29.08890845751765
 30
0.0
 11
169.14053684543421
 21
28.088906430959721
 31
0.0
  0
LINE
  5
A9B2
  8
0
 10
169.14053684543421
 20
28.088906430959721
 30
0.0
 11
154.14053718071031
 21
28.088906430959721
 31
0.0
  0
LINE
  5
A9B3
  8
0
 10
154.14053718071031
 20
28.088906430959721
 30
0.0
 11
154.14053718071031
 21
29.08890845751765
 31
0.0
  0
LINE
  5
A9B4
  8
0
 10
176.1405379928236
 20
108.0889065054655
 30
0.0
 11
177.14053629409119
 21
107.0889063415527
 31
0.0
  0
LINE
  5
A9B7
  8
0
 10
119.1405379630213
 20
107.0889063415527
 30
0.0
 11
120.1405362642889
 21
108.0889065054655
 31
0.0
  0
CIRCLE
  5
A9BA
  8
0
 10
130.64053712855619
 20
89.088907116413125
 30
0.0
 40
4.75
  0
LINE
  5
A9BB
  8
0
 10
177.14053629409119
 20
107.0889063415527
 30
0.0
 11
177.14053629409119
 21
81.088906736433543
 31
0.0
  0
LINE
  5
A9BC
  8
0
 10
177.14053629409119
 20
81.088906736433543
 30
0.0
 11
176.1405379928236
 21
80.08890750384333
 31
0.0
  0
ARC
  5
A9BD
  8
0
 10
148.14053712855619
 20
89.088907116413154
 30
0.0
 40
7.9999999999999929
 50
318.5903778907296
 51
59.999999999999972
  0
LINE
  5
A9C1
  8
0
 10
119.1405379630213
 20
29.08890845751765
 30
0.0
 11
119.1405379630213
 21
107.0889063415527
 31
0.0
  0
LINE
  5
A9C2
  8
0
 10
120.1405362642889
 20
108.0889065054655
 30
0.0
 11
176.1405379928236
 21
108.0889065054655
 31
0.0
  0
LINE
  5
A9C3
  8
0
 10
152.14053731854611
 20
107.5889073548317
 30
0.0
 11
138.64053743403011
 21
107.5889073548317
 31
0.0
  0
LINE
  5
A9C4
  8
0
 10
138.64053743403011
 20
107.5889073548317
 30
0.0
 11
138.64053743403011
 21
107.0889063415527
 31
0.0
  0
LINE
  5
A9C5
  8
0
 10
152.14053731854611
 20
107.0889063415527
 30
0.0
 11
152.14053731854611
 21
107.5889073548317
 31
0.0
  0
LINE
  5
A9C6
  8
0
 10
120.1405362642889
 20
28.088906430959721
 30
0.0
 11
119.1405379630213
 21
29.08890845751765
 31
0.0
  0
CIRCLE
  5
A9C7
  8
0
 10
165.64053712855639
 20
89.088907116413154
 30
0.0
 40
4.75
  0
LINE
  5
A9C8
  8
0
 10
152.14053731854611
 20
28.588907444238679
 30
0.0
 11
152.14053731854611
 21
28.088906430959721
 31
0.0
  0
LINE
  5
A9C9
  8
0
 10
152.14053731854611
 20
28.088906430959721
 30
0.0
 11
138.64053743403011
 21
28.088906430959721
 31
0.0
  0
LINE
  5
A9CA
  8
0
 10
138.64053743403011
 20
28.088906430959721
 30
0.0
 11
138.64053743403011
 21
28.588907444238679
 31
0.0
  0
LINE
  5
A9CD
  8
0
 10
152.14053731854611
 20
28.588907444238679
 30
0.0
 11
152.14053731854611
 21
82.160703995828314
 31
0.0
  0
LINE
  5
A9CE
  8
0
 10
138.64053743403011
 20
28.588907444238679
 30
0.0
 11
138.64053743403011
 21
81.397619215160645
 31
0.0
  0
ARC
  5
A9CF
  8
0
 10
137.6405371285563
 20
83.688907116413148
 30
0.0
 40
2.5000000000000222
 50
293.57817847820382
 51
66.421821521796275
  0
ARC
  5
A9D0
  8
0
 10
148.14053712855619
 20
89.088907116413154
 30
0.0
 40
8.0000000000000036
 50
59.999999999999972
 51
300.00000000000023
  0
CIRCLE
  5
A9D2
  8
0
 10
130.64053712855619
 20
89.088907116413125
 30
0.0
 40
2.75
  0
CIRCLE
  5
A9D3
  8
0
 10
165.64053712855639
 20
89.088907116413154
 30
0.0
 40
2.75
  0
LINE
  5
A9E9
  8
1
 10
114.1405379630213
 20
54.088907116413161
 30
0.0
 11
182.4405376471166
 21
54.088907116413161
 31
0.0
  0
LINE
  5
BA3F
  8
0
 10
137.64300299749351
 20
46.089449225855347
 30
0.0
 11
138.64053743403011
 21
58.088907116413147
 31
0.0
  0
LINE
  5
BA40
  8
0
 10
137.64053743403011
 20
62.088907116413132
 30
0.0
 11
136.64053743403019
 21
50.088907116413147
 31
0.0
  0
LINE
  5
BA41
  8
0
 10
136.64053743403011
 20
46.088907116413147
 30
0.0
 11
137.64053743403011
 21
46.088907116413147
 31
0.0
  0
LINE
  5
BA42
  8
0
 10
138.64053743403011
 20
62.088907116413182
 30
0.0
 11
137.64053743403011
 21
62.088907116413147
 31
0.0
  0
LINE
  5
BA43
  8
0
 10
152.64053712855639
 20
51.588907116413012
 30
0.0
 11
154.1405371807102
 21
51.588907116413012
 31
0.0
  0
LINE
  5
BA44
  8
0
 10
152.64053693484121
 20
56.588908308506028
 30
0.0
 11
154.1405371807102
 21
56.588908308506028
 31
0.0
  0
TEXT
  5
BC14
  8
0
 62
     3
 10
0.0
 20
0.0
 30
0.0
 40
10.0
  1
QSCA16-N
  7
STANDARD1
  0
ENDSEC
  0
EOF
