  0
SECTION
  2
HEADER
  9
$ACADVER
  1
AC1009
  9
$INSBASE
 10
0.0
 20
0.0
 30
0.0
  9
$EXTMIN
 10
0.0
 20
-2.960436562073669
 30
-0.0000000000000142
  9
$EXTMAX
 10
686.91850331928833
 20
475.50084770191478
 30
0.0000000000000142
  9
$LIMMIN
 10
0.0
 20
0.0
  9
$LIMMAX
 10
594.0
 20
420.0
  9
$ORTHOMODE
 70
     1
  9
$REGENMODE
 70
     1
  9
$FILLMODE
 70
     1
  9
$QTEXTMODE
 70
     0
  9
$MIRRTEXT
 70
     1
  9
$DRAGMODE
 70
     2
  9
$LTSCALE
 40
1.0
  9
$OSMODE
 70
  3071
  9
$ATTMODE
 70
     1
  9
$TEXTSIZE
 40
2.5
  9
$TRACEWID
 40
1.0
  9
$TEXTSTYLE
  7
STANDARD
  9
$CLAYER
  8
0
  9
$CELTYPE
  6
BYLAYER
  9
$CECOLOR
 62
   256
  9
$DIMSCALE
 40
1.0
  9
$DIMASZ
 40
3.0
  9
$DIMEXO
 40
1.0
  9
$DIMDLI
 40
3.75
  9
$DIMRND
 40
0.0
  9
$DIMDLE
 40
0.0
  9
$DIMEXE
 40
1.0
  9
$DIMTP
 40
0.0
  9
$DIMTM
 40
0.0
  9
$DIMTXT
 40
4.2333333333333316
  9
$DIMCEN
 40
2.5
  9
$DIMTSZ
 40
0.0
  9
$DIMTOL
 70
     0
  9
$DIMLIM
 70
     0
  9
$DIMTIH
 70
     1
  9
$DIMTOH
 70
     1
  9
$DIMSE1
 70
     0
  9
$DIMSE2
 70
     0
  9
$DIMTAD
 70
     1
  9
$DIMZIN
 70
     0
  9
$DIMBLK
  1

  9
$DIMASO
 70
     1
  9
$DIMSHO
 70
     1
  9
$DIMPOST
  1

  9
$DIMAPOST
  1

  9
$DIMALT
 70
     0
  9
$DIMALTD
 70
     3
  9
$DIMALTF
 40
0.0393700787401575
  9
$DIMLFAC
 40
1.0
  9
$DIMTOFL
 70
     1
  9
$DIMTVP
 40
0.0
  9
$DIMTIX
 70
     0
  9
$DIMSOXD
 70
     0
  9
$DIMSAH
 70
     0
  9
$DIMBLK1
  1

  9
$DIMBLK2
  1

  9
$DIMSTYLE
  2
ISO-25
  9
$DIMCLRD
 70
     0
  9
$DIMCLRE
 70
     0
  9
$DIMCLRT
 70
     0
  9
$DIMTFAC
 40
1.0
  9
$DIMGAP
 40
1.524
  9
$LUNITS
 70
     2
  9
$LUPREC
 70
     1
  9
$SKETCHINC
 40
1.0
  9
$FILLETRAD
 40
10.0
  9
$AUNITS
 70
     0
  9
$AUPREC
 70
     0
  9
$MENU
  1
.
  9
$ELEVATION
 40
0.0
  9
$PELEVATION
 40
0.0
  9
$THICKNESS
 40
0.0
  9
$LIMCHECK
 70
     0
  9
$BLIPMODE
 70
     0
  9
$CHAMFERA
 40
10.0
  9
$CHAMFERB
 40
10.0
  9
$SKPOLY
 70
     0
  9
$TDCREATE
 40
2454991.6013850812
  9
$TDUPDATE
 40
2456598.4302857411
  9
$TDINDWG
 40
0.3642482523
  9
$TDUSRTIMER
 40
0.3642482523
  9
$USRTIMER
 70
     1
  9
$ANGBASE
 50
0.0
  9
$ANGDIR
 70
     0
  9
$PDMODE
 70
     0
  9
$PDSIZE
 40
-1.0
  9
$PLINEWID
 40
0.0
  9
$COORDS
 70
     1
  9
$SPLFRAME
 70
     0
  9
$SPLINETYPE
 70
     6
  9
$SPLINESEGS
 70
     8
  9
$ATTDIA
 70
     0
  9
$ATTREQ
 70
     1
  9
$HANDLING
 70
     1
  9
$HANDSEED
  5
A153
  9
$SURFTAB1
 70
     6
  9
$SURFTAB2
 70
     6
  9
$SURFTYPE
 70
     6
  9
$SURFU
 70
     6
  9
$SURFV
 70
     6
  9
$UCSNAME
  2

  9
$UCSORG
 10
0.0
 20
0.0
 30
0.0
  9
$UCSXDIR
 10
1.0
 20
0.0
 30
0.0
  9
$UCSYDIR
 10
0.0
 20
1.0
 30
0.0
  9
$PUCSNAME
  2

  9
$PUCSORG
 10
0.0
 20
0.0
 30
0.0
  9
$PUCSXDIR
 10
1.0
 20
0.0
 30
0.0
  9
$PUCSYDIR
 10
0.0
 20
1.0
 30
0.0
  9
$USERI1
 70
     0
  9
$USERI2
 70
     0
  9
$USERI3
 70
     0
  9
$USERI4
 70
     0
  9
$USERI5
 70
     0
  9
$USERR1
 40
0.0
  9
$USERR2
 40
0.0
  9
$USERR3
 40
0.0
  9
$USERR4
 40
0.0
  9
$USERR5
 40
0.0
  9
$WORLDVIEW
 70
     1
  9
$SHADEDGE
 70
     3
  9
$SHADEDIF
 70
    70
  9
$TILEMODE
 70
     1
  9
$MAXACTVP
 70
    64
  9
$PLIMCHECK
 70
     0
  9
$PEXTMIN
 10
1.0000000000000000E+020
 20
1.0000000000000000E+020
 30
1.0000000000000000E+020
  9
$PEXTMAX
 10
-1.0000000000000000E+020
 20
-1.0000000000000000E+020
 30
-1.0000000000000000E+020
  9
$PLIMMIN
 10
0.0
 20
0.0
  9
$PLIMMAX
 10
420.0
 20
297.0
  9
$UNITMODE
 70
     0
  9
$VISRETAIN
 70
     1
  9
$PLINEGEN
 70
     0
  9
$PSLTSCALE
 70
     1
  0
ENDSEC
  0
SECTION
  2
TABLES
  0
TABLE
  2
VPORT
 70
     1
  0
VPORT
  2
*ACTIVE
 70
     0
 10
0.0
 20
0.0
 11
1.0
 21
1.0
 12
343.45925325900077
 22
264.06890769664261
 13
0.0
 23
0.0
 14
10.0
 24
10.0
 15
10.0
 25
10.0
 16
0.0
 26
0.0
 36
1.0
 17
0.0
 27
0.0
 37
0.0
 40
540.82440965172088
 41
2.304913294797688
 42
50.0
 43
0.0
 44
0.0
 50
0.0
 51
0.0
 71
     0
 72
  2000
 73
     1
 74
     3
 75
     0
 76
     0
 77
     0
 78
     0
  0
ENDTAB
  0
TABLE
  2
LTYPE
 70
     2
  0
LTYPE
  2
CONTINUOUS
 70
     0
  3
Solid line
 72
    65
 73
     0
 40
0.0
  0
LTYPE
  2
CENTER
 70
     0
  3
Center ____ _ ____ _ ____ _ ____ _ ____ _ ____
 72
    65
 73
     4
 40
10.16
 49
6.3499999999999988
 49
-1.27
 49
1.27
 49
-1.27
  0
ENDTAB
  0
TABLE
  2
LAYER
 70
     4
  0
LAYER
  2
0
 70
     0
 62
     7
  6
CONTINUOUS
  0
LAYER
  2
DEFPOINTS
 70
     0
 62
     7
  6
CONTINUOUS
  0
LAYER
  2
1
 70
     0
 62
     1
  6
CENTER
  0
LAYER
  2
3
 70
     0
 62
     3
  6
CONTINUOUS
  0
ENDTAB
  0
TABLE
  2
STYLE
 70
     2
  0
STYLE
  2
STANDARD
 70
     0
 40
0.0
 41
1.0
 50
0.0
 71
     0
 42
2.5
  3
txt
  4
bigfont
  0
STYLE
  2
STANDARD1
 70
     0
 40
0.0
 41
1.0
 50
0.0
 71
     0
 42
3.0
  3
txt
  4

  0
ENDTAB
  0
TABLE
  2
VIEW
 70
     0
  0
ENDTAB
  0
TABLE
  2
UCS
 70
     0
  0
ENDTAB
  0
TABLE
  2
APPID
 70
     4
  0
APPID
  2
ACAD
 70
     0
  0
APPID
  2
DCO15
 70
     0
  0
APPID
  2
ACAD_MLEADERVER
 70
     0
  0
APPID
  2
ACAD_NAV_VCDISPLAY
 70
     0
  0
ENDTAB
  0
TABLE
  2
DIMSTYLE
 70
     2
  0
DIMSTYLE
  2
ISO-25
 70
     0
  3

  4

  5

  6

  7

 40
1.0
 41
2.5
 42
0.625
 43
3.75
 44
1.25
 45
0.0
 46
0.0
 47
0.0
 48
0.0
140
2.5
141
2.5
142
0.0
143
0.03937007874016
144
1.0
145
0.0
146
1.0
147
0.625
 71
     0
 72
     0
 73
     0
 74
     0
 75
     0
 76
     0
 77
     1
 78
     8
170
     0
171
     3
172
     1
173
     0
174
     0
175
     0
176
     0
177
     0
178
     0
  0
DIMSTYLE
  2
STANDARD
 70
     0
  3

  4

  5

  6

  7

 40
1.0
 41
0.18
 42
0.0625
 43
0.38
 44
0.18
 45
0.0
 46
0.0
 47
0.0
 48
0.0
140
0.18
141
0.09
142
0.0
143
25.399999999999999
144
1.0
145
0.0
146
1.0
147
0.09
 71
     0
 72
     0
 73
     1
 74
     1
 75
     0
 76
     0
 77
     0
 78
     0
170
     0
171
     2
172
     0
173
     0
174
     0
175
     0
176
     0
177
     0
178
     0
  0
ENDTAB
  0
ENDSEC
  0
SECTION
  2
BLOCKS
  0
BLOCK
  8
0
  2
$MODEL_SPACE
 70
     0
 10
0.0
 20
0.0
 30
0.0
  3
$MODEL_SPACE
  1

  0
ENDBLK
  5
21
  8
0
  0
BLOCK
 67
     1
  8
0
  2
$PAPER_SPACE
 70
     0
 10
0.0
 20
0.0
 30
0.0
  3
$PAPER_SPACE
  1

  0
ENDBLK
  5
1D
 67
     1
  8
0
  0
ENDSEC
  0
SECTION
  2
ENTITIES
  0
ARC
  5
60AF
  8
0
 10
237.0056880917422
 20
215.62351356016799
 30
0.0
 40
0.7999988578245915
 50
179.99988212560501
 51
269.99998447219309
  0
ARC
  5
60B0
  8
0
 10
275.40568948202667
 20
215.62351356016799
 30
0.0
 40
0.7999988578245915
 50
270.00001552780651
 51
0.0001178743949192
  0
ARC
  5
60B2
  8
0
 10
229.20569207355331
 20
245.8235172514056
 30
0.0
 40
6.9999971603663456
 50
359.9999826117147
 51
90.000032634244008
  0
ARC
  5
60B4
  8
0
 10
202.00568925982279
 20
253.623516449324
 30
0.0
 40
0.8000020375603666
 50
179.99997645498661
 51
269.99975674091831
  0
ARC
  5
60BD
  8
0
 10
240.70568806201581
 20
214.32351342673161
 30
0.0
 40
1.499999827074223
 50
270.00001957709492
 51
0.0000500410226203
  0
ARC
  5
60BE
  8
0
 10
271.70568745622569
 20
214.32351183686751
 30
0.0
 40
1.499998237210395
 50
179.9998892305172
 51
270.00004115136738
  0
ARC
  5
60C7
  8
0
 10
211.20568699874511
 20
281.32352476357772
 30
0.0
 40
4.9999942079487827
 50
45.572906791883433
 51
134.42709320811659
  0
LINE
  5
60D4
  8
0
 10
253.05568854995599
 20
271.8235193887586
 30
0.0
 11
253.05568854995599
 21
274.82351801785182
 31
0.0
  0
LINE
  5
60D5
  8
0
 10
253.05568854995599
 20
271.8235193887586
 30
0.0
 11
259.35568809249031
 21
271.8235193887586
 31
0.0
  0
LINE
  5
60D6
  8
0
 10
259.35568809249031
 20
271.8235193887586
 30
0.0
 11
259.35568809249031
 21
274.82351801785182
 31
0.0
  0
LINE
  5
60DD
  8
0
 10
256.20568878688442
 20
214.8235147023434
 30
0.0
 11
237.00568787493339
 21
214.8235147023434
 31
0.0
  0
LINE
  5
60DE
  8
0
 10
275.40568969883549
 20
214.8235147023434
 30
0.0
 11
256.20568878688442
 21
214.8235147023434
 31
0.0
  0
LINE
  5
60E3
  8
0
 10
233.84500816204181
 20
274.82351801785182
 30
0.0
 11
239.2925485942566
 21
274.82351801785182
 31
0.0
  0
LINE
  5
60E6
  8
0
 10
202.08449810483091
 20
274.82351801785182
 30
0.0
 11
205.60444295146101
 21
274.82351801785182
 31
0.0
  0
LINE
  5
60E7
  8
0
 10
207.6857440147601
 20
274.82351801785182
 30
0.0
 11
211.2056851360999
 21
274.82351801785182
 31
0.0
  0
LINE
  5
60E8
  8
0
 10
229.2056920735582
 20
252.8235144117719
 30
0.0
 11
211.2056851360999
 21
252.82351441177079
 31
0.0
  0
LINE
  5
60E9
  8
0
 10
211.2056851360999
 20
252.82351441177079
 30
0.0
 11
207.6857440147601
 21
252.82351441177079
 31
0.0
  0
LINE
  5
60EA
  8
0
 10
205.60444295146101
 20
252.82351441177079
 30
0.0
 11
202.08449810483091
 21
252.82351441177079
 31
0.0
  0
LINE
  5
60EB
  8
0
 10
211.2056851360999
 20
274.82351801785182
 30
0.0
 11
233.84500816204181
 21
274.82351801785182
 31
0.0
  0
LINE
  5
60F7
  8
0
 10
276.20568833984959
 20
209.02351454327351
 30
0.0
 11
276.20568833984959
 21
195.62351379039239
 31
0.0
  0
LINE
  5
60F9
  8
0
 10
236.20568923391929
 20
209.02351454327351
 30
0.0
 11
236.20568923391929
 21
195.62351379039239
 31
0.0
  0
LINE
  5
60FA
  8
0
 10
237.00568787493339
 20
209.82351411561021
 30
0.0
 11
275.40568969883549
 21
209.82351411561021
 31
0.0
  0
LINE
  5
60FD
  8
0
 10
276.20568833984959
 20
195.62351379039239
 30
0.0
 11
275.40568969883549
 21
194.8235151493783
 31
0.0
  0
LINE
  5
60FE
  8
0
 10
275.40568969883549
 20
194.8235151493783
 30
0.0
 11
237.00568787493339
 21
194.8235151493783
 31
0.0
  0
LINE
  5
60FF
  8
0
 10
236.20568923391929
 20
195.62351379039239
 30
0.0
 11
237.00568787493339
 21
194.8235151493783
 31
0.0
  0
LINE
  5
6102
  8
0
 10
256.20568878688442
 20
212.8235135996575
 30
0.0
 11
275.40568969883549
 21
212.8235135996575
 31
0.0
  0
LINE
  5
6103
  8
0
 10
237.00568787493339
 20
212.8235135996575
 30
0.0
 11
256.20568878688442
 21
212.8235135996575
 31
0.0
  0
LINE
  5
6104
  8
0
 10
237.00568787493339
 20
209.82351411561021
 30
0.0
 11
236.20568923391929
 21
209.82351411561021
 31
0.0
  0
LINE
  5
6105
  8
0
 10
276.20568833984959
 20
209.82351411561021
 30
0.0
 11
275.40568969883549
 21
209.82351411561021
 31
0.0
  0
LINE
  5
610D
  8
0
 10
207.6857440147601
 20
252.82351441177079
 30
0.0
 11
206.29821121432411
 21
252.82351441177079
 31
0.0
  0
LINE
  5
610F
  8
0
 10
206.29821121432411
 20
252.82351441177079
 30
0.0
 11
205.60444295146101
 21
252.82351441177079
 31
0.0
  0
LINE
  5
6116
  8
0
 10
205.60444295146101
 20
274.82351801785182
 30
0.0
 11
206.29821121432411
 21
274.82351801785182
 31
0.0
  0
LINE
  5
6119
  8
0
 10
206.29821121432411
 20
274.82351801785182
 30
0.0
 11
207.6857440147601
 21
274.82351801785182
 31
0.0
  0
LINE
  5
611C
  8
0
 10
216.1131627831661
 20
229.32351521643349
 30
0.0
 11
216.1131627831661
 21
236.32351450117781
 31
0.0
  0
LINE
  5
611D
  8
0
 10
216.1131627831661
 20
229.32351521643349
 30
0.0
 11
206.29821121432411
 21
229.32351521643349
 31
0.0
  0
LINE
  5
611E
  8
0
 10
206.29821121432411
 20
229.32351521643349
 30
0.0
 11
206.29821121432411
 21
236.32351450117781
 31
0.0
  0
LINE
  5
611F
  8
0
 10
216.1131627831661
 20
236.32351450117781
 30
0.0
 11
206.29821121432411
 21
236.32351450117781
 31
0.0
  0
LINE
  5
6120
  8
0
 10
201.390733567258
 20
229.32351521643349
 30
0.0
 11
201.390733567258
 21
236.32351450117781
 31
0.0
  0
LINE
  5
6121
  8
0
 10
206.29821121432411
 20
236.32351450117781
 30
0.0
 11
201.390733567258
 21
236.32351450117781
 31
0.0
  0
LINE
  5
6122
  8
0
 10
206.29821121432411
 20
229.32351521643349
 30
0.0
 11
201.390733567258
 21
229.32351521643349
 31
0.0
  0
LINE
  5
6123
  8
0
 10
221.0206422928774
 20
229.32351521643349
 30
0.0
 11
221.0206422928774
 21
236.32351450117781
 31
0.0
  0
LINE
  5
6124
  8
0
 10
221.0206422928774
 20
236.32351450117781
 30
0.0
 11
216.1131627831661
 21
236.32351450117781
 31
0.0
  0
LINE
  5
6125
  8
0
 10
221.0206422928774
 20
229.32351521643349
 30
0.0
 11
216.1131627831661
 21
229.32351521643349
 31
0.0
  0
LINE
  5
6126
  8
0
 10
214.70568850376239
 20
281.6895409623022
 30
0.0
 11
207.7056854937278
 21
281.6895409623022
 31
0.0
  0
LINE
  5
6127
  8
0
 10
214.70568850376239
 20
284.8942293921346
 30
0.0
 11
207.7056854937278
 21
284.8942293921346
 31
0.0
  0
ARC
  5
612A
  8
0
 10
326.00333232856332
 20
334.01794948824511
 30
0.0
 40
4.0635575547855192
 50
142.3972376273382
 51
153.4147512794751
  0
ARC
  5
612C
  8
0
 10
320.24153564714078
 20
315.62341824905383
 30
0.0
 40
14.15375146536558
 50
113.9881278619129
 51
115.3195700427148
  0
LINE
  5
6130
  8
0
 10
312.14999928810232
 20
327.48620353134822
 30
0.0
 11
314.18844833709818
 21
328.41751120480251
 31
0.0
  0
ARC
  5
6131
  8
0
 10
309.00771495947311
 20
334.26667602743652
 30
0.0
 40
7.4732026649996222
 50
270.20894046282939
 51
294.86449060433188
  0
LINE
  5
6132
  8
0
 10
301.84266864993202
 20
326.79352305325222
 30
0.0
 11
309.03496741988289
 21
326.79352305325222
 31
0.0
  0
ARC
  5
6133
  8
0
 10
301.8525054100491
 20
321.25018742883168
 30
0.0
 40
5.5433443521776109
 50
90.101672401852611
 51
109.5496722625293
  0
ARC
  5
6134
  8
0
 10
350.46237073653492
 20
183.4784563785457
 30
0.0
 40
151.63908597763279
 50
109.4385373391315
 51
117.02732389577289
  0
ARC
  5
6135
  8
0
 10
336.44346709627388
 20
165.9109400603989
 30
0.0
 40
175.75642730279719
 50
97.274561542533903
 51
108.1977204160202
  0
ARC
  5
6136
  8
0
 10
321.10253886006251
 20
334.8341745665324
 30
0.0
 40
3.2620333236060071
 50
17.89495542622668
 51
30.656747147629531
  0
ARC
  5
6137
  8
0
 10
318.19803352935662
 20
339.37459035843438
 30
0.0
 40
12.12101460852111
 50
295.31458144938011
 51
296.79120873319158
  0
LINE
  5
6138
  8
0
 10
323.38083311655151
 20
328.41751120480251
 30
0.0
 11
321.48526385166281
 21
327.48620353134822
 31
0.0
  0
LINE
  5
6139
  8
0
 10
309.03496741988289
 20
326.79352305325222
 30
0.0
 11
318.58857497312653
 21
326.79352305325222
 31
0.0
  0
ARC
  5
613A
  8
0
 10
318.55466770233659
 20
333.33842407102821
 30
0.0
 40
6.5449888491499131
 50
270.29683048301592
 51
296.60017536921453
  0
LINE
  5
613D
  8
0
 10
265.74455909170729
 20
304.82351920994472
 30
0.0
 11
271.94825894870388
 21
304.82351920994472
 31
0.0
  0
LINE
  5
613E
  8
0
 10
259.54085923471081
 20
304.82351920994472
 30
0.0
 11
265.74455909170729
 21
304.82351920994472
 31
0.0
  0
ARC
  5
6141
  8
0
 10
358.45634007259412
 20
199.37452813321599
 30
0.0
 40
135.95744168813741
 50
110.7965200054818
 51
118.76316551669881
  0
ARC
  5
6142
  8
0
 10
311.91264150762521
 20
321.96180228525287
 30
0.0
 40
4.8317362819584
 50
90.145193594085043
 51
110.9552522971935
  0
LINE
  5
6144
  8
0
 10
255.65245989449849
 20
304.82351920994472
 30
0.0
 11
259.54085923471081
 21
304.82351920994472
 31
0.0
  0
LINE
  5
6147
  8
0
 10
269.69861760475271
 20
287.82351456078243
 30
0.0
 11
242.6986173700594
 21
287.82351456078243
 31
0.0
  0
LINE
  5
6148
  8
0
 10
242.455688395729
 20
304.82351920994472
 30
0.0
 11
255.65245989449849
 21
304.82351920994472
 31
0.0
  0
LINE
  5
614C
  8
0
 10
256.20568878688442
 20
285.32351694496822
 30
0.0
 11
275.20568817593681
 21
285.32351694496822
 31
0.0
  0
LINE
  5
614D
  8
0
 10
237.20568939783209
 20
285.32351694496822
 30
0.0
 11
256.20568878688442
 21
285.32351694496822
 31
0.0
  0
LINE
  5
614E
  8
0
 10
259.20568834730022
 20
272.32351295145702
 30
0.0
 11
259.20568834730022
 21
274.82351801785182
 31
0.0
  0
LINE
  5
614F
  8
0
 10
259.20568834730022
 20
272.32351295145702
 30
0.0
 11
253.20568829514619
 21
272.32351295145702
 31
0.0
  0
LINE
  5
6150
  8
0
 10
253.20568829514619
 20
272.32351295145702
 30
0.0
 11
253.20568829514619
 21
274.82351801785182
 31
0.0
  0
LINE
  5
6151
  8
0
 10
253.20568829514619
 20
274.82351801785182
 30
0.0
 11
239.2925485942566
 21
274.82351801785182
 31
0.0
  0
LINE
  5
6152
  8
0
 10
276.20568833984959
 20
274.82351801785182
 30
0.0
 11
259.20568834730022
 21
274.82351801785182
 31
0.0
  0
LINE
  5
616E
  8
1
 10
256.20568832494843
 20
189.82351437451791
 30
0.0
 11
256.20568832494843
 21
329.5594937720586
 31
0.0
  0
LINE
  5
616F
  8
1
 10
211.20568832494851
 20
224.32351444157311
 30
0.0
 11
211.20568832494851
 21
291.32351497801488
 31
0.0
  0
LINE
  5
6183
  8
0
 10
217.55654281117549
 20
435.37589535970147
 30
0.0
 11
219.2056878481113
 21
435.37589535970147
 31
0.0
  0
LINE
  5
6184
  8
0
 10
219.2056878481113
 20
423.3758952553934
 30
0.0
 11
217.55654281117549
 21
423.3758952553934
 31
0.0
  0
ARC
  5
6185
  8
0
 10
219.20568832494851
 20
429.37589530754741
 30
0.0
 40
6.0
 50
270.0000000000008
 51
90.0
  0
ARC
  5
6186
  8
0
 10
233.84500854995059
 20
449.37589530754752
 30
0.0
 40
10.000000000000011
 50
270.0000000000008
 51
318.18968510422212
  0
ARC
  5
6187
  8
0
 10
211.2056883249484
 20
429.37589530754741
 30
0.0
 40
10.0
 50
90.0
 51
270.0000000000008
  0
LINE
  5
6188
  8
0
 10
211.20568653680911
 20
439.37589508402999
 30
0.0
 11
233.84500770010581
 21
439.37589508402999
 31
0.0
  0
ARC
  5
618C
  8
0
 10
233.84500854995059
 20
409.37589530754741
 30
0.0
 40
10.000000000000011
 50
41.810314895778681
 51
90.0
  0
LINE
  5
618D
  8
0
 10
233.84500770010581
 20
419.37589553106488
 30
0.0
 11
211.20568653680911
 21
419.37589553106488
 31
0.0
  0
ARC
  5
6190
  8
0
 10
256.20568832494843
 20
451.87589530754769
 30
0.0
 40
20.0
 50
0.0
 51
180.0
  0
ARC
  5
6191
  8
0
 10
256.20568832494843
 20
429.37589530754758
 30
0.0
 40
26.250000000000021
 50
80.000000000000028
 51
99.999999999999915
  0
ARC
  5
6192
  8
0
 10
261.76243001029019
 20
460.88974340393833
 30
0.0
 40
5.7500000000000133
 50
260.0000000000008
 51
79.999999999999943
  0
ARC
  5
6193
  8
0
 10
256.20568832494843
 20
429.37589530754758
 30
0.0
 40
37.749999999999993
 50
80.000000000000014
 51
100.0
  0
ARC
  5
6194
  8
0
 10
250.64894663960661
 20
460.88974340393833
 30
0.0
 40
5.7500000000000231
 50
100.0
 51
280.00000000000131
  0
LINE
  5
6199
  8
0
 10
236.20568877198329
 20
439.6585300650068
 30
0.0
 11
236.20568877198329
 21
451.87589620161731
 31
0.0
  0
LINE
  5
619A
  8
0
 10
276.20568787791359
 20
451.87589620161731
 30
0.0
 11
276.20568787791359
 21
434.97589510787208
 31
0.0
  0
ARC
  5
619B
  8
0
 10
256.20568832494843
 20
429.37589530754758
 30
0.0
 40
26.249999999999961
 50
260.0000000000008
 51
280.0000000000008
  0
ARC
  5
619C
  8
0
 10
250.64894663960661
 20
397.86204721115701
 30
0.0
 40
5.7500000000000231
 50
79.999999999999488
 51
260.0000000000008
  0
ARC
  5
619D
  8
0
 10
256.20568832494843
 20
429.37589530754758
 30
0.0
 40
37.749999999999993
 50
260.0000000000008
 51
280.0000000000008
  0
ARC
  5
619E
  8
0
 10
261.76243001029019
 20
397.86204721115701
 30
0.0
 40
5.7500000000000133
 50
280.00000000000068
 51
99.999999999999943
  0
LINE
  5
619F
  8
0
 10
236.20568877198329
 20
406.87589441347802
 30
0.0
 11
236.20568877198329
 21
419.09326055008847
 31
0.0
  0
LINE
  5
61A0
  8
0
 10
276.20568787791359
 20
423.7758955072232
 30
0.0
 11
276.20568787791359
 21
419.63446699935872
 31
0.0
  0
ARC
  5
61A1
  8
0
 10
256.20568832494843
 20
406.87589530754769
 30
0.0
 40
20.000000000000011
 50
180.0
 51
342.08890002133683
  0
LINE
  5
61A6
  8
0
 10
216.1131641838752
 20
437.87589576948341
 30
0.0
 11
206.29821261503329
 21
437.87589576948341
 31
0.0
  0
LINE
  5
61A7
  8
0
 10
221.0206418309414
 20
429.37589530754741
 30
0.0
 11
216.1131641838752
 21
437.87589576948341
 31
0.0
  0
LINE
  5
61A8
  8
0
 10
216.1131641838752
 20
420.87589484561141
 30
0.0
 11
221.0206418309414
 21
429.37589530754741
 31
0.0
  0
LINE
  5
61A9
  8
0
 10
206.29821261503329
 20
420.87589484561141
 30
0.0
 11
216.1131641838752
 21
420.87589484561141
 31
0.0
  0
LINE
  5
61AA
  8
0
 10
201.39073496796721
 20
429.37589530754741
 30
0.0
 11
206.29821261503329
 21
420.87589484561141
 31
0.0
  0
CIRCLE
  5
61AB
  8
0
 10
211.2056883249484
 20
429.37589530754741
 30
0.0
 40
5.000000000000056
  0
LINE
  5
61AC
  8
0
 10
206.29821261503329
 20
437.87589576948341
 30
0.0
 11
201.39073496796721
 21
429.37589530754741
 31
0.0
  0
CIRCLE
  5
61AD
  8
0
 10
211.2056883249484
 20
429.37589530754741
 30
0.0
 40
3.500000000000056
  0
CIRCLE
  5
61AE
  8
0
 10
211.2056883249484
 20
429.37589530754741
 30
0.0
 40
5.000000000000056
  0
CIRCLE
  5
61BB
  8
0
 10
256.20568832494843
 20
429.37589530754718
 30
0.0
 40
7.0999999999999597
  0
POLYLINE
  5
61C3
  8
0
 66
     1
 10
0.0
 20
0.0
 30
0.0
 70
   128
  0
VERTEX
  5
9879
  8
0
 10
314.18844601251709
 20
362.2007528405253
 30
0.0
  0
VERTEX
  5
987A
  8
0
 10
307.60526200868708
 20
368.32250376153632
 30
0.0
  0
VERTEX
  5
987B
  8
0
 10
301.04499226548302
 20
374.42295347262058
 30
0.0
  0
VERTEX
  5
987C
  8
0
 10
294.51300120093453
 20
380.49710263419792
 30
0.0
  0
VERTEX
  5
987D
  8
0
 10
288.01464205720049
 20
386.5399779837195
 30
0.0
  0
VERTEX
  5
987E
  8
0
 10
281.55524013676268
 20
392.54663233566919
 30
0.0
  0
SEQEND
  5
987F
  8
0
  0
POLYLINE
  5
61CA
  8
0
 66
     1
 10
0.0
 20
0.0
 30
0.0
 70
   128
  0
VERTEX
  5
9880
  8
0
 10
293.03495129682648
 20
404.02634349573287
 30
0.0
  0
VERTEX
  5
9881
  8
0
 10
299.04160564877623
 20
397.56694157529512
 30
0.0
  0
VERTEX
  5
9882
  8
0
 10
305.08448099829781
 20
391.06858243156108
 30
0.0
  0
VERTEX
  5
9883
  8
0
 10
311.15863015987497
 20
384.53659136701259
 30
0.0
  0
VERTEX
  5
9884
  8
0
 10
317.2590798709594
 20
377.97632162380847
 30
0.0
  0
VERTEX
  5
9885
  8
0
 10
323.38083079197042
 20
371.39313761997857
 30
0.0
  0
SEQEND
  5
9886
  8
0
  0
ARC
  5
61D5
  8
0
 10
256.20568832494843
 20
429.37589530754741
 30
0.0
 40
19.999999999999972
 50
337.43972329670117
 51
270.0000000000008
  0
ARC
  5
61D6
  8
0
 10
256.20568832494843
 20
429.37589530754741
 30
0.0
 40
20.000000000000028
 50
270.0000000000008
 51
292.14066684999892
  0
LINE
  5
61F3
  8
1
 10
256.20568832494843
 20
429.35412698243942
 30
0.0
 11
328.38681020399792
 21
357.19477342849979
 31
0.0
  0
LINE
  5
61F4
  8
1
 10
256.20568832494843
 20
475.50084770191478
 30
0.0
 11
256.20568832494843
 21
381.49910041057421
 31
0.0
  0
POINT
  5
61F5
  8
0
 10
201.2056883249484
 20
429.37589530754741
 30
0.0
  0
LINE
  5
61F9
  8
1
 10
187.1220120040505
 20
429.37589530754741
 30
0.0
 11
282.98430665538712
 21
429.37589530754741
 31
0.0
  0
LINE
  5
6233
  8
0
 10
276.20568787791359
 20
451.87589620161731
 30
0.0
 11
276.20568787791359
 21
446.21037785816873
 31
0.0
  0
CIRCLE
  5
625C
  8
0
 10
256.20568832494843
 20
429.37589530754718
 30
0.0
 40
7.1000000000000094
  0
POLYLINE
  5
6292
  8
0
 10
251.15428881828609
 20
429.36562184272742
 30
0.0
 66
     1
 70
     8
  0
VERTEX
  8
0
  5
99B5
 10
251.154
 20
429.366
 30
0.000000
  70
    32
  0
VERTEX
  8
0
  5
99B6
 10
251.161
 20
429.115
 30
-7.00685e-016
  70
    32
  0
VERTEX
  8
0
  5
99B7
 10
251.180
 20
428.866
 30
-1.39968e-015
  70
    32
  0
VERTEX
  8
0
  5
99B8
 10
251.211
 20
428.617
 30
-2.09531e-015
  70
    32
  0
VERTEX
  8
0
  5
99B9
 10
251.254
 20
428.371
 30
-2.78588e-015
  70
    32
  0
VERTEX
  8
0
  5
99BA
 10
251.310
 20
428.127
 30
-3.46975e-015
  70
    32
  0
VERTEX
  8
0
  5
99BB
 10
251.377
 20
427.886
 30
-4.14526e-015
  70
    32
  0
VERTEX
  8
0
  5
99BC
 10
251.456
 20
427.648
 30
-4.81078e-015
  70
    32
  0
VERTEX
  8
0
  5
99BD
 10
251.546
 20
427.415
 30
-5.46471e-015
  70
    32
  0
VERTEX
  8
0
  5
99BE
 10
251.648
 20
427.186
 30
-6.10547e-015
  70
    32
  0
VERTEX
  8
0
  5
99BF
 10
251.761
 20
426.963
 30
-6.73153e-015
  70
    32
  0
VERTEX
  8
0
  5
99C0
 10
251.885
 20
426.745
 30
-7.34137e-015
  70
    32
  0
VERTEX
  8
0
  5
99C1
 10
252.020
 20
426.534
 30
-7.93353e-015
  70
    32
  0
VERTEX
  8
0
  5
99C2
 10
252.164
 20
426.330
 30
-8.50657e-015
  70
    32
  0
VERTEX
  8
0
  5
99C3
 10
252.319
 20
426.133
 30
-9.05912e-015
  70
    32
  0
VERTEX
  8
0
  5
99C4
 10
252.482
 20
425.943
 30
-9.58984e-015
  70
    32
  0
VERTEX
  8
0
  5
99C5
 10
252.655
 20
425.762
 30
-1.00975e-014
  70
    32
  0
VERTEX
  8
0
  5
99C6
 10
252.837
 20
425.590
 30
-1.05808e-014
  70
    32
  0
VERTEX
  8
0
  5
99C7
 10
253.027
 20
425.427
 30
-1.10386e-014
  70
    32
  0
VERTEX
  8
0
  5
99C8
 10
253.225
 20
425.273
 30
-1.14698e-014
  70
    32
  0
VERTEX
  8
0
  5
99C9
 10
253.430
 20
425.130
 30
-1.18734e-014
  70
    32
  0
VERTEX
  8
0
  5
99CA
 10
253.641
 20
424.996
 30
-1.22483e-014
  70
    32
  0
VERTEX
  8
0
  5
99CB
 10
253.859
 20
424.873
 30
-1.25938e-014
  70
    32
  0
VERTEX
  8
0
  5
99CC
 10
254.083
 20
424.761
 30
-1.29089e-014
  70
    32
  0
VERTEX
  8
0
  5
99CD
 10
254.312
 20
424.660
 30
-1.31930e-014
  70
    32
  0
VERTEX
  8
0
  5
99CE
 10
254.546
 20
424.571
 30
-1.34452e-014
  70
    32
  0
VERTEX
  8
0
  5
99CF
 10
254.784
 20
424.493
 30
-1.36651e-014
  70
    32
  0
VERTEX
  8
0
  5
99D0
 10
255.025
 20
424.426
 30
-1.38520e-014
  70
    32
  0
VERTEX
  8
0
  5
99D1
 10
255.270
 20
424.372
 30
-1.40056e-014
  70
    32
  0
VERTEX
  8
0
  5
99D2
 10
255.516
 20
424.330
 30
-1.41254e-014
  70
    32
  0
VERTEX
  8
0
  5
99D3
 10
255.765
 20
424.300
 30
-1.42112e-014
  70
    32
  0
VERTEX
  8
0
  5
99D4
 10
256.014
 20
424.282
 30
-1.42628e-014
  70
    32
  0
VERTEX
  8
0
  5
99D5
 10
256.265
 20
424.276
 30
-1.42800e-014
  70
    32
  0
VERTEX
  8
0
  5
99D6
 10
256.515
 20
424.283
 30
-1.42628e-014
  70
    32
  0
VERTEX
  8
0
  5
99D7
 10
256.765
 20
424.302
 30
-1.42112e-014
  70
    32
  0
VERTEX
  8
0
  5
99D8
 10
257.013
 20
424.333
 30
-1.41254e-014
  70
    32
  0
VERTEX
  8
0
  5
99D9
 10
257.259
 20
424.376
 30
-1.40056e-014
  70
    32
  0
VERTEX
  8
0
  5
99DA
 10
257.504
 20
424.431
 30
-1.38520e-014
  70
    32
  0
VERTEX
  8
0
  5
99DB
 10
257.745
 20
424.499
 30
-1.36651e-014
  70
    32
  0
VERTEX
  8
0
  5
99DC
 10
257.982
 20
424.578
 30
-1.34452e-014
  70
    32
  0
VERTEX
  8
0
  5
99DD
 10
258.216
 20
424.668
 30
-1.31930e-014
  70
    32
  0
VERTEX
  8
0
  5
99DE
 10
258.444
 20
424.770
 30
-1.29089e-014
  70
    32
  0
VERTEX
  8
0
  5
99DF
 10
258.668
 20
424.883
 30
-1.25938e-014
  70
    32
  0
VERTEX
  8
0
  5
99E0
 10
258.885
 20
425.007
 30
-1.22483e-014
  70
    32
  0
VERTEX
  8
0
  5
99E1
 10
259.096
 20
425.141
 30
-1.18734e-014
  70
    32
  0
VERTEX
  8
0
  5
99E2
 10
259.301
 20
425.286
 30
-1.14698e-014
  70
    32
  0
VERTEX
  8
0
  5
99E3
 10
259.498
 20
425.440
 30
-1.10386e-014
  70
    32
  0
VERTEX
  8
0
  5
99E4
 10
259.687
 20
425.604
 30
-1.05808e-014
  70
    32
  0
VERTEX
  8
0
  5
99E5
 10
259.868
 20
425.777
 30
-1.00975e-014
  70
    32
  0
VERTEX
  8
0
  5
99E6
 10
260.040
 20
425.959
 30
-9.58984e-015
  70
    32
  0
VERTEX
  8
0
  5
99E7
 10
260.203
 20
426.149
 30
-9.05912e-015
  70
    32
  0
VERTEX
  8
0
  5
99E8
 10
260.357
 20
426.346
 30
-8.50657e-015
  70
    32
  0
VERTEX
  8
0
  5
99E9
 10
260.501
 20
426.551
 30
-7.93353e-015
  70
    32
  0
VERTEX
  8
0
  5
99EA
 10
260.634
 20
426.763
 30
-7.34137e-015
  70
    32
  0
VERTEX
  8
0
  5
99EB
 10
260.757
 20
426.981
 30
-6.73153e-015
  70
    32
  0
VERTEX
  8
0
  5
99EC
 10
260.869
 20
427.205
 30
-6.10547e-015
  70
    32
  0
VERTEX
  8
0
  5
99ED
 10
260.970
 20
427.434
 30
-5.46471e-015
  70
    32
  0
VERTEX
  8
0
  5
99EE
 10
261.060
 20
427.668
 30
-4.81078e-015
  70
    32
  0
VERTEX
  8
0
  5
99EF
 10
261.138
 20
427.905
 30
-4.14526e-015
  70
    32
  0
VERTEX
  8
0
  5
99F0
 10
261.204
 20
428.147
 30
-3.46975e-015
  70
    32
  0
VERTEX
  8
0
  5
99F1
 10
261.258
 20
428.391
 30
-2.78588e-015
  70
    32
  0
VERTEX
  8
0
  5
99F2
 10
261.301
 20
428.638
 30
-2.09531e-015
  70
    32
  0
VERTEX
  8
0
  5
99F3
 10
261.331
 20
428.886
 30
-1.39968e-015
  70
    32
  0
VERTEX
  8
0
  5
99F4
 10
261.349
 20
429.136
 30
-7.00685e-016
  70
    32
  0
VERTEX
  8
0
  5
99F5
 10
261.354
 20
429.386
 30
-1.74879e-030
  70
    32
  0
VERTEX
  8
0
  5
99F6
 10
261.348
 20
429.637
 30
7.00685e-016
  70
    32
  0
VERTEX
  8
0
  5
99F7
 10
261.329
 20
429.886
 30
1.39968e-015
  70
    32
  0
VERTEX
  8
0
  5
99F8
 10
261.298
 20
430.135
 30
2.09531e-015
  70
    32
  0
VERTEX
  8
0
  5
99F9
 10
261.254
 20
430.381
 30
2.78588e-015
  70
    32
  0
VERTEX
  8
0
  5
99FA
 10
261.199
 20
430.625
 30
3.46975e-015
  70
    32
  0
VERTEX
  8
0
  5
99FB
 10
261.132
 20
430.866
 30
4.14526e-015
  70
    32
  0
VERTEX
  8
0
  5
99FC
 10
261.053
 20
431.104
 30
4.81078e-015
  70
    32
  0
VERTEX
  8
0
  5
99FD
 10
260.962
 20
431.337
 30
5.46471e-015
  70
    32
  0
VERTEX
  8
0
  5
99FE
 10
260.860
 20
431.566
 30
6.10547e-015
  70
    32
  0
VERTEX
  8
0
  5
99FF
 10
260.747
 20
431.789
 30
6.73153e-015
  70
    32
  0
VERTEX
  8
0
  5
9A00
 10
260.623
 20
432.007
 30
7.34137e-015
  70
    32
  0
VERTEX
  8
0
  5
9A01
 10
260.489
 20
432.218
 30
7.93353e-015
  70
    32
  0
VERTEX
  8
0
  5
9A02
 10
260.344
 20
432.422
 30
8.50657e-015
  70
    32
  0
VERTEX
  8
0
  5
9A03
 10
260.190
 20
432.619
 30
9.05912e-015
  70
    32
  0
VERTEX
  8
0
  5
9A04
 10
260.026
 20
432.809
 30
9.58984e-015
  70
    32
  0
VERTEX
  8
0
  5
9A05
 10
259.853
 20
432.990
 30
1.00975e-014
  70
    32
  0
VERTEX
  8
0
  5
9A06
 10
259.672
 20
433.162
 30
1.05808e-014
  70
    32
  0
VERTEX
  8
0
  5
9A07
 10
259.482
 20
433.325
 30
1.10386e-014
  70
    32
  0
VERTEX
  8
0
  5
9A08
 10
259.284
 20
433.479
 30
1.14698e-014
  70
    32
  0
VERTEX
  8
0
  5
9A09
 10
259.079
 20
433.622
 30
1.18734e-014
  70
    32
  0
VERTEX
  8
0
  5
9A0A
 10
258.867
 20
433.756
 30
1.22483e-014
  70
    32
  0
VERTEX
  8
0
  5
9A0B
 10
258.649
 20
433.879
 30
1.25938e-014
  70
    32
  0
VERTEX
  8
0
  5
9A0C
 10
258.425
 20
433.991
 30
1.29089e-014
  70
    32
  0
VERTEX
  8
0
  5
9A0D
 10
258.196
 20
434.092
 30
1.31930e-014
  70
    32
  0
VERTEX
  8
0
  5
9A0E
 10
257.963
 20
434.181
 30
1.34452e-014
  70
    32
  0
VERTEX
  8
0
  5
9A0F
 10
257.725
 20
434.259
 30
1.36651e-014
  70
    32
  0
VERTEX
  8
0
  5
9A10
 10
257.483
 20
434.326
 30
1.38520e-014
  70
    32
  0
VERTEX
  8
0
  5
9A11
 10
257.239
 20
434.380
 30
1.40056e-014
  70
    32
  0
VERTEX
  8
0
  5
9A12
 10
256.992
 20
434.422
 30
1.41254e-014
  70
    32
  0
VERTEX
  8
0
  5
9A13
 10
256.744
 20
434.452
 30
1.42112e-014
  70
    32
  0
VERTEX
  8
0
  5
9A14
 10
256.494
 20
434.470
 30
1.42628e-014
  70
    32
  0
VERTEX
  8
0
  5
9A15
 10
256.244
 20
434.476
 30
1.42800e-014
  70
    32
  0
VERTEX
  8
0
  5
9A16
 10
255.994
 20
434.469
 30
1.42628e-014
  70
    32
  0
VERTEX
  8
0
  5
9A17
 10
255.744
 20
434.450
 30
1.42112e-014
  70
    32
  0
VERTEX
  8
0
  5
9A18
 10
255.496
 20
434.419
 30
1.41254e-014
  70
    32
  0
VERTEX
  8
0
  5
9A19
 10
255.249
 20
434.376
 30
1.40056e-014
  70
    32
  0
VERTEX
  8
0
  5
9A1A
 10
255.005
 20
434.321
 30
1.38520e-014
  70
    32
  0
VERTEX
  8
0
  5
9A1B
 10
254.764
 20
434.253
 30
1.36651e-014
  70
    32
  0
VERTEX
  8
0
  5
9A1C
 10
254.526
 20
434.174
 30
1.34452e-014
  70
    32
  0
VERTEX
  8
0
  5
9A1D
 10
254.293
 20
434.084
 30
1.31930e-014
  70
    32
  0
VERTEX
  8
0
  5
9A1E
 10
254.064
 20
433.982
 30
1.29089e-014
  70
    32
  0
VERTEX
  8
0
  5
9A1F
 10
253.841
 20
433.869
 30
1.25938e-014
  70
    32
  0
VERTEX
  8
0
  5
9A20
 10
253.623
 20
433.745
 30
1.22483e-014
  70
    32
  0
VERTEX
  8
0
  5
9A21
 10
253.412
 20
433.611
 30
1.18734e-014
  70
    32
  0
VERTEX
  8
0
  5
9A22
 10
253.208
 20
433.466
 30
1.14698e-014
  70
    32
  0
VERTEX
  8
0
  5
9A23
 10
253.011
 20
433.312
 30
1.10386e-014
  70
    32
  0
VERTEX
  8
0
  5
9A24
 10
252.822
 20
433.148
 30
1.05808e-014
  70
    32
  0
VERTEX
  8
0
  5
9A25
 10
252.641
 20
432.975
 30
1.00975e-014
  70
    32
  0
VERTEX
  8
0
  5
9A26
 10
252.468
 20
432.793
 30
9.58984e-015
  70
    32
  0
VERTEX
  8
0
  5
9A27
 10
252.305
 20
432.603
 30
9.05912e-015
  70
    32
  0
VERTEX
  8
0
  5
9A28
 10
252.152
 20
432.406
 30
8.50657e-015
  70
    32
  0
VERTEX
  8
0
  5
9A29
 10
252.008
 20
432.201
 30
7.93353e-015
  70
    32
  0
VERTEX
  8
0
  5
9A2A
 10
251.875
 20
431.989
 30
7.34137e-015
  70
    32
  0
VERTEX
  8
0
  5
9A2B
 10
251.752
 20
431.771
 30
6.73153e-015
  70
    32
  0
VERTEX
  8
0
  5
9A2C
 10
251.640
 20
431.547
 30
6.10547e-015
  70
    32
  0
VERTEX
  8
0
  5
9A2D
 10
251.539
 20
431.318
 30
5.46471e-015
  70
    32
  0
VERTEX
  8
0
  5
9A2E
 10
251.449
 20
431.084
 30
4.81078e-015
  70
    32
  0
VERTEX
  8
0
  5
9A2F
 10
251.371
 20
430.847
 30
4.14526e-015
  70
    32
  0
VERTEX
  8
0
  5
9A30
 10
251.305
 20
430.605
 30
3.46975e-015
  70
    32
  0
VERTEX
  8
0
  5
9A31
 10
251.250
 20
430.361
 30
2.78588e-015
  70
    32
  0
VERTEX
  8
0
  5
9A32
 10
251.208
 20
430.114
 30
2.09531e-015
  70
    32
  0
VERTEX
  8
0
  5
9A33
 10
251.178
 20
429.866
 30
1.39968e-015
  70
    32
  0
VERTEX
  8
0
  5
9A34
 10
251.160
 20
429.616
 30
7.00685e-016
  70
    32
  0
VERTEX
  8
0
  5
9A35
 10
251.154
 20
429.366
 30
0.000000
  70
    32
  0
SEQEND
  8
0
  5
9A36
  0
ARC
  5
62E0
  8
1
 10
256.20554238525489
 20
429.44755169708509
 30
0.0
 40
32.000000000000007
 50
241.0546984788773
 51
298.9458987331023
  0
ARC
  5
62E7
  8
0
 10
119.63812666672671
 20
215.6235147023435
 30
0.0
 40
0.8000000000000113
 50
270.0000000000008
 51
0.0
  0
ARC
  5
62EC
  8
0
 10
58.738126666726707
 20
209.0235143745179
 30
0.0
 40
0.7999999999999972
 50
90.0
 51
180.0
  0
ARC
  5
62F3
  8
0
 10
142.13812666672669
 20
209.0235143745179
 30
0.0
 40
0.7999999999999972
 50
0.0
 51
90.0
  0
ARC
  5
62F5
  8
0
 10
115.9381266667267
 20
214.32351437451791
 30
0.0
 40
1.5
 50
180.0
 51
270.0000000000008
  0
ARC
  5
62FC
  8
0
 10
100.4381266667268
 20
281.3235147023434
 30
0.0
 40
5.0000000000000249
 50
45.572995999194347
 51
134.42700400080551
  0
ARC
  5
6313
  8
0
 10
109.63812666672681
 20
253.6235147023435
 30
0.0
 40
0.8000000000000113
 50
270.0000000000008
 51
0.0
  0
LINE
  5
6329
  8
0
 10
142.13812847274741
 20
194.82351437451791
 30
0.0
 11
58.738124860705973
 21
194.82351437451791
 31
0.0
  0
LINE
  5
632B
  8
0
 10
58.738124860705973
 20
209.82351403924179
 30
0.0
 11
142.13812666254881
 21
209.82351437451791
 31
0.0
  0
LINE
  5
634D
  8
0
 10
100.4381266667268
 20
229.32351416590171
 30
0.0
 11
100.4381266667268
 21
236.323513450646
 31
0.0
  0
LINE
  5
634E
  8
0
 10
100.4381266667268
 20
229.32351416590171
 30
0.0
 11
91.938126204790876
 21
229.32351416590171
 31
0.0
  0
LINE
  5
634F
  8
0
 10
91.938126204790876
 20
229.32351416590171
 30
0.0
 11
91.938126204790876
 21
236.323513450646
 31
0.0
  0
LINE
  5
6350
  8
0
 10
100.4381266667268
 20
236.323513450646
 30
0.0
 11
91.938126204790876
 21
236.323513450646
 31
0.0
  0
LINE
  5
6351
  8
0
 10
108.9381271286628
 20
229.32351416590171
 30
0.0
 11
108.9381271286628
 21
236.323513450646
 31
0.0
  0
LINE
  5
6352
  8
0
 10
108.9381271286628
 20
236.323513450646
 30
0.0
 11
100.4381266667268
 21
236.323513450646
 31
0.0
  0
LINE
  5
6353
  8
0
 10
108.9381271286628
 20
229.32351416590171
 30
0.0
 11
100.4381266667268
 21
229.32351416590171
 31
0.0
  0
LINE
  5
6354
  8
0
 10
103.93812677476021
 20
281.68953991177028
 30
0.0
 11
96.93812655869344
 21
281.68953991177028
 31
0.0
  0
LINE
  5
6355
  8
0
 10
103.93812677476021
 20
284.8942283416028
 30
0.0
 11
96.93812655869344
 21
284.8942283416028
 31
0.0
  0
LINE
  5
6357
  8
0
 10
92.693759897979206
 20
309.2370781922574
 30
0.0
 11
92.693759897979206
 21
304.82351815941291
 31
0.0
  0
LINE
  5
635B
  8
0
 10
92.693759897979206
 20
304.82351815941291
 30
0.0
 11
114.1769926308414
 21
304.82351815941291
 31
0.0
  0
LINE
  5
635C
  8
0
 10
89.233408054592275
 20
287.82351351025062
 30
0.0
 11
86.931055715562934
 21
287.82351351025062
 31
0.0
  0
LINE
  5
635D
  8
0
 10
113.93105548459491
 20
287.82351351025062
 30
0.0
 11
92.890319718303374
 21
287.82351351025062
 31
0.0
  0
POLYLINE
  5
6360
  8
0
 10
167.61327087944863
 20
340.25267269275082
 30
0.0
 66
     1
 70
     8
  0
VERTEX
  8
0
  5
9A37
 10
167.613
 20
340.253
 30
0.000000
  70
    32
  0
VERTEX
  8
0
  5
9A38
 10
167.374
 20
340.220
 30
0.000000
  70
    32
  0
VERTEX
  8
0
  5
9A39
 10
167.134
 20
340.187
 30
0.000000
  70
    32
  0
VERTEX
  8
0
  5
9A3A
 10
166.895
 20
340.153
 30
0.000000
  70
    32
  0
VERTEX
  8
0
  5
9A3B
 10
166.656
 20
340.119
 30
0.000000
  70
    32
  0
VERTEX
  8
0
  5
9A3C
 10
166.416
 20
340.085
 30
0.000000
  70
    32
  0
VERTEX
  8
0
  5
9A3D
 10
166.177
 20
340.050
 30
0.000000
  70
    32
  0
VERTEX
  8
0
  5
9A3E
 10
165.938
 20
340.015
 30
0.000000
  70
    32
  0
VERTEX
  8
0
  5
9A3F
 10
165.698
 20
339.979
 30
0.000000
  70
    32
  0
VERTEX
  8
0
  5
9A40
 10
165.459
 20
339.943
 30
0.000000
  70
    32
  0
VERTEX
  8
0
  5
9A41
 10
165.220
 20
339.907
 30
0.000000
  70
    32
  0
VERTEX
  8
0
  5
9A42
 10
164.981
 20
339.870
 30
0.000000
  70
    32
  0
VERTEX
  8
0
  5
9A43
 10
164.741
 20
339.833
 30
0.000000
  70
    32
  0
VERTEX
  8
0
  5
9A44
 10
164.502
 20
339.795
 30
0.000000
  70
    32
  0
VERTEX
  8
0
  5
9A45
 10
164.263
 20
339.757
 30
0.000000
  70
    32
  0
VERTEX
  8
0
  5
9A46
 10
164.024
 20
339.719
 30
0.000000
  70
    32
  0
VERTEX
  8
0
  5
9A47
 10
163.785
 20
339.680
 30
0.000000
  70
    32
  0
VERTEX
  8
0
  5
9A48
 10
163.546
 20
339.641
 30
0.000000
  70
    32
  0
VERTEX
  8
0
  5
9A49
 10
163.307
 20
339.602
 30
0.000000
  70
    32
  0
VERTEX
  8
0
  5
9A4A
 10
163.068
 20
339.562
 30
0.000000
  70
    32
  0
VERTEX
  8
0
  5
9A4B
 10
162.829
 20
339.521
 30
0.000000
  70
    32
  0
VERTEX
  8
0
  5
9A4C
 10
162.590
 20
339.481
 30
0.000000
  70
    32
  0
VERTEX
  8
0
  5
9A4D
 10
162.351
 20
339.440
 30
0.000000
  70
    32
  0
VERTEX
  8
0
  5
9A4E
 10
162.112
 20
339.398
 30
0.000000
  70
    32
  0
VERTEX
  8
0
  5
9A4F
 10
161.874
 20
339.356
 30
0.000000
  70
    32
  0
VERTEX
  8
0
  5
9A50
 10
161.635
 20
339.314
 30
0.000000
  70
    32
  0
VERTEX
  8
0
  5
9A51
 10
161.396
 20
339.272
 30
0.000000
  70
    32
  0
VERTEX
  8
0
  5
9A52
 10
161.157
 20
339.228
 30
0.000000
  70
    32
  0
VERTEX
  8
0
  5
9A53
 10
160.919
 20
339.185
 30
0.000000
  70
    32
  0
VERTEX
  8
0
  5
9A54
 10
160.680
 20
339.141
 30
0.000000
  70
    32
  0
VERTEX
  8
0
  5
9A55
 10
160.441
 20
339.097
 30
0.000000
  70
    32
  0
VERTEX
  8
0
  5
9A56
 10
160.203
 20
339.052
 30
0.000000
  70
    32
  0
VERTEX
  8
0
  5
9A57
 10
159.964
 20
339.007
 30
0.000000
  70
    32
  0
VERTEX
  8
0
  5
9A58
 10
159.726
 20
338.962
 30
0.000000
  70
    32
  0
VERTEX
  8
0
  5
9A59
 10
159.487
 20
338.916
 30
0.000000
  70
    32
  0
VERTEX
  8
0
  5
9A5A
 10
159.249
 20
338.870
 30
0.000000
  70
    32
  0
VERTEX
  8
0
  5
9A5B
 10
159.010
 20
338.824
 30
0.000000
  70
    32
  0
VERTEX
  8
0
  5
9A5C
 10
158.772
 20
338.777
 30
0.000000
  70
    32
  0
VERTEX
  8
0
  5
9A5D
 10
158.534
 20
338.729
 30
0.000000
  70
    32
  0
VERTEX
  8
0
  5
9A5E
 10
158.295
 20
338.682
 30
0.000000
  70
    32
  0
VERTEX
  8
0
  5
9A5F
 10
158.057
 20
338.634
 30
0.000000
  70
    32
  0
VERTEX
  8
0
  5
9A60
 10
157.819
 20
338.585
 30
0.000000
  70
    32
  0
VERTEX
  8
0
  5
9A61
 10
157.581
 20
338.536
 30
0.000000
  70
    32
  0
VERTEX
  8
0
  5
9A62
 10
157.342
 20
338.487
 30
0.000000
  70
    32
  0
VERTEX
  8
0
  5
9A63
 10
157.104
 20
338.437
 30
0.000000
  70
    32
  0
VERTEX
  8
0
  5
9A64
 10
156.866
 20
338.387
 30
0.000000
  70
    32
  0
VERTEX
  8
0
  5
9A65
 10
156.628
 20
338.337
 30
0.000000
  70
    32
  0
VERTEX
  8
0
  5
9A66
 10
156.390
 20
338.286
 30
0.000000
  70
    32
  0
VERTEX
  8
0
  5
9A67
 10
156.152
 20
338.235
 30
0.000000
  70
    32
  0
VERTEX
  8
0
  5
9A68
 10
155.914
 20
338.183
 30
0.000000
  70
    32
  0
VERTEX
  8
0
  5
9A69
 10
155.676
 20
338.131
 30
0.000000
  70
    32
  0
VERTEX
  8
0
  5
9A6A
 10
155.439
 20
338.078
 30
0.000000
  70
    32
  0
VERTEX
  8
0
  5
9A6B
 10
155.201
 20
338.026
 30
0.000000
  70
    32
  0
VERTEX
  8
0
  5
9A6C
 10
154.963
 20
337.972
 30
0.000000
  70
    32
  0
VERTEX
  8
0
  5
9A6D
 10
154.725
 20
337.919
 30
0.000000
  70
    32
  0
VERTEX
  8
0
  5
9A6E
 10
154.488
 20
337.865
 30
0.000000
  70
    32
  0
VERTEX
  8
0
  5
9A6F
 10
154.250
 20
337.811
 30
0.000000
  70
    32
  0
VERTEX
  8
0
  5
9A70
 10
154.012
 20
337.756
 30
0.000000
  70
    32
  0
VERTEX
  8
0
  5
9A71
 10
153.775
 20
337.701
 30
0.000000
  70
    32
  0
VERTEX
  8
0
  5
9A72
 10
153.537
 20
337.645
 30
0.000000
  70
    32
  0
VERTEX
  8
0
  5
9A73
 10
153.300
 20
337.589
 30
0.000000
  70
    32
  0
VERTEX
  8
0
  5
9A74
 10
153.062
 20
337.533
 30
0.000000
  70
    32
  0
VERTEX
  8
0
  5
9A75
 10
152.825
 20
337.476
 30
0.000000
  70
    32
  0
VERTEX
  8
0
  5
9A76
 10
152.588
 20
337.419
 30
0.000000
  70
    32
  0
VERTEX
  8
0
  5
9A77
 10
152.350
 20
337.362
 30
0.000000
  70
    32
  0
VERTEX
  8
0
  5
9A78
 10
152.113
 20
337.304
 30
0.000000
  70
    32
  0
VERTEX
  8
0
  5
9A79
 10
151.876
 20
337.245
 30
0.000000
  70
    32
  0
VERTEX
  8
0
  5
9A7A
 10
151.639
 20
337.187
 30
0.000000
  70
    32
  0
VERTEX
  8
0
  5
9A7B
 10
151.402
 20
337.128
 30
0.000000
  70
    32
  0
VERTEX
  8
0
  5
9A7C
 10
151.165
 20
337.068
 30
0.000000
  70
    32
  0
VERTEX
  8
0
  5
9A7D
 10
150.928
 20
337.009
 30
0.000000
  70
    32
  0
VERTEX
  8
0
  5
9A7E
 10
150.691
 20
336.948
 30
0.000000
  70
    32
  0
VERTEX
  8
0
  5
9A7F
 10
150.454
 20
336.888
 30
0.000000
  70
    32
  0
VERTEX
  8
0
  5
9A80
 10
150.217
 20
336.827
 30
0.000000
  70
    32
  0
VERTEX
  8
0
  5
9A81
 10
149.980
 20
336.765
 30
0.000000
  70
    32
  0
VERTEX
  8
0
  5
9A82
 10
149.743
 20
336.704
 30
0.000000
  70
    32
  0
VERTEX
  8
0
  5
9A83
 10
149.506
 20
336.642
 30
0.000000
  70
    32
  0
VERTEX
  8
0
  5
9A84
 10
149.270
 20
336.579
 30
0.000000
  70
    32
  0
VERTEX
  8
0
  5
9A85
 10
149.033
 20
336.516
 30
0.000000
  70
    32
  0
VERTEX
  8
0
  5
9A86
 10
148.796
 20
336.453
 30
0.000000
  70
    32
  0
VERTEX
  8
0
  5
9A87
 10
148.560
 20
336.389
 30
0.000000
  70
    32
  0
VERTEX
  8
0
  5
9A88
 10
148.323
 20
336.325
 30
0.000000
  70
    32
  0
VERTEX
  8
0
  5
9A89
 10
148.087
 20
336.261
 30
0.000000
  70
    32
  0
VERTEX
  8
0
  5
9A8A
 10
147.850
 20
336.196
 30
0.000000
  70
    32
  0
VERTEX
  8
0
  5
9A8B
 10
147.614
 20
336.130
 30
0.000000
  70
    32
  0
VERTEX
  8
0
  5
9A8C
 10
147.378
 20
336.065
 30
0.000000
  70
    32
  0
VERTEX
  8
0
  5
9A8D
 10
147.141
 20
335.999
 30
0.000000
  70
    32
  0
VERTEX
  8
0
  5
9A8E
 10
146.905
 20
335.932
 30
0.000000
  70
    32
  0
VERTEX
  8
0
  5
9A8F
 10
146.669
 20
335.866
 30
0.000000
  70
    32
  0
VERTEX
  8
0
  5
9A90
 10
146.433
 20
335.798
 30
0.000000
  70
    32
  0
VERTEX
  8
0
  5
9A91
 10
146.197
 20
335.731
 30
0.000000
  70
    32
  0
VERTEX
  8
0
  5
9A92
 10
145.961
 20
335.663
 30
0.000000
  70
    32
  0
VERTEX
  8
0
  5
9A93
 10
145.725
 20
335.594
 30
0.000000
  70
    32
  0
VERTEX
  8
0
  5
9A94
 10
145.489
 20
335.526
 30
0.000000
  70
    32
  0
VERTEX
  8
0
  5
9A95
 10
145.253
 20
335.457
 30
0.000000
  70
    32
  0
VERTEX
  8
0
  5
9A96
 10
145.017
 20
335.387
 30
0.000000
  70
    32
  0
VERTEX
  8
0
  5
9A97
 10
144.782
 20
335.317
 30
0.000000
  70
    32
  0
VERTEX
  8
0
  5
9A98
 10
144.546
 20
335.247
 30
0.000000
  70
    32
  0
VERTEX
  8
0
  5
9A99
 10
144.310
 20
335.176
 30
0.000000
  70
    32
  0
VERTEX
  8
0
  5
9A9A
 10
144.075
 20
335.105
 30
0.000000
  70
    32
  0
VERTEX
  8
0
  5
9A9B
 10
143.839
 20
335.034
 30
0.000000
  70
    32
  0
VERTEX
  8
0
  5
9A9C
 10
143.604
 20
334.962
 30
0.000000
  70
    32
  0
VERTEX
  8
0
  5
9A9D
 10
143.368
 20
334.890
 30
0.000000
  70
    32
  0
VERTEX
  8
0
  5
9A9E
 10
143.133
 20
334.817
 30
0.000000
  70
    32
  0
VERTEX
  8
0
  5
9A9F
 10
142.898
 20
334.744
 30
0.000000
  70
    32
  0
VERTEX
  8
0
  5
9AA0
 10
142.662
 20
334.671
 30
0.000000
  70
    32
  0
VERTEX
  8
0
  5
9AA1
 10
142.427
 20
334.597
 30
0.000000
  70
    32
  0
VERTEX
  8
0
  5
9AA2
 10
142.192
 20
334.523
 30
0.000000
  70
    32
  0
VERTEX
  8
0
  5
9AA3
 10
141.957
 20
334.448
 30
0.000000
  70
    32
  0
VERTEX
  8
0
  5
9AA4
 10
141.722
 20
334.373
 30
0.000000
  70
    32
  0
VERTEX
  8
0
  5
9AA5
 10
141.487
 20
334.298
 30
0.000000
  70
    32
  0
VERTEX
  8
0
  5
9AA6
 10
141.252
 20
334.222
 30
0.000000
  70
    32
  0
VERTEX
  8
0
  5
9AA7
 10
141.017
 20
334.146
 30
0.000000
  70
    32
  0
VERTEX
  8
0
  5
9AA8
 10
140.782
 20
334.070
 30
0.000000
  70
    32
  0
VERTEX
  8
0
  5
9AA9
 10
140.547
 20
333.993
 30
0.000000
  70
    32
  0
VERTEX
  8
0
  5
9AAA
 10
140.313
 20
333.916
 30
0.000000
  70
    32
  0
VERTEX
  8
0
  5
9AAB
 10
140.078
 20
333.838
 30
0.000000
  70
    32
  0
VERTEX
  8
0
  5
9AAC
 10
139.844
 20
333.760
 30
0.000000
  70
    32
  0
VERTEX
  8
0
  5
9AAD
 10
139.609
 20
333.682
 30
0.000000
  70
    32
  0
VERTEX
  8
0
  5
9AAE
 10
139.375
 20
333.603
 30
0.000000
  70
    32
  0
VERTEX
  8
0
  5
9AAF
 10
139.140
 20
333.524
 30
0.000000
  70
    32
  0
VERTEX
  8
0
  5
9AB0
 10
138.906
 20
333.444
 30
0.000000
  70
    32
  0
VERTEX
  8
0
  5
9AB1
 10
138.672
 20
333.364
 30
0.000000
  70
    32
  0
VERTEX
  8
0
  5
9AB2
 10
138.437
 20
333.284
 30
0.000000
  70
    32
  0
VERTEX
  8
0
  5
9AB3
 10
138.203
 20
333.203
 30
0.000000
  70
    32
  0
VERTEX
  8
0
  5
9AB4
 10
137.969
 20
333.122
 30
0.000000
  70
    32
  0
VERTEX
  8
0
  5
9AB5
 10
137.735
 20
333.041
 30
0.000000
  70
    32
  0
VERTEX
  8
0
  5
9AB6
 10
137.501
 20
332.959
 30
0.000000
  70
    32
  0
VERTEX
  8
0
  5
9AB7
 10
137.267
 20
332.877
 30
0.000000
  70
    32
  0
SEQEND
  8
0
  5
9AB8
  0
POLYLINE
  5
6367
  8
0
 10
158.4208827240235
 20
340.25267269275082
 30
0.0
 66
     1
 70
     8
  0
VERTEX
  8
0
  5
9AB9
 10
158.421
 20
340.253
 30
0.000000
  70
    32
  0
VERTEX
  8
0
  5
9ABA
 10
158.163
 20
340.220
 30
0.000000
  70
    32
  0
VERTEX
  8
0
  5
9ABB
 10
157.906
 20
340.187
 30
0.000000
  70
    32
  0
VERTEX
  8
0
  5
9ABC
 10
157.648
 20
340.153
 30
0.000000
  70
    32
  0
VERTEX
  8
0
  5
9ABD
 10
157.391
 20
340.119
 30
0.000000
  70
    32
  0
VERTEX
  8
0
  5
9ABE
 10
157.134
 20
340.085
 30
0.000000
  70
    32
  0
VERTEX
  8
0
  5
9ABF
 10
156.876
 20
340.050
 30
0.000000
  70
    32
  0
VERTEX
  8
0
  5
9AC0
 10
156.619
 20
340.015
 30
0.000000
  70
    32
  0
VERTEX
  8
0
  5
9AC1
 10
156.362
 20
339.979
 30
0.000000
  70
    32
  0
VERTEX
  8
0
  5
9AC2
 10
156.104
 20
339.943
 30
0.000000
  70
    32
  0
VERTEX
  8
0
  5
9AC3
 10
155.847
 20
339.907
 30
0.000000
  70
    32
  0
VERTEX
  8
0
  5
9AC4
 10
155.590
 20
339.870
 30
0.000000
  70
    32
  0
VERTEX
  8
0
  5
9AC5
 10
155.333
 20
339.833
 30
0.000000
  70
    32
  0
VERTEX
  8
0
  5
9AC6
 10
155.075
 20
339.795
 30
0.000000
  70
    32
  0
VERTEX
  8
0
  5
9AC7
 10
154.818
 20
339.757
 30
0.000000
  70
    32
  0
VERTEX
  8
0
  5
9AC8
 10
154.561
 20
339.719
 30
0.000000
  70
    32
  0
VERTEX
  8
0
  5
9AC9
 10
154.304
 20
339.680
 30
0.000000
  70
    32
  0
VERTEX
  8
0
  5
9ACA
 10
154.047
 20
339.641
 30
0.000000
  70
    32
  0
VERTEX
  8
0
  5
9ACB
 10
153.790
 20
339.602
 30
0.000000
  70
    32
  0
VERTEX
  8
0
  5
9ACC
 10
153.533
 20
339.562
 30
0.000000
  70
    32
  0
VERTEX
  8
0
  5
9ACD
 10
153.276
 20
339.521
 30
0.000000
  70
    32
  0
VERTEX
  8
0
  5
9ACE
 10
153.019
 20
339.481
 30
0.000000
  70
    32
  0
VERTEX
  8
0
  5
9ACF
 10
152.762
 20
339.440
 30
0.000000
  70
    32
  0
VERTEX
  8
0
  5
9AD0
 10
152.505
 20
339.398
 30
0.000000
  70
    32
  0
VERTEX
  8
0
  5
9AD1
 10
152.249
 20
339.356
 30
0.000000
  70
    32
  0
VERTEX
  8
0
  5
9AD2
 10
151.992
 20
339.314
 30
0.000000
  70
    32
  0
VERTEX
  8
0
  5
9AD3
 10
151.735
 20
339.272
 30
0.000000
  70
    32
  0
VERTEX
  8
0
  5
9AD4
 10
151.478
 20
339.228
 30
0.000000
  70
    32
  0
VERTEX
  8
0
  5
9AD5
 10
151.222
 20
339.185
 30
0.000000
  70
    32
  0
VERTEX
  8
0
  5
9AD6
 10
150.965
 20
339.141
 30
0.000000
  70
    32
  0
VERTEX
  8
0
  5
9AD7
 10
150.708
 20
339.097
 30
0.000000
  70
    32
  0
VERTEX
  8
0
  5
9AD8
 10
150.452
 20
339.052
 30
0.000000
  70
    32
  0
VERTEX
  8
0
  5
9AD9
 10
150.195
 20
339.007
 30
0.000000
  70
    32
  0
VERTEX
  8
0
  5
9ADA
 10
149.939
 20
338.962
 30
0.000000
  70
    32
  0
VERTEX
  8
0
  5
9ADB
 10
149.682
 20
338.916
 30
0.000000
  70
    32
  0
VERTEX
  8
0
  5
9ADC
 10
149.426
 20
338.870
 30
0.000000
  70
    32
  0
VERTEX
  8
0
  5
9ADD
 10
149.170
 20
338.824
 30
0.000000
  70
    32
  0
VERTEX
  8
0
  5
9ADE
 10
148.913
 20
338.777
 30
0.000000
  70
    32
  0
VERTEX
  8
0
  5
9ADF
 10
148.657
 20
338.729
 30
0.000000
  70
    32
  0
VERTEX
  8
0
  5
9AE0
 10
148.401
 20
338.682
 30
0.000000
  70
    32
  0
VERTEX
  8
0
  5
9AE1
 10
148.144
 20
338.634
 30
0.000000
  70
    32
  0
VERTEX
  8
0
  5
9AE2
 10
147.888
 20
338.585
 30
0.000000
  70
    32
  0
VERTEX
  8
0
  5
9AE3
 10
147.632
 20
338.536
 30
0.000000
  70
    32
  0
VERTEX
  8
0
  5
9AE4
 10
147.376
 20
338.487
 30
0.000000
  70
    32
  0
VERTEX
  8
0
  5
9AE5
 10
147.120
 20
338.437
 30
0.000000
  70
    32
  0
VERTEX
  8
0
  5
9AE6
 10
146.864
 20
338.387
 30
0.000000
  70
    32
  0
VERTEX
  8
0
  5
9AE7
 10
146.608
 20
338.337
 30
0.000000
  70
    32
  0
VERTEX
  8
0
  5
9AE8
 10
146.352
 20
338.286
 30
0.000000
  70
    32
  0
VERTEX
  8
0
  5
9AE9
 10
146.096
 20
338.235
 30
0.000000
  70
    32
  0
VERTEX
  8
0
  5
9AEA
 10
145.840
 20
338.183
 30
0.000000
  70
    32
  0
VERTEX
  8
0
  5
9AEB
 10
145.584
 20
338.131
 30
0.000000
  70
    32
  0
VERTEX
  8
0
  5
9AEC
 10
145.329
 20
338.078
 30
0.000000
  70
    32
  0
VERTEX
  8
0
  5
9AED
 10
145.073
 20
338.026
 30
0.000000
  70
    32
  0
VERTEX
  8
0
  5
9AEE
 10
144.817
 20
337.972
 30
0.000000
  70
    32
  0
VERTEX
  8
0
  5
9AEF
 10
144.562
 20
337.919
 30
0.000000
  70
    32
  0
VERTEX
  8
0
  5
9AF0
 10
144.306
 20
337.865
 30
0.000000
  70
    32
  0
VERTEX
  8
0
  5
9AF1
 10
144.050
 20
337.811
 30
0.000000
  70
    32
  0
VERTEX
  8
0
  5
9AF2
 10
143.795
 20
337.756
 30
0.000000
  70
    32
  0
VERTEX
  8
0
  5
9AF3
 10
143.539
 20
337.701
 30
0.000000
  70
    32
  0
VERTEX
  8
0
  5
9AF4
 10
143.284
 20
337.645
 30
0.000000
  70
    32
  0
VERTEX
  8
0
  5
9AF5
 10
143.029
 20
337.589
 30
0.000000
  70
    32
  0
VERTEX
  8
0
  5
9AF6
 10
142.773
 20
337.533
 30
0.000000
  70
    32
  0
VERTEX
  8
0
  5
9AF7
 10
142.518
 20
337.476
 30
0.000000
  70
    32
  0
VERTEX
  8
0
  5
9AF8
 10
142.263
 20
337.419
 30
0.000000
  70
    32
  0
VERTEX
  8
0
  5
9AF9
 10
142.008
 20
337.362
 30
0.000000
  70
    32
  0
VERTEX
  8
0
  5
9AFA
 10
141.752
 20
337.304
 30
0.000000
  70
    32
  0
VERTEX
  8
0
  5
9AFB
 10
141.497
 20
337.245
 30
0.000000
  70
    32
  0
VERTEX
  8
0
  5
9AFC
 10
141.242
 20
337.187
 30
0.000000
  70
    32
  0
VERTEX
  8
0
  5
9AFD
 10
140.987
 20
337.128
 30
0.000000
  70
    32
  0
VERTEX
  8
0
  5
9AFE
 10
140.732
 20
337.068
 30
0.000000
  70
    32
  0
VERTEX
  8
0
  5
9AFF
 10
140.477
 20
337.009
 30
0.000000
  70
    32
  0
VERTEX
  8
0
  5
9B00
 10
140.223
 20
336.948
 30
0.000000
  70
    32
  0
VERTEX
  8
0
  5
9B01
 10
139.968
 20
336.888
 30
0.000000
  70
    32
  0
VERTEX
  8
0
  5
9B02
 10
139.713
 20
336.827
 30
0.000000
  70
    32
  0
VERTEX
  8
0
  5
9B03
 10
139.458
 20
336.765
 30
0.000000
  70
    32
  0
VERTEX
  8
0
  5
9B04
 10
139.204
 20
336.704
 30
0.000000
  70
    32
  0
VERTEX
  8
0
  5
9B05
 10
138.949
 20
336.642
 30
0.000000
  70
    32
  0
VERTEX
  8
0
  5
9B06
 10
138.695
 20
336.579
 30
0.000000
  70
    32
  0
VERTEX
  8
0
  5
9B07
 10
138.440
 20
336.516
 30
0.000000
  70
    32
  0
VERTEX
  8
0
  5
9B08
 10
138.186
 20
336.453
 30
0.000000
  70
    32
  0
VERTEX
  8
0
  5
9B09
 10
137.931
 20
336.389
 30
0.000000
  70
    32
  0
VERTEX
  8
0
  5
9B0A
 10
137.677
 20
336.325
 30
0.000000
  70
    32
  0
VERTEX
  8
0
  5
9B0B
 10
137.423
 20
336.261
 30
0.000000
  70
    32
  0
VERTEX
  8
0
  5
9B0C
 10
137.168
 20
336.196
 30
0.000000
  70
    32
  0
VERTEX
  8
0
  5
9B0D
 10
136.914
 20
336.130
 30
0.000000
  70
    32
  0
VERTEX
  8
0
  5
9B0E
 10
136.660
 20
336.065
 30
0.000000
  70
    32
  0
VERTEX
  8
0
  5
9B0F
 10
136.406
 20
335.999
 30
0.000000
  70
    32
  0
VERTEX
  8
0
  5
9B10
 10
136.152
 20
335.932
 30
0.000000
  70
    32
  0
VERTEX
  8
0
  5
9B11
 10
135.898
 20
335.866
 30
0.000000
  70
    32
  0
VERTEX
  8
0
  5
9B12
 10
135.644
 20
335.798
 30
0.000000
  70
    32
  0
VERTEX
  8
0
  5
9B13
 10
135.390
 20
335.731
 30
0.000000
  70
    32
  0
VERTEX
  8
0
  5
9B14
 10
135.136
 20
335.663
 30
0.000000
  70
    32
  0
VERTEX
  8
0
  5
9B15
 10
134.883
 20
335.594
 30
0.000000
  70
    32
  0
VERTEX
  8
0
  5
9B16
 10
134.629
 20
335.526
 30
0.000000
  70
    32
  0
VERTEX
  8
0
  5
9B17
 10
134.375
 20
335.457
 30
0.000000
  70
    32
  0
VERTEX
  8
0
  5
9B18
 10
134.122
 20
335.387
 30
0.000000
  70
    32
  0
VERTEX
  8
0
  5
9B19
 10
133.868
 20
335.317
 30
0.000000
  70
    32
  0
VERTEX
  8
0
  5
9B1A
 10
133.615
 20
335.247
 30
0.000000
  70
    32
  0
VERTEX
  8
0
  5
9B1B
 10
133.361
 20
335.176
 30
0.000000
  70
    32
  0
VERTEX
  8
0
  5
9B1C
 10
133.108
 20
335.105
 30
0.000000
  70
    32
  0
VERTEX
  8
0
  5
9B1D
 10
132.855
 20
335.034
 30
0.000000
  70
    32
  0
VERTEX
  8
0
  5
9B1E
 10
132.602
 20
334.962
 30
0.000000
  70
    32
  0
VERTEX
  8
0
  5
9B1F
 10
132.348
 20
334.890
 30
0.000000
  70
    32
  0
VERTEX
  8
0
  5
9B20
 10
132.095
 20
334.817
 30
0.000000
  70
    32
  0
VERTEX
  8
0
  5
9B21
 10
131.842
 20
334.744
 30
0.000000
  70
    32
  0
VERTEX
  8
0
  5
9B22
 10
131.589
 20
334.671
 30
0.000000
  70
    32
  0
VERTEX
  8
0
  5
9B23
 10
131.336
 20
334.597
 30
0.000000
  70
    32
  0
VERTEX
  8
0
  5
9B24
 10
131.083
 20
334.523
 30
0.000000
  70
    32
  0
VERTEX
  8
0
  5
9B25
 10
130.831
 20
334.448
 30
0.000000
  70
    32
  0
VERTEX
  8
0
  5
9B26
 10
130.578
 20
334.373
 30
0.000000
  70
    32
  0
VERTEX
  8
0
  5
9B27
 10
130.325
 20
334.298
 30
0.000000
  70
    32
  0
VERTEX
  8
0
  5
9B28
 10
130.073
 20
334.222
 30
0.000000
  70
    32
  0
VERTEX
  8
0
  5
9B29
 10
129.820
 20
334.146
 30
0.000000
  70
    32
  0
VERTEX
  8
0
  5
9B2A
 10
129.567
 20
334.070
 30
0.000000
  70
    32
  0
VERTEX
  8
0
  5
9B2B
 10
129.315
 20
333.993
 30
0.000000
  70
    32
  0
VERTEX
  8
0
  5
9B2C
 10
129.063
 20
333.916
 30
0.000000
  70
    32
  0
VERTEX
  8
0
  5
9B2D
 10
128.810
 20
333.838
 30
0.000000
  70
    32
  0
VERTEX
  8
0
  5
9B2E
 10
128.558
 20
333.760
 30
0.000000
  70
    32
  0
VERTEX
  8
0
  5
9B2F
 10
128.306
 20
333.682
 30
0.000000
  70
    32
  0
VERTEX
  8
0
  5
9B30
 10
128.054
 20
333.603
 30
0.000000
  70
    32
  0
VERTEX
  8
0
  5
9B31
 10
127.802
 20
333.524
 30
0.000000
  70
    32
  0
VERTEX
  8
0
  5
9B32
 10
127.550
 20
333.444
 30
0.000000
  70
    32
  0
VERTEX
  8
0
  5
9B33
 10
127.298
 20
333.364
 30
0.000000
  70
    32
  0
VERTEX
  8
0
  5
9B34
 10
127.046
 20
333.284
 30
0.000000
  70
    32
  0
VERTEX
  8
0
  5
9B35
 10
126.794
 20
333.203
 30
0.000000
  70
    32
  0
VERTEX
  8
0
  5
9B36
 10
126.542
 20
333.122
 30
0.000000
  70
    32
  0
VERTEX
  8
0
  5
9B37
 10
126.291
 20
333.041
 30
0.000000
  70
    32
  0
VERTEX
  8
0
  5
9B38
 10
126.039
 20
332.959
 30
0.000000
  70
    32
  0
VERTEX
  8
0
  5
9B39
 10
125.788
 20
332.877
 30
0.000000
  70
    32
  0
SEQEND
  8
0
  5
9B3A
  0
LINE
  5
636B
  8
0
 10
92.890319718303374
 20
287.82351351025062
 30
0.0
 11
89.233408054592275
 21
287.82351351025062
 31
0.0
  0
LINE
  5
636C
  8
0
 10
90.885114228608273
 20
304.82351815941291
 30
0.0
 11
89.076468093576096
 21
304.82351815941291
 31
0.0
  0
LINE
  5
636D
  8
0
 10
89.076468093576096
 20
304.82351815941291
 30
0.0
 11
89.076468093576096
 21
309.2370781922574
 31
0.0
  0
LINE
  5
636E
  8
0
 10
92.693759897979206
 20
304.82351815941291
 30
0.0
 11
90.885114228608273
 21
304.82351815941291
 31
0.0
  0
LINE
  5
636F
  8
0
 10
86.688126741232495
 20
304.82351815941291
 30
0.0
 11
89.076468093576096
 21
304.82351815941291
 31
0.0
  0
LINE
  5
6371
  8
0
 10
114.1769926308414
 20
304.82351815941291
 30
0.0
 11
116.1806968285461
 21
304.82351815941291
 31
0.0
  0
LINE
  5
6374
  8
0
 10
165.71769986885971
 20
327.48620248081642
 30
0.0
 11
167.61326913374839
 21
328.41751015427059
 31
0.0
  0
POLYLINE
  5
6375
  8
0
 10
162.82101192110991
 20
326.79351470234349
 30
0.0
 66
     1
 70
     8
  0
VERTEX
  8
0
  5
9B3B
 10
162.821
 20
326.794
 30
0.000000
  70
    32
  0
VERTEX
  8
0
  5
9B3C
 10
162.844
 20
326.794
 30
0.000000
  70
    32
  0
VERTEX
  8
0
  5
9B3D
 10
162.867
 20
326.794
 30
0.000000
  70
    32
  0
VERTEX
  8
0
  5
9B3E
 10
162.890
 20
326.794
 30
0.000000
  70
    32
  0
VERTEX
  8
0
  5
9B3F
 10
162.913
 20
326.794
 30
0.000000
  70
    32
  0
VERTEX
  8
0
  5
9B40
 10
162.936
 20
326.795
 30
0.000000
  70
    32
  0
VERTEX
  8
0
  5
9B41
 10
162.959
 20
326.795
 30
0.000000
  70
    32
  0
VERTEX
  8
0
  5
9B42
 10
162.982
 20
326.796
 30
0.000000
  70
    32
  0
VERTEX
  8
0
  5
9B43
 10
163.005
 20
326.796
 30
0.000000
  70
    32
  0
VERTEX
  8
0
  5
9B44
 10
163.028
 20
326.797
 30
0.000000
  70
    32
  0
VERTEX
  8
0
  5
9B45
 10
163.051
 20
326.798
 30
0.000000
  70
    32
  0
VERTEX
  8
0
  5
9B46
 10
163.074
 20
326.799
 30
0.000000
  70
    32
  0
VERTEX
  8
0
  5
9B47
 10
163.097
 20
326.800
 30
0.000000
  70
    32
  0
VERTEX
  8
0
  5
9B48
 10
163.120
 20
326.801
 30
0.000000
  70
    32
  0
VERTEX
  8
0
  5
9B49
 10
163.143
 20
326.802
 30
0.000000
  70
    32
  0
VERTEX
  8
0
  5
9B4A
 10
163.166
 20
326.803
 30
0.000000
  70
    32
  0
VERTEX
  8
0
  5
9B4B
 10
163.189
 20
326.804
 30
0.000000
  70
    32
  0
VERTEX
  8
0
  5
9B4C
 10
163.212
 20
326.806
 30
0.000000
  70
    32
  0
VERTEX
  8
0
  5
9B4D
 10
163.235
 20
326.807
 30
0.000000
  70
    32
  0
VERTEX
  8
0
  5
9B4E
 10
163.258
 20
326.809
 30
0.000000
  70
    32
  0
VERTEX
  8
0
  5
9B4F
 10
163.281
 20
326.811
 30
0.000000
  70
    32
  0
VERTEX
  8
0
  5
9B50
 10
163.304
 20
326.812
 30
0.000000
  70
    32
  0
VERTEX
  8
0
  5
9B51
 10
163.327
 20
326.814
 30
0.000000
  70
    32
  0
VERTEX
  8
0
  5
9B52
 10
163.350
 20
326.816
 30
0.000000
  70
    32
  0
VERTEX
  8
0
  5
9B53
 10
163.373
 20
326.818
 30
0.000000
  70
    32
  0
VERTEX
  8
0
  5
9B54
 10
163.396
 20
326.820
 30
0.000000
  70
    32
  0
VERTEX
  8
0
  5
9B55
 10
163.419
 20
326.822
 30
0.000000
  70
    32
  0
VERTEX
  8
0
  5
9B56
 10
163.442
 20
326.825
 30
0.000000
  70
    32
  0
VERTEX
  8
0
  5
9B57
 10
163.465
 20
326.827
 30
0.000000
  70
    32
  0
VERTEX
  8
0
  5
9B58
 10
163.488
 20
326.829
 30
0.000000
  70
    32
  0
VERTEX
  8
0
  5
9B59
 10
163.511
 20
326.832
 30
0.000000
  70
    32
  0
VERTEX
  8
0
  5
9B5A
 10
163.534
 20
326.834
 30
0.000000
  70
    32
  0
VERTEX
  8
0
  5
9B5B
 10
163.557
 20
326.837
 30
0.000000
  70
    32
  0
VERTEX
  8
0
  5
9B5C
 10
163.580
 20
326.840
 30
0.000000
  70
    32
  0
VERTEX
  8
0
  5
9B5D
 10
163.603
 20
326.843
 30
0.000000
  70
    32
  0
VERTEX
  8
0
  5
9B5E
 10
163.626
 20
326.846
 30
0.000000
  70
    32
  0
VERTEX
  8
0
  5
9B5F
 10
163.649
 20
326.849
 30
0.000000
  70
    32
  0
VERTEX
  8
0
  5
9B60
 10
163.672
 20
326.852
 30
0.000000
  70
    32
  0
VERTEX
  8
0
  5
9B61
 10
163.695
 20
326.855
 30
0.000000
  70
    32
  0
VERTEX
  8
0
  5
9B62
 10
163.718
 20
326.858
 30
0.000000
  70
    32
  0
VERTEX
  8
0
  5
9B63
 10
163.741
 20
326.862
 30
0.000000
  70
    32
  0
VERTEX
  8
0
  5
9B64
 10
163.764
 20
326.865
 30
0.000000
  70
    32
  0
VERTEX
  8
0
  5
9B65
 10
163.786
 20
326.869
 30
0.000000
  70
    32
  0
VERTEX
  8
0
  5
9B66
 10
163.809
 20
326.872
 30
0.000000
  70
    32
  0
VERTEX
  8
0
  5
9B67
 10
163.832
 20
326.876
 30
0.000000
  70
    32
  0
VERTEX
  8
0
  5
9B68
 10
163.855
 20
326.880
 30
0.000000
  70
    32
  0
VERTEX
  8
0
  5
9B69
 10
163.878
 20
326.884
 30
0.000000
  70
    32
  0
VERTEX
  8
0
  5
9B6A
 10
163.901
 20
326.888
 30
0.000000
  70
    32
  0
VERTEX
  8
0
  5
9B6B
 10
163.924
 20
326.892
 30
0.000000
  70
    32
  0
VERTEX
  8
0
  5
9B6C
 10
163.947
 20
326.896
 30
0.000000
  70
    32
  0
VERTEX
  8
0
  5
9B6D
 10
163.969
 20
326.900
 30
0.000000
  70
    32
  0
VERTEX
  8
0
  5
9B6E
 10
163.992
 20
326.904
 30
0.000000
  70
    32
  0
VERTEX
  8
0
  5
9B6F
 10
164.015
 20
326.909
 30
0.000000
  70
    32
  0
VERTEX
  8
0
  5
9B70
 10
164.038
 20
326.913
 30
0.000000
  70
    32
  0
VERTEX
  8
0
  5
9B71
 10
164.061
 20
326.918
 30
0.000000
  70
    32
  0
VERTEX
  8
0
  5
9B72
 10
164.084
 20
326.922
 30
0.000000
  70
    32
  0
VERTEX
  8
0
  5
9B73
 10
164.106
 20
326.927
 30
0.000000
  70
    32
  0
VERTEX
  8
0
  5
9B74
 10
164.129
 20
326.932
 30
0.000000
  70
    32
  0
VERTEX
  8
0
  5
9B75
 10
164.152
 20
326.937
 30
0.000000
  70
    32
  0
VERTEX
  8
0
  5
9B76
 10
164.175
 20
326.942
 30
0.000000
  70
    32
  0
VERTEX
  8
0
  5
9B77
 10
164.197
 20
326.947
 30
0.000000
  70
    32
  0
VERTEX
  8
0
  5
9B78
 10
164.220
 20
326.952
 30
0.000000
  70
    32
  0
VERTEX
  8
0
  5
9B79
 10
164.243
 20
326.957
 30
0.000000
  70
    32
  0
VERTEX
  8
0
  5
9B7A
 10
164.266
 20
326.962
 30
0.000000
  70
    32
  0
VERTEX
  8
0
  5
9B7B
 10
164.288
 20
326.968
 30
0.000000
  70
    32
  0
VERTEX
  8
0
  5
9B7C
 10
164.311
 20
326.973
 30
0.000000
  70
    32
  0
VERTEX
  8
0
  5
9B7D
 10
164.334
 20
326.979
 30
0.000000
  70
    32
  0
VERTEX
  8
0
  5
9B7E
 10
164.357
 20
326.985
 30
0.000000
  70
    32
  0
VERTEX
  8
0
  5
9B7F
 10
164.379
 20
326.990
 30
0.000000
  70
    32
  0
VERTEX
  8
0
  5
9B80
 10
164.402
 20
326.996
 30
0.000000
  70
    32
  0
VERTEX
  8
0
  5
9B81
 10
164.425
 20
327.002
 30
0.000000
  70
    32
  0
VERTEX
  8
0
  5
9B82
 10
164.447
 20
327.008
 30
0.000000
  70
    32
  0
VERTEX
  8
0
  5
9B83
 10
164.470
 20
327.014
 30
0.000000
  70
    32
  0
VERTEX
  8
0
  5
9B84
 10
164.493
 20
327.020
 30
0.000000
  70
    32
  0
VERTEX
  8
0
  5
9B85
 10
164.515
 20
327.026
 30
0.000000
  70
    32
  0
VERTEX
  8
0
  5
9B86
 10
164.538
 20
327.033
 30
0.000000
  70
    32
  0
VERTEX
  8
0
  5
9B87
 10
164.560
 20
327.039
 30
0.000000
  70
    32
  0
VERTEX
  8
0
  5
9B88
 10
164.583
 20
327.046
 30
0.000000
  70
    32
  0
VERTEX
  8
0
  5
9B89
 10
164.606
 20
327.052
 30
0.000000
  70
    32
  0
VERTEX
  8
0
  5
9B8A
 10
164.628
 20
327.059
 30
0.000000
  70
    32
  0
VERTEX
  8
0
  5
9B8B
 10
164.651
 20
327.066
 30
0.000000
  70
    32
  0
VERTEX
  8
0
  5
9B8C
 10
164.673
 20
327.072
 30
0.000000
  70
    32
  0
VERTEX
  8
0
  5
9B8D
 10
164.696
 20
327.079
 30
0.000000
  70
    32
  0
VERTEX
  8
0
  5
9B8E
 10
164.718
 20
327.086
 30
0.000000
  70
    32
  0
VERTEX
  8
0
  5
9B8F
 10
164.741
 20
327.093
 30
0.000000
  70
    32
  0
VERTEX
  8
0
  5
9B90
 10
164.763
 20
327.100
 30
0.000000
  70
    32
  0
VERTEX
  8
0
  5
9B91
 10
164.786
 20
327.108
 30
0.000000
  70
    32
  0
VERTEX
  8
0
  5
9B92
 10
164.808
 20
327.115
 30
0.000000
  70
    32
  0
VERTEX
  8
0
  5
9B93
 10
164.831
 20
327.122
 30
0.000000
  70
    32
  0
VERTEX
  8
0
  5
9B94
 10
164.853
 20
327.130
 30
0.000000
  70
    32
  0
VERTEX
  8
0
  5
9B95
 10
164.876
 20
327.137
 30
0.000000
  70
    32
  0
VERTEX
  8
0
  5
9B96
 10
164.898
 20
327.145
 30
0.000000
  70
    32
  0
VERTEX
  8
0
  5
9B97
 10
164.921
 20
327.153
 30
0.000000
  70
    32
  0
VERTEX
  8
0
  5
9B98
 10
164.943
 20
327.161
 30
0.000000
  70
    32
  0
VERTEX
  8
0
  5
9B99
 10
164.965
 20
327.169
 30
0.000000
  70
    32
  0
VERTEX
  8
0
  5
9B9A
 10
164.988
 20
327.177
 30
0.000000
  70
    32
  0
VERTEX
  8
0
  5
9B9B
 10
165.010
 20
327.185
 30
0.000000
  70
    32
  0
VERTEX
  8
0
  5
9B9C
 10
165.033
 20
327.193
 30
0.000000
  70
    32
  0
VERTEX
  8
0
  5
9B9D
 10
165.055
 20
327.201
 30
0.000000
  70
    32
  0
VERTEX
  8
0
  5
9B9E
 10
165.077
 20
327.209
 30
0.000000
  70
    32
  0
VERTEX
  8
0
  5
9B9F
 10
165.100
 20
327.218
 30
0.000000
  70
    32
  0
VERTEX
  8
0
  5
9BA0
 10
165.122
 20
327.226
 30
0.000000
  70
    32
  0
VERTEX
  8
0
  5
9BA1
 10
165.144
 20
327.235
 30
0.000000
  70
    32
  0
VERTEX
  8
0
  5
9BA2
 10
165.166
 20
327.243
 30
0.000000
  70
    32
  0
VERTEX
  8
0
  5
9BA3
 10
165.189
 20
327.252
 30
0.000000
  70
    32
  0
VERTEX
  8
0
  5
9BA4
 10
165.211
 20
327.261
 30
0.000000
  70
    32
  0
VERTEX
  8
0
  5
9BA5
 10
165.233
 20
327.270
 30
0.000000
  70
    32
  0
VERTEX
  8
0
  5
9BA6
 10
165.255
 20
327.279
 30
0.000000
  70
    32
  0
VERTEX
  8
0
  5
9BA7
 10
165.277
 20
327.288
 30
0.000000
  70
    32
  0
VERTEX
  8
0
  5
9BA8
 10
165.300
 20
327.297
 30
0.000000
  70
    32
  0
VERTEX
  8
0
  5
9BA9
 10
165.322
 20
327.306
 30
0.000000
  70
    32
  0
VERTEX
  8
0
  5
9BAA
 10
165.344
 20
327.316
 30
0.000000
  70
    32
  0
VERTEX
  8
0
  5
9BAB
 10
165.366
 20
327.325
 30
0.000000
  70
    32
  0
VERTEX
  8
0
  5
9BAC
 10
165.388
 20
327.334
 30
0.000000
  70
    32
  0
VERTEX
  8
0
  5
9BAD
 10
165.410
 20
327.344
 30
0.000000
  70
    32
  0
VERTEX
  8
0
  5
9BAE
 10
165.432
 20
327.354
 30
0.000000
  70
    32
  0
VERTEX
  8
0
  5
9BAF
 10
165.454
 20
327.363
 30
0.000000
  70
    32
  0
VERTEX
  8
0
  5
9BB0
 10
165.476
 20
327.373
 30
0.000000
  70
    32
  0
VERTEX
  8
0
  5
9BB1
 10
165.498
 20
327.383
 30
0.000000
  70
    32
  0
VERTEX
  8
0
  5
9BB2
 10
165.520
 20
327.393
 30
0.000000
  70
    32
  0
VERTEX
  8
0
  5
9BB3
 10
165.542
 20
327.403
 30
0.000000
  70
    32
  0
VERTEX
  8
0
  5
9BB4
 10
165.564
 20
327.413
 30
0.000000
  70
    32
  0
VERTEX
  8
0
  5
9BB5
 10
165.586
 20
327.423
 30
0.000000
  70
    32
  0
VERTEX
  8
0
  5
9BB6
 10
165.608
 20
327.434
 30
0.000000
  70
    32
  0
VERTEX
  8
0
  5
9BB7
 10
165.630
 20
327.444
 30
0.000000
  70
    32
  0
VERTEX
  8
0
  5
9BB8
 10
165.652
 20
327.454
 30
0.000000
  70
    32
  0
VERTEX
  8
0
  5
9BB9
 10
165.674
 20
327.465
 30
0.000000
  70
    32
  0
VERTEX
  8
0
  5
9BBA
 10
165.696
 20
327.476
 30
0.000000
  70
    32
  0
VERTEX
  8
0
  5
9BBB
 10
165.718
 20
327.486
 30
0.000000
  70
    32
  0
SEQEND
  8
0
  5
9BBC
  0
LINE
  5
6376
  8
0
 10
156.13283713001201
 20
326.79352200272041
 30
0.0
 11
162.8210109903234
 21
326.79352200272041
 31
0.0
  0
POLYLINE
  5
6377
  8
0
 10
156.13283667840599
 20
326.79351470234332
 30
0.0
 66
     1
 70
     8
  0
VERTEX
  8
0
  5
9BBD
 10
156.133
 20
326.794
 30
0.000000
  70
    32
  0
VERTEX
  8
0
  5
9BBE
 10
156.119
 20
326.793
 30
0.000000
  70
    32
  0
VERTEX
  8
0
  5
9BBF
 10
156.106
 20
326.793
 30
0.000000
  70
    32
  0
VERTEX
  8
0
  5
9BC0
 10
156.092
 20
326.793
 30
0.000000
  70
    32
  0
VERTEX
  8
0
  5
9BC1
 10
156.079
 20
326.793
 30
0.000000
  70
    32
  0
VERTEX
  8
0
  5
9BC2
 10
156.065
 20
326.793
 30
0.000000
  70
    32
  0
VERTEX
  8
0
  5
9BC3
 10
156.052
 20
326.793
 30
0.000000
  70
    32
  0
VERTEX
  8
0
  5
9BC4
 10
156.038
 20
326.793
 30
0.000000
  70
    32
  0
VERTEX
  8
0
  5
9BC5
 10
156.024
 20
326.792
 30
0.000000
  70
    32
  0
VERTEX
  8
0
  5
9BC6
 10
156.011
 20
326.792
 30
0.000000
  70
    32
  0
VERTEX
  8
0
  5
9BC7
 10
155.997
 20
326.792
 30
0.000000
  70
    32
  0
VERTEX
  8
0
  5
9BC8
 10
155.984
 20
326.791
 30
0.000000
  70
    32
  0
VERTEX
  8
0
  5
9BC9
 10
155.970
 20
326.791
 30
0.000000
  70
    32
  0
VERTEX
  8
0
  5
9BCA
 10
155.957
 20
326.790
 30
0.000000
  70
    32
  0
VERTEX
  8
0
  5
9BCB
 10
155.943
 20
326.790
 30
0.000000
  70
    32
  0
VERTEX
  8
0
  5
9BCC
 10
155.930
 20
326.789
 30
0.000000
  70
    32
  0
VERTEX
  8
0
  5
9BCD
 10
155.916
 20
326.788
 30
0.000000
  70
    32
  0
VERTEX
  8
0
  5
9BCE
 10
155.903
 20
326.788
 30
0.000000
  70
    32
  0
VERTEX
  8
0
  5
9BCF
 10
155.889
 20
326.787
 30
0.000000
  70
    32
  0
VERTEX
  8
0
  5
9BD0
 10
155.875
 20
326.786
 30
0.000000
  70
    32
  0
VERTEX
  8
0
  5
9BD1
 10
155.862
 20
326.786
 30
0.000000
  70
    32
  0
VERTEX
  8
0
  5
9BD2
 10
155.848
 20
326.785
 30
0.000000
  70
    32
  0
VERTEX
  8
0
  5
9BD3
 10
155.835
 20
326.784
 30
0.000000
  70
    32
  0
VERTEX
  8
0
  5
9BD4
 10
155.821
 20
326.783
 30
0.000000
  70
    32
  0
VERTEX
  8
0
  5
9BD5
 10
155.808
 20
326.782
 30
0.000000
  70
    32
  0
VERTEX
  8
0
  5
9BD6
 10
155.794
 20
326.781
 30
0.000000
  70
    32
  0
VERTEX
  8
0
  5
9BD7
 10
155.781
 20
326.780
 30
0.000000
  70
    32
  0
VERTEX
  8
0
  5
9BD8
 10
155.767
 20
326.779
 30
0.000000
  70
    32
  0
VERTEX
  8
0
  5
9BD9
 10
155.754
 20
326.778
 30
0.000000
  70
    32
  0
VERTEX
  8
0
  5
9BDA
 10
155.740
 20
326.777
 30
0.000000
  70
    32
  0
VERTEX
  8
0
  5
9BDB
 10
155.727
 20
326.776
 30
0.000000
  70
    32
  0
VERTEX
  8
0
  5
9BDC
 10
155.713
 20
326.775
 30
0.000000
  70
    32
  0
VERTEX
  8
0
  5
9BDD
 10
155.700
 20
326.773
 30
0.000000
  70
    32
  0
VERTEX
  8
0
  5
9BDE
 10
155.686
 20
326.772
 30
0.000000
  70
    32
  0
VERTEX
  8
0
  5
9BDF
 10
155.673
 20
326.771
 30
0.000000
  70
    32
  0
VERTEX
  8
0
  5
9BE0
 10
155.659
 20
326.770
 30
0.000000
  70
    32
  0
VERTEX
  8
0
  5
9BE1
 10
155.646
 20
326.768
 30
0.000000
  70
    32
  0
VERTEX
  8
0
  5
9BE2
 10
155.632
 20
326.767
 30
0.000000
  70
    32
  0
VERTEX
  8
0
  5
9BE3
 10
155.618
 20
326.765
 30
0.000000
  70
    32
  0
VERTEX
  8
0
  5
9BE4
 10
155.605
 20
326.764
 30
0.000000
  70
    32
  0
VERTEX
  8
0
  5
9BE5
 10
155.591
 20
326.762
 30
0.000000
  70
    32
  0
VERTEX
  8
0
  5
9BE6
 10
155.578
 20
326.761
 30
0.000000
  70
    32
  0
VERTEX
  8
0
  5
9BE7
 10
155.564
 20
326.759
 30
0.000000
  70
    32
  0
VERTEX
  8
0
  5
9BE8
 10
155.551
 20
326.757
 30
0.000000
  70
    32
  0
VERTEX
  8
0
  5
9BE9
 10
155.537
 20
326.756
 30
0.000000
  70
    32
  0
VERTEX
  8
0
  5
9BEA
 10
155.524
 20
326.754
 30
0.000000
  70
    32
  0
VERTEX
  8
0
  5
9BEB
 10
155.510
 20
326.752
 30
0.000000
  70
    32
  0
VERTEX
  8
0
  5
9BEC
 10
155.497
 20
326.750
 30
0.000000
  70
    32
  0
VERTEX
  8
0
  5
9BED
 10
155.484
 20
326.748
 30
0.000000
  70
    32
  0
VERTEX
  8
0
  5
9BEE
 10
155.470
 20
326.746
 30
0.000000
  70
    32
  0
VERTEX
  8
0
  5
9BEF
 10
155.457
 20
326.745
 30
0.000000
  70
    32
  0
VERTEX
  8
0
  5
9BF0
 10
155.443
 20
326.743
 30
0.000000
  70
    32
  0
VERTEX
  8
0
  5
9BF1
 10
155.430
 20
326.741
 30
0.000000
  70
    32
  0
VERTEX
  8
0
  5
9BF2
 10
155.416
 20
326.738
 30
0.000000
  70
    32
  0
VERTEX
  8
0
  5
9BF3
 10
155.403
 20
326.736
 30
0.000000
  70
    32
  0
VERTEX
  8
0
  5
9BF4
 10
155.389
 20
326.734
 30
0.000000
  70
    32
  0
VERTEX
  8
0
  5
9BF5
 10
155.376
 20
326.732
 30
0.000000
  70
    32
  0
VERTEX
  8
0
  5
9BF6
 10
155.362
 20
326.730
 30
0.000000
  70
    32
  0
VERTEX
  8
0
  5
9BF7
 10
155.349
 20
326.728
 30
0.000000
  70
    32
  0
VERTEX
  8
0
  5
9BF8
 10
155.335
 20
326.725
 30
0.000000
  70
    32
  0
VERTEX
  8
0
  5
9BF9
 10
155.322
 20
326.723
 30
0.000000
  70
    32
  0
VERTEX
  8
0
  5
9BFA
 10
155.308
 20
326.721
 30
0.000000
  70
    32
  0
VERTEX
  8
0
  5
9BFB
 10
155.295
 20
326.718
 30
0.000000
  70
    32
  0
VERTEX
  8
0
  5
9BFC
 10
155.282
 20
326.716
 30
0.000000
  70
    32
  0
VERTEX
  8
0
  5
9BFD
 10
155.268
 20
326.713
 30
0.000000
  70
    32
  0
VERTEX
  8
0
  5
9BFE
 10
155.255
 20
326.711
 30
0.000000
  70
    32
  0
VERTEX
  8
0
  5
9BFF
 10
155.241
 20
326.708
 30
0.000000
  70
    32
  0
VERTEX
  8
0
  5
9C00
 10
155.228
 20
326.706
 30
0.000000
  70
    32
  0
VERTEX
  8
0
  5
9C01
 10
155.214
 20
326.703
 30
0.000000
  70
    32
  0
VERTEX
  8
0
  5
9C02
 10
155.201
 20
326.700
 30
0.000000
  70
    32
  0
VERTEX
  8
0
  5
9C03
 10
155.187
 20
326.698
 30
0.000000
  70
    32
  0
VERTEX
  8
0
  5
9C04
 10
155.174
 20
326.695
 30
0.000000
  70
    32
  0
VERTEX
  8
0
  5
9C05
 10
155.161
 20
326.692
 30
0.000000
  70
    32
  0
VERTEX
  8
0
  5
9C06
 10
155.147
 20
326.689
 30
0.000000
  70
    32
  0
VERTEX
  8
0
  5
9C07
 10
155.134
 20
326.686
 30
0.000000
  70
    32
  0
VERTEX
  8
0
  5
9C08
 10
155.120
 20
326.683
 30
0.000000
  70
    32
  0
VERTEX
  8
0
  5
9C09
 10
155.107
 20
326.680
 30
0.000000
  70
    32
  0
VERTEX
  8
0
  5
9C0A
 10
155.094
 20
326.677
 30
0.000000
  70
    32
  0
VERTEX
  8
0
  5
9C0B
 10
155.080
 20
326.674
 30
0.000000
  70
    32
  0
VERTEX
  8
0
  5
9C0C
 10
155.067
 20
326.671
 30
0.000000
  70
    32
  0
VERTEX
  8
0
  5
9C0D
 10
155.053
 20
326.668
 30
0.000000
  70
    32
  0
VERTEX
  8
0
  5
9C0E
 10
155.040
 20
326.665
 30
0.000000
  70
    32
  0
VERTEX
  8
0
  5
9C0F
 10
155.027
 20
326.662
 30
0.000000
  70
    32
  0
VERTEX
  8
0
  5
9C10
 10
155.013
 20
326.659
 30
0.000000
  70
    32
  0
VERTEX
  8
0
  5
9C11
 10
155.000
 20
326.655
 30
0.000000
  70
    32
  0
VERTEX
  8
0
  5
9C12
 10
154.987
 20
326.652
 30
0.000000
  70
    32
  0
VERTEX
  8
0
  5
9C13
 10
154.973
 20
326.649
 30
0.000000
  70
    32
  0
VERTEX
  8
0
  5
9C14
 10
154.960
 20
326.645
 30
0.000000
  70
    32
  0
VERTEX
  8
0
  5
9C15
 10
154.947
 20
326.642
 30
0.000000
  70
    32
  0
VERTEX
  8
0
  5
9C16
 10
154.933
 20
326.639
 30
0.000000
  70
    32
  0
VERTEX
  8
0
  5
9C17
 10
154.920
 20
326.635
 30
0.000000
  70
    32
  0
VERTEX
  8
0
  5
9C18
 10
154.907
 20
326.632
 30
0.000000
  70
    32
  0
VERTEX
  8
0
  5
9C19
 10
154.893
 20
326.628
 30
0.000000
  70
    32
  0
VERTEX
  8
0
  5
9C1A
 10
154.880
 20
326.624
 30
0.000000
  70
    32
  0
VERTEX
  8
0
  5
9C1B
 10
154.867
 20
326.621
 30
0.000000
  70
    32
  0
VERTEX
  8
0
  5
9C1C
 10
154.853
 20
326.617
 30
0.000000
  70
    32
  0
VERTEX
  8
0
  5
9C1D
 10
154.840
 20
326.613
 30
0.000000
  70
    32
  0
VERTEX
  8
0
  5
9C1E
 10
154.827
 20
326.610
 30
0.000000
  70
    32
  0
VERTEX
  8
0
  5
9C1F
 10
154.813
 20
326.606
 30
0.000000
  70
    32
  0
VERTEX
  8
0
  5
9C20
 10
154.800
 20
326.602
 30
0.000000
  70
    32
  0
VERTEX
  8
0
  5
9C21
 10
154.787
 20
326.598
 30
0.000000
  70
    32
  0
VERTEX
  8
0
  5
9C22
 10
154.774
 20
326.594
 30
0.000000
  70
    32
  0
VERTEX
  8
0
  5
9C23
 10
154.760
 20
326.590
 30
0.000000
  70
    32
  0
VERTEX
  8
0
  5
9C24
 10
154.747
 20
326.586
 30
0.000000
  70
    32
  0
VERTEX
  8
0
  5
9C25
 10
154.734
 20
326.582
 30
0.000000
  70
    32
  0
VERTEX
  8
0
  5
9C26
 10
154.720
 20
326.578
 30
0.000000
  70
    32
  0
VERTEX
  8
0
  5
9C27
 10
154.707
 20
326.574
 30
0.000000
  70
    32
  0
VERTEX
  8
0
  5
9C28
 10
154.694
 20
326.570
 30
0.000000
  70
    32
  0
VERTEX
  8
0
  5
9C29
 10
154.681
 20
326.566
 30
0.000000
  70
    32
  0
VERTEX
  8
0
  5
9C2A
 10
154.667
 20
326.561
 30
0.000000
  70
    32
  0
VERTEX
  8
0
  5
9C2B
 10
154.654
 20
326.557
 30
0.000000
  70
    32
  0
VERTEX
  8
0
  5
9C2C
 10
154.641
 20
326.553
 30
0.000000
  70
    32
  0
VERTEX
  8
0
  5
9C2D
 10
154.628
 20
326.549
 30
0.000000
  70
    32
  0
VERTEX
  8
0
  5
9C2E
 10
154.615
 20
326.544
 30
0.000000
  70
    32
  0
VERTEX
  8
0
  5
9C2F
 10
154.601
 20
326.540
 30
0.000000
  70
    32
  0
VERTEX
  8
0
  5
9C30
 10
154.588
 20
326.535
 30
0.000000
  70
    32
  0
VERTEX
  8
0
  5
9C31
 10
154.575
 20
326.531
 30
0.000000
  70
    32
  0
VERTEX
  8
0
  5
9C32
 10
154.562
 20
326.526
 30
0.000000
  70
    32
  0
VERTEX
  8
0
  5
9C33
 10
154.549
 20
326.522
 30
0.000000
  70
    32
  0
VERTEX
  8
0
  5
9C34
 10
154.535
 20
326.517
 30
0.000000
  70
    32
  0
VERTEX
  8
0
  5
9C35
 10
154.522
 20
326.512
 30
0.000000
  70
    32
  0
VERTEX
  8
0
  5
9C36
 10
154.509
 20
326.508
 30
0.000000
  70
    32
  0
VERTEX
  8
0
  5
9C37
 10
154.496
 20
326.503
 30
0.000000
  70
    32
  0
VERTEX
  8
0
  5
9C38
 10
154.483
 20
326.498
 30
0.000000
  70
    32
  0
VERTEX
  8
0
  5
9C39
 10
154.470
 20
326.494
 30
0.000000
  70
    32
  0
VERTEX
  8
0
  5
9C3A
 10
154.456
 20
326.489
 30
0.000000
  70
    32
  0
VERTEX
  8
0
  5
9C3B
 10
154.443
 20
326.484
 30
0.000000
  70
    32
  0
VERTEX
  8
0
  5
9C3C
 10
154.430
 20
326.479
 30
0.000000
  70
    32
  0
VERTEX
  8
0
  5
9C3D
 10
154.417
 20
326.474
 30
0.000000
  70
    32
  0
SEQEND
  8
0
  5
9C3E
  0
POLYLINE
  5
6378
  8
0
 10
154.41706519840207
 20
326.47397085264106
 30
0.0
 66
     1
 70
     8
  0
VERTEX
  8
0
  5
9C3F
 10
154.417
 20
326.474
 30
0.000000
  70
    32
  0
VERTEX
  8
0
  5
9C40
 10
154.281
 20
326.422
 30
0.000000
  70
    32
  0
VERTEX
  8
0
  5
9C41
 10
154.145
 20
326.371
 30
0.000000
  70
    32
  0
VERTEX
  8
0
  5
9C42
 10
154.009
 20
326.319
 30
0.000000
  70
    32
  0
VERTEX
  8
0
  5
9C43
 10
153.873
 20
326.267
 30
0.000000
  70
    32
  0
VERTEX
  8
0
  5
9C44
 10
153.737
 20
326.214
 30
0.000000
  70
    32
  0
VERTEX
  8
0
  5
9C45
 10
153.601
 20
326.162
 30
0.000000
  70
    32
  0
VERTEX
  8
0
  5
9C46
 10
153.465
 20
326.109
 30
0.000000
  70
    32
  0
VERTEX
  8
0
  5
9C47
 10
153.329
 20
326.057
 30
0.000000
  70
    32
  0
VERTEX
  8
0
  5
9C48
 10
153.194
 20
326.004
 30
0.000000
  70
    32
  0
VERTEX
  8
0
  5
9C49
 10
153.058
 20
325.951
 30
0.000000
  70
    32
  0
VERTEX
  8
0
  5
9C4A
 10
152.922
 20
325.897
 30
0.000000
  70
    32
  0
VERTEX
  8
0
  5
9C4B
 10
152.786
 20
325.844
 30
0.000000
  70
    32
  0
VERTEX
  8
0
  5
9C4C
 10
152.651
 20
325.791
 30
0.000000
  70
    32
  0
VERTEX
  8
0
  5
9C4D
 10
152.515
 20
325.737
 30
0.000000
  70
    32
  0
VERTEX
  8
0
  5
9C4E
 10
152.379
 20
325.683
 30
0.000000
  70
    32
  0
VERTEX
  8
0
  5
9C4F
 10
152.244
 20
325.629
 30
0.000000
  70
    32
  0
VERTEX
  8
0
  5
9C50
 10
152.108
 20
325.575
 30
0.000000
  70
    32
  0
VERTEX
  8
0
  5
9C51
 10
151.973
 20
325.520
 30
0.000000
  70
    32
  0
VERTEX
  8
0
  5
9C52
 10
151.837
 20
325.466
 30
0.000000
  70
    32
  0
VERTEX
  8
0
  5
9C53
 10
151.702
 20
325.411
 30
0.000000
  70
    32
  0
VERTEX
  8
0
  5
9C54
 10
151.566
 20
325.356
 30
0.000000
  70
    32
  0
VERTEX
  8
0
  5
9C55
 10
151.431
 20
325.301
 30
0.000000
  70
    32
  0
VERTEX
  8
0
  5
9C56
 10
151.295
 20
325.246
 30
0.000000
  70
    32
  0
VERTEX
  8
0
  5
9C57
 10
151.160
 20
325.191
 30
0.000000
  70
    32
  0
VERTEX
  8
0
  5
9C58
 10
151.025
 20
325.135
 30
0.000000
  70
    32
  0
VERTEX
  8
0
  5
9C59
 10
150.889
 20
325.080
 30
0.000000
  70
    32
  0
VERTEX
  8
0
  5
9C5A
 10
150.754
 20
325.024
 30
0.000000
  70
    32
  0
VERTEX
  8
0
  5
9C5B
 10
150.619
 20
324.968
 30
0.000000
  70
    32
  0
VERTEX
  8
0
  5
9C5C
 10
150.484
 20
324.912
 30
0.000000
  70
    32
  0
VERTEX
  8
0
  5
9C5D
 10
150.348
 20
324.855
 30
0.000000
  70
    32
  0
VERTEX
  8
0
  5
9C5E
 10
150.213
 20
324.799
 30
0.000000
  70
    32
  0
VERTEX
  8
0
  5
9C5F
 10
150.078
 20
324.742
 30
0.000000
  70
    32
  0
VERTEX
  8
0
  5
9C60
 10
149.943
 20
324.685
 30
0.000000
  70
    32
  0
VERTEX
  8
0
  5
9C61
 10
149.808
 20
324.629
 30
0.000000
  70
    32
  0
VERTEX
  8
0
  5
9C62
 10
149.673
 20
324.571
 30
0.000000
  70
    32
  0
VERTEX
  8
0
  5
9C63
 10
149.538
 20
324.514
 30
0.000000
  70
    32
  0
VERTEX
  8
0
  5
9C64
 10
149.403
 20
324.457
 30
0.000000
  70
    32
  0
VERTEX
  8
0
  5
9C65
 10
149.268
 20
324.399
 30
0.000000
  70
    32
  0
VERTEX
  8
0
  5
9C66
 10
149.133
 20
324.341
 30
0.000000
  70
    32
  0
VERTEX
  8
0
  5
9C67
 10
148.998
 20
324.283
 30
0.000000
  70
    32
  0
VERTEX
  8
0
  5
9C68
 10
148.864
 20
324.225
 30
0.000000
  70
    32
  0
VERTEX
  8
0
  5
9C69
 10
148.729
 20
324.167
 30
0.000000
  70
    32
  0
VERTEX
  8
0
  5
9C6A
 10
148.594
 20
324.109
 30
0.000000
  70
    32
  0
VERTEX
  8
0
  5
9C6B
 10
148.459
 20
324.050
 30
0.000000
  70
    32
  0
VERTEX
  8
0
  5
9C6C
 10
148.325
 20
323.991
 30
0.000000
  70
    32
  0
VERTEX
  8
0
  5
9C6D
 10
148.190
 20
323.932
 30
0.000000
  70
    32
  0
VERTEX
  8
0
  5
9C6E
 10
148.055
 20
323.873
 30
0.000000
  70
    32
  0
VERTEX
  8
0
  5
9C6F
 10
147.921
 20
323.814
 30
0.000000
  70
    32
  0
VERTEX
  8
0
  5
9C70
 10
147.786
 20
323.755
 30
0.000000
  70
    32
  0
VERTEX
  8
0
  5
9C71
 10
147.652
 20
323.695
 30
0.000000
  70
    32
  0
VERTEX
  8
0
  5
9C72
 10
147.517
 20
323.635
 30
0.000000
  70
    32
  0
VERTEX
  8
0
  5
9C73
 10
147.383
 20
323.576
 30
0.000000
  70
    32
  0
VERTEX
  8
0
  5
9C74
 10
147.248
 20
323.516
 30
0.000000
  70
    32
  0
VERTEX
  8
0
  5
9C75
 10
147.114
 20
323.455
 30
0.000000
  70
    32
  0
VERTEX
  8
0
  5
9C76
 10
146.979
 20
323.395
 30
0.000000
  70
    32
  0
VERTEX
  8
0
  5
9C77
 10
146.845
 20
323.335
 30
0.000000
  70
    32
  0
VERTEX
  8
0
  5
9C78
 10
146.711
 20
323.274
 30
0.000000
  70
    32
  0
VERTEX
  8
0
  5
9C79
 10
146.577
 20
323.213
 30
0.000000
  70
    32
  0
VERTEX
  8
0
  5
9C7A
 10
146.442
 20
323.152
 30
0.000000
  70
    32
  0
VERTEX
  8
0
  5
9C7B
 10
146.308
 20
323.091
 30
0.000000
  70
    32
  0
VERTEX
  8
0
  5
9C7C
 10
146.174
 20
323.030
 30
0.000000
  70
    32
  0
VERTEX
  8
0
  5
9C7D
 10
146.040
 20
322.968
 30
0.000000
  70
    32
  0
VERTEX
  8
0
  5
9C7E
 10
145.906
 20
322.906
 30
0.000000
  70
    32
  0
VERTEX
  8
0
  5
9C7F
 10
145.772
 20
322.845
 30
0.000000
  70
    32
  0
VERTEX
  8
0
  5
9C80
 10
145.638
 20
322.783
 30
0.000000
  70
    32
  0
VERTEX
  8
0
  5
9C81
 10
145.504
 20
322.721
 30
0.000000
  70
    32
  0
VERTEX
  8
0
  5
9C82
 10
145.370
 20
322.658
 30
0.000000
  70
    32
  0
VERTEX
  8
0
  5
9C83
 10
145.236
 20
322.596
 30
0.000000
  70
    32
  0
VERTEX
  8
0
  5
9C84
 10
145.102
 20
322.533
 30
0.000000
  70
    32
  0
VERTEX
  8
0
  5
9C85
 10
144.968
 20
322.470
 30
0.000000
  70
    32
  0
VERTEX
  8
0
  5
9C86
 10
144.834
 20
322.408
 30
0.000000
  70
    32
  0
VERTEX
  8
0
  5
9C87
 10
144.700
 20
322.344
 30
0.000000
  70
    32
  0
VERTEX
  8
0
  5
9C88
 10
144.567
 20
322.281
 30
0.000000
  70
    32
  0
VERTEX
  8
0
  5
9C89
 10
144.433
 20
322.218
 30
0.000000
  70
    32
  0
VERTEX
  8
0
  5
9C8A
 10
144.299
 20
322.154
 30
0.000000
  70
    32
  0
VERTEX
  8
0
  5
9C8B
 10
144.166
 20
322.091
 30
0.000000
  70
    32
  0
VERTEX
  8
0
  5
9C8C
 10
144.032
 20
322.027
 30
0.000000
  70
    32
  0
VERTEX
  8
0
  5
9C8D
 10
143.898
 20
321.963
 30
0.000000
  70
    32
  0
VERTEX
  8
0
  5
9C8E
 10
143.765
 20
321.898
 30
0.000000
  70
    32
  0
VERTEX
  8
0
  5
9C8F
 10
143.631
 20
321.834
 30
0.000000
  70
    32
  0
VERTEX
  8
0
  5
9C90
 10
143.498
 20
321.770
 30
0.000000
  70
    32
  0
VERTEX
  8
0
  5
9C91
 10
143.365
 20
321.705
 30
0.000000
  70
    32
  0
VERTEX
  8
0
  5
9C92
 10
143.231
 20
321.640
 30
0.000000
  70
    32
  0
VERTEX
  8
0
  5
9C93
 10
143.098
 20
321.575
 30
0.000000
  70
    32
  0
VERTEX
  8
0
  5
9C94
 10
142.965
 20
321.510
 30
0.000000
  70
    32
  0
VERTEX
  8
0
  5
9C95
 10
142.831
 20
321.444
 30
0.000000
  70
    32
  0
VERTEX
  8
0
  5
9C96
 10
142.698
 20
321.379
 30
0.000000
  70
    32
  0
VERTEX
  8
0
  5
9C97
 10
142.565
 20
321.313
 30
0.000000
  70
    32
  0
VERTEX
  8
0
  5
9C98
 10
142.432
 20
321.248
 30
0.000000
  70
    32
  0
VERTEX
  8
0
  5
9C99
 10
142.298
 20
321.182
 30
0.000000
  70
    32
  0
VERTEX
  8
0
  5
9C9A
 10
142.165
 20
321.115
 30
0.000000
  70
    32
  0
VERTEX
  8
0
  5
9C9B
 10
142.032
 20
321.049
 30
0.000000
  70
    32
  0
VERTEX
  8
0
  5
9C9C
 10
141.899
 20
320.983
 30
0.000000
  70
    32
  0
VERTEX
  8
0
  5
9C9D
 10
141.766
 20
320.916
 30
0.000000
  70
    32
  0
VERTEX
  8
0
  5
9C9E
 10
141.633
 20
320.849
 30
0.000000
  70
    32
  0
VERTEX
  8
0
  5
9C9F
 10
141.500
 20
320.782
 30
0.000000
  70
    32
  0
VERTEX
  8
0
  5
9CA0
 10
141.368
 20
320.715
 30
0.000000
  70
    32
  0
VERTEX
  8
0
  5
9CA1
 10
141.235
 20
320.648
 30
0.000000
  70
    32
  0
VERTEX
  8
0
  5
9CA2
 10
141.102
 20
320.581
 30
0.000000
  70
    32
  0
VERTEX
  8
0
  5
9CA3
 10
140.969
 20
320.513
 30
0.000000
  70
    32
  0
VERTEX
  8
0
  5
9CA4
 10
140.836
 20
320.445
 30
0.000000
  70
    32
  0
VERTEX
  8
0
  5
9CA5
 10
140.704
 20
320.378
 30
0.000000
  70
    32
  0
VERTEX
  8
0
  5
9CA6
 10
140.571
 20
320.310
 30
0.000000
  70
    32
  0
VERTEX
  8
0
  5
9CA7
 10
140.438
 20
320.241
 30
0.000000
  70
    32
  0
VERTEX
  8
0
  5
9CA8
 10
140.306
 20
320.173
 30
0.000000
  70
    32
  0
VERTEX
  8
0
  5
9CA9
 10
140.173
 20
320.104
 30
0.000000
  70
    32
  0
VERTEX
  8
0
  5
9CAA
 10
140.041
 20
320.036
 30
0.000000
  70
    32
  0
VERTEX
  8
0
  5
9CAB
 10
139.908
 20
319.967
 30
0.000000
  70
    32
  0
VERTEX
  8
0
  5
9CAC
 10
139.776
 20
319.898
 30
0.000000
  70
    32
  0
VERTEX
  8
0
  5
9CAD
 10
139.644
 20
319.829
 30
0.000000
  70
    32
  0
VERTEX
  8
0
  5
9CAE
 10
139.511
 20
319.760
 30
0.000000
  70
    32
  0
VERTEX
  8
0
  5
9CAF
 10
139.379
 20
319.690
 30
0.000000
  70
    32
  0
VERTEX
  8
0
  5
9CB0
 10
139.247
 20
319.620
 30
0.000000
  70
    32
  0
VERTEX
  8
0
  5
9CB1
 10
139.114
 20
319.551
 30
0.000000
  70
    32
  0
VERTEX
  8
0
  5
9CB2
 10
138.982
 20
319.481
 30
0.000000
  70
    32
  0
VERTEX
  8
0
  5
9CB3
 10
138.850
 20
319.411
 30
0.000000
  70
    32
  0
VERTEX
  8
0
  5
9CB4
 10
138.718
 20
319.340
 30
0.000000
  70
    32
  0
VERTEX
  8
0
  5
9CB5
 10
138.586
 20
319.270
 30
0.000000
  70
    32
  0
VERTEX
  8
0
  5
9CB6
 10
138.454
 20
319.199
 30
0.000000
  70
    32
  0
VERTEX
  8
0
  5
9CB7
 10
138.322
 20
319.129
 30
0.000000
  70
    32
  0
VERTEX
  8
0
  5
9CB8
 10
138.190
 20
319.058
 30
0.000000
  70
    32
  0
VERTEX
  8
0
  5
9CB9
 10
138.058
 20
318.987
 30
0.000000
  70
    32
  0
VERTEX
  8
0
  5
9CBA
 10
137.926
 20
318.915
 30
0.000000
  70
    32
  0
VERTEX
  8
0
  5
9CBB
 10
137.794
 20
318.844
 30
0.000000
  70
    32
  0
VERTEX
  8
0
  5
9CBC
 10
137.663
 20
318.773
 30
0.000000
  70
    32
  0
VERTEX
  8
0
  5
9CBD
 10
137.531
 20
318.701
 30
0.000000
  70
    32
  0
VERTEX
  8
0
  5
9CBE
 10
137.399
 20
318.629
 30
0.000000
  70
    32
  0
VERTEX
  8
0
  5
9CBF
 10
137.267
 20
318.557
 30
0.000000
  70
    32
  0
SEQEND
  8
0
  5
9CC0
  0
POLYLINE
  5
637B
  8
0
 10
167.61327087944878
 20
328.41751022606348
 30
0.0
 66
     1
 70
     8
  0
VERTEX
  8
0
  5
9CC1
 10
167.613
 20
328.418
 30
0.000000
  70
    32
  0
VERTEX
  8
0
  5
9CC2
 10
167.616
 20
328.419
 30
0.000000
  70
    32
  0
VERTEX
  8
0
  5
9CC3
 10
167.618
 20
328.420
 30
0.000000
  70
    32
  0
VERTEX
  8
0
  5
9CC4
 10
167.620
 20
328.421
 30
0.000000
  70
    32
  0
VERTEX
  8
0
  5
9CC5
 10
167.622
 20
328.422
 30
0.000000
  70
    32
  0
VERTEX
  8
0
  5
9CC6
 10
167.625
 20
328.423
 30
0.000000
  70
    32
  0
VERTEX
  8
0
  5
9CC7
 10
167.627
 20
328.424
 30
0.000000
  70
    32
  0
VERTEX
  8
0
  5
9CC8
 10
167.629
 20
328.425
 30
0.000000
  70
    32
  0
VERTEX
  8
0
  5
9CC9
 10
167.631
 20
328.426
 30
0.000000
  70
    32
  0
VERTEX
  8
0
  5
9CCA
 10
167.634
 20
328.427
 30
0.000000
  70
    32
  0
VERTEX
  8
0
  5
9CCB
 10
167.636
 20
328.428
 30
0.000000
  70
    32
  0
VERTEX
  8
0
  5
9CCC
 10
167.638
 20
328.429
 30
0.000000
  70
    32
  0
VERTEX
  8
0
  5
9CCD
 10
167.640
 20
328.430
 30
0.000000
  70
    32
  0
VERTEX
  8
0
  5
9CCE
 10
167.643
 20
328.431
 30
0.000000
  70
    32
  0
VERTEX
  8
0
  5
9CCF
 10
167.645
 20
328.433
 30
0.000000
  70
    32
  0
VERTEX
  8
0
  5
9CD0
 10
167.647
 20
328.434
 30
0.000000
  70
    32
  0
VERTEX
  8
0
  5
9CD1
 10
167.649
 20
328.435
 30
0.000000
  70
    32
  0
VERTEX
  8
0
  5
9CD2
 10
167.652
 20
328.436
 30
0.000000
  70
    32
  0
VERTEX
  8
0
  5
9CD3
 10
167.654
 20
328.437
 30
0.000000
  70
    32
  0
VERTEX
  8
0
  5
9CD4
 10
167.656
 20
328.438
 30
0.000000
  70
    32
  0
VERTEX
  8
0
  5
9CD5
 10
167.658
 20
328.439
 30
0.000000
  70
    32
  0
VERTEX
  8
0
  5
9CD6
 10
167.661
 20
328.440
 30
0.000000
  70
    32
  0
VERTEX
  8
0
  5
9CD7
 10
167.663
 20
328.441
 30
0.000000
  70
    32
  0
VERTEX
  8
0
  5
9CD8
 10
167.665
 20
328.442
 30
0.000000
  70
    32
  0
VERTEX
  8
0
  5
9CD9
 10
167.667
 20
328.443
 30
0.000000
  70
    32
  0
VERTEX
  8
0
  5
9CDA
 10
167.670
 20
328.444
 30
0.000000
  70
    32
  0
VERTEX
  8
0
  5
9CDB
 10
167.672
 20
328.445
 30
0.000000
  70
    32
  0
VERTEX
  8
0
  5
9CDC
 10
167.674
 20
328.446
 30
0.000000
  70
    32
  0
VERTEX
  8
0
  5
9CDD
 10
167.676
 20
328.448
 30
0.000000
  70
    32
  0
VERTEX
  8
0
  5
9CDE
 10
167.678
 20
328.449
 30
0.000000
  70
    32
  0
VERTEX
  8
0
  5
9CDF
 10
167.681
 20
328.450
 30
0.000000
  70
    32
  0
VERTEX
  8
0
  5
9CE0
 10
167.683
 20
328.451
 30
0.000000
  70
    32
  0
VERTEX
  8
0
  5
9CE1
 10
167.685
 20
328.452
 30
0.000000
  70
    32
  0
VERTEX
  8
0
  5
9CE2
 10
167.687
 20
328.453
 30
0.000000
  70
    32
  0
VERTEX
  8
0
  5
9CE3
 10
167.690
 20
328.454
 30
0.000000
  70
    32
  0
VERTEX
  8
0
  5
9CE4
 10
167.692
 20
328.455
 30
0.000000
  70
    32
  0
VERTEX
  8
0
  5
9CE5
 10
167.694
 20
328.456
 30
0.000000
  70
    32
  0
VERTEX
  8
0
  5
9CE6
 10
167.696
 20
328.457
 30
0.000000
  70
    32
  0
VERTEX
  8
0
  5
9CE7
 10
167.699
 20
328.458
 30
0.000000
  70
    32
  0
VERTEX
  8
0
  5
9CE8
 10
167.701
 20
328.459
 30
0.000000
  70
    32
  0
VERTEX
  8
0
  5
9CE9
 10
167.703
 20
328.460
 30
0.000000
  70
    32
  0
VERTEX
  8
0
  5
9CEA
 10
167.705
 20
328.461
 30
0.000000
  70
    32
  0
VERTEX
  8
0
  5
9CEB
 10
167.707
 20
328.463
 30
0.000000
  70
    32
  0
VERTEX
  8
0
  5
9CEC
 10
167.710
 20
328.464
 30
0.000000
  70
    32
  0
VERTEX
  8
0
  5
9CED
 10
167.712
 20
328.465
 30
0.000000
  70
    32
  0
VERTEX
  8
0
  5
9CEE
 10
167.714
 20
328.466
 30
0.000000
  70
    32
  0
VERTEX
  8
0
  5
9CEF
 10
167.716
 20
328.467
 30
0.000000
  70
    32
  0
VERTEX
  8
0
  5
9CF0
 10
167.719
 20
328.468
 30
0.000000
  70
    32
  0
VERTEX
  8
0
  5
9CF1
 10
167.721
 20
328.469
 30
0.000000
  70
    32
  0
VERTEX
  8
0
  5
9CF2
 10
167.723
 20
328.470
 30
0.000000
  70
    32
  0
VERTEX
  8
0
  5
9CF3
 10
167.725
 20
328.471
 30
0.000000
  70
    32
  0
VERTEX
  8
0
  5
9CF4
 10
167.727
 20
328.472
 30
0.000000
  70
    32
  0
VERTEX
  8
0
  5
9CF5
 10
167.730
 20
328.473
 30
0.000000
  70
    32
  0
VERTEX
  8
0
  5
9CF6
 10
167.732
 20
328.474
 30
0.000000
  70
    32
  0
VERTEX
  8
0
  5
9CF7
 10
167.734
 20
328.475
 30
0.000000
  70
    32
  0
VERTEX
  8
0
  5
9CF8
 10
167.736
 20
328.476
 30
0.000000
  70
    32
  0
VERTEX
  8
0
  5
9CF9
 10
167.738
 20
328.478
 30
0.000000
  70
    32
  0
VERTEX
  8
0
  5
9CFA
 10
167.741
 20
328.479
 30
0.000000
  70
    32
  0
VERTEX
  8
0
  5
9CFB
 10
167.743
 20
328.480
 30
0.000000
  70
    32
  0
VERTEX
  8
0
  5
9CFC
 10
167.745
 20
328.481
 30
0.000000
  70
    32
  0
VERTEX
  8
0
  5
9CFD
 10
167.747
 20
328.482
 30
0.000000
  70
    32
  0
VERTEX
  8
0
  5
9CFE
 10
167.749
 20
328.483
 30
0.000000
  70
    32
  0
VERTEX
  8
0
  5
9CFF
 10
167.752
 20
328.484
 30
0.000000
  70
    32
  0
VERTEX
  8
0
  5
9D00
 10
167.754
 20
328.485
 30
0.000000
  70
    32
  0
VERTEX
  8
0
  5
9D01
 10
167.756
 20
328.486
 30
0.000000
  70
    32
  0
VERTEX
  8
0
  5
9D02
 10
167.758
 20
328.487
 30
0.000000
  70
    32
  0
VERTEX
  8
0
  5
9D03
 10
167.760
 20
328.488
 30
0.000000
  70
    32
  0
VERTEX
  8
0
  5
9D04
 10
167.763
 20
328.489
 30
0.000000
  70
    32
  0
VERTEX
  8
0
  5
9D05
 10
167.765
 20
328.490
 30
0.000000
  70
    32
  0
VERTEX
  8
0
  5
9D06
 10
167.767
 20
328.492
 30
0.000000
  70
    32
  0
VERTEX
  8
0
  5
9D07
 10
167.769
 20
328.493
 30
0.000000
  70
    32
  0
VERTEX
  8
0
  5
9D08
 10
167.771
 20
328.494
 30
0.000000
  70
    32
  0
VERTEX
  8
0
  5
9D09
 10
167.773
 20
328.495
 30
0.000000
  70
    32
  0
VERTEX
  8
0
  5
9D0A
 10
167.776
 20
328.496
 30
0.000000
  70
    32
  0
VERTEX
  8
0
  5
9D0B
 10
167.778
 20
328.497
 30
0.000000
  70
    32
  0
VERTEX
  8
0
  5
9D0C
 10
167.780
 20
328.498
 30
0.000000
  70
    32
  0
VERTEX
  8
0
  5
9D0D
 10
167.782
 20
328.499
 30
0.000000
  70
    32
  0
VERTEX
  8
0
  5
9D0E
 10
167.784
 20
328.500
 30
0.000000
  70
    32
  0
VERTEX
  8
0
  5
9D0F
 10
167.787
 20
328.501
 30
0.000000
  70
    32
  0
VERTEX
  8
0
  5
9D10
 10
167.789
 20
328.502
 30
0.000000
  70
    32
  0
VERTEX
  8
0
  5
9D11
 10
167.791
 20
328.503
 30
0.000000
  70
    32
  0
VERTEX
  8
0
  5
9D12
 10
167.793
 20
328.504
 30
0.000000
  70
    32
  0
VERTEX
  8
0
  5
9D13
 10
167.795
 20
328.505
 30
0.000000
  70
    32
  0
VERTEX
  8
0
  5
9D14
 10
167.797
 20
328.507
 30
0.000000
  70
    32
  0
VERTEX
  8
0
  5
9D15
 10
167.800
 20
328.508
 30
0.000000
  70
    32
  0
VERTEX
  8
0
  5
9D16
 10
167.802
 20
328.509
 30
0.000000
  70
    32
  0
VERTEX
  8
0
  5
9D17
 10
167.804
 20
328.510
 30
0.000000
  70
    32
  0
VERTEX
  8
0
  5
9D18
 10
167.806
 20
328.511
 30
0.000000
  70
    32
  0
VERTEX
  8
0
  5
9D19
 10
167.808
 20
328.512
 30
0.000000
  70
    32
  0
VERTEX
  8
0
  5
9D1A
 10
167.810
 20
328.513
 30
0.000000
  70
    32
  0
VERTEX
  8
0
  5
9D1B
 10
167.813
 20
328.514
 30
0.000000
  70
    32
  0
VERTEX
  8
0
  5
9D1C
 10
167.815
 20
328.515
 30
0.000000
  70
    32
  0
VERTEX
  8
0
  5
9D1D
 10
167.817
 20
328.516
 30
0.000000
  70
    32
  0
VERTEX
  8
0
  5
9D1E
 10
167.819
 20
328.517
 30
0.000000
  70
    32
  0
VERTEX
  8
0
  5
9D1F
 10
167.821
 20
328.518
 30
0.000000
  70
    32
  0
VERTEX
  8
0
  5
9D20
 10
167.823
 20
328.519
 30
0.000000
  70
    32
  0
VERTEX
  8
0
  5
9D21
 10
167.826
 20
328.520
 30
0.000000
  70
    32
  0
VERTEX
  8
0
  5
9D22
 10
167.828
 20
328.522
 30
0.000000
  70
    32
  0
VERTEX
  8
0
  5
9D23
 10
167.830
 20
328.523
 30
0.000000
  70
    32
  0
VERTEX
  8
0
  5
9D24
 10
167.832
 20
328.524
 30
0.000000
  70
    32
  0
VERTEX
  8
0
  5
9D25
 10
167.834
 20
328.525
 30
0.000000
  70
    32
  0
VERTEX
  8
0
  5
9D26
 10
167.836
 20
328.526
 30
0.000000
  70
    32
  0
VERTEX
  8
0
  5
9D27
 10
167.838
 20
328.527
 30
0.000000
  70
    32
  0
VERTEX
  8
0
  5
9D28
 10
167.841
 20
328.528
 30
0.000000
  70
    32
  0
VERTEX
  8
0
  5
9D29
 10
167.843
 20
328.529
 30
0.000000
  70
    32
  0
VERTEX
  8
0
  5
9D2A
 10
167.845
 20
328.530
 30
0.000000
  70
    32
  0
VERTEX
  8
0
  5
9D2B
 10
167.847
 20
328.531
 30
0.000000
  70
    32
  0
VERTEX
  8
0
  5
9D2C
 10
167.849
 20
328.532
 30
0.000000
  70
    32
  0
VERTEX
  8
0
  5
9D2D
 10
167.851
 20
328.533
 30
0.000000
  70
    32
  0
VERTEX
  8
0
  5
9D2E
 10
167.853
 20
328.534
 30
0.000000
  70
    32
  0
VERTEX
  8
0
  5
9D2F
 10
167.856
 20
328.535
 30
0.000000
  70
    32
  0
VERTEX
  8
0
  5
9D30
 10
167.858
 20
328.537
 30
0.000000
  70
    32
  0
VERTEX
  8
0
  5
9D31
 10
167.860
 20
328.538
 30
0.000000
  70
    32
  0
VERTEX
  8
0
  5
9D32
 10
167.862
 20
328.539
 30
0.000000
  70
    32
  0
VERTEX
  8
0
  5
9D33
 10
167.864
 20
328.540
 30
0.000000
  70
    32
  0
VERTEX
  8
0
  5
9D34
 10
167.866
 20
328.541
 30
0.000000
  70
    32
  0
VERTEX
  8
0
  5
9D35
 10
167.868
 20
328.542
 30
0.000000
  70
    32
  0
VERTEX
  8
0
  5
9D36
 10
167.871
 20
328.543
 30
0.000000
  70
    32
  0
VERTEX
  8
0
  5
9D37
 10
167.873
 20
328.544
 30
0.000000
  70
    32
  0
VERTEX
  8
0
  5
9D38
 10
167.875
 20
328.545
 30
0.000000
  70
    32
  0
VERTEX
  8
0
  5
9D39
 10
167.877
 20
328.546
 30
0.000000
  70
    32
  0
VERTEX
  8
0
  5
9D3A
 10
167.879
 20
328.547
 30
0.000000
  70
    32
  0
VERTEX
  8
0
  5
9D3B
 10
167.881
 20
328.548
 30
0.000000
  70
    32
  0
VERTEX
  8
0
  5
9D3C
 10
167.883
 20
328.549
 30
0.000000
  70
    32
  0
VERTEX
  8
0
  5
9D3D
 10
167.885
 20
328.550
 30
0.000000
  70
    32
  0
VERTEX
  8
0
  5
9D3E
 10
167.888
 20
328.551
 30
0.000000
  70
    32
  0
VERTEX
  8
0
  5
9D3F
 10
167.890
 20
328.553
 30
0.000000
  70
    32
  0
VERTEX
  8
0
  5
9D40
 10
167.892
 20
328.554
 30
0.000000
  70
    32
  0
VERTEX
  8
0
  5
9D41
 10
167.894
 20
328.555
 30
0.000000
  70
    32
  0
SEQEND
  8
0
  5
9D42
  0
LINE
  5
63FF
  8
0
 10
169.0755200817006
 20
340.48485791923952
 30
0.0
 11
160.66222761410651
 21
340.48485791923952
 31
0.0
  0
LINE
  5
6401
  8
0
 10
92.693759897979206
 20
309.2370781922574
 30
0.0
 11
89.076468093576096
 21
309.2370781922574
 31
0.0
  0
LINE
  5
6408
  8
1
 10
100.4381266667267
 20
329.5594937720586
 30
0.0
 11
100.4381266667267
 21
189.82351437451791
 31
0.0
  0
LINE
  5
69C8
  8
0
 10
276.20568832494843
 20
434.97589530754749
 30
0.0
 11
276.20568832494843
 21
423.77589530754761
 31
0.0
  0
LINE
  5
69C9
  8
0
 10
275.20568817593681
 20
285.32351694496822
 30
0.0
 11
276.20568833984959
 21
284.3235149184103
 31
0.0
  0
LINE
  5
69CA
  8
0
 10
276.20568833984959
 20
284.3235149184103
 30
0.0
 11
276.20568833984959
 21
274.82351801785182
 31
0.0
  0
LINE
  5
69CB
  8
0
 10
275.40568969883549
 20
274.82351801785182
 30
0.0
 11
276.20568833984959
 21
274.02351937683773
 31
0.0
  0
LINE
  5
69CC
  8
0
 10
276.20568833984959
 20
274.02351937683773
 30
0.0
 11
276.20568833984959
 21
267.3235177198286
 31
0.0
  0
LINE
  5
69CD
  8
0
 10
276.20568833984959
 20
267.3235177198286
 30
0.0
 11
276.20568833984959
 21
215.62351520600271
 31
0.0
  0
LINE
  5
69CE
  8
0
 10
270.2056892190181
 20
214.8235147023434
 30
0.0
 11
270.2056892190181
 21
214.32351473680239
 31
0.0
  0
LINE
  5
69CF
  8
0
 10
275.40568969883549
 20
212.8235135996575
 30
0.0
 11
276.20568833984959
 21
212.02351497680419
 31
0.0
  0
LINE
  5
69D0
  8
0
 10
276.20568833984959
 20
212.02351497680419
 30
0.0
 11
276.20568833985288
 21
209.0235168476481
 31
0.0
  0
LINE
  5
69D1
  8
0
 10
242.20568788909
 20
214.8235147023434
 30
0.0
 11
242.20568788909
 21
214.32351342673161
 31
0.0
  0
LINE
  5
69D2
  8
0
 10
237.00568787493339
 20
212.8235135996575
 30
0.0
 11
236.20568923391929
 21
212.02351497680419
 31
0.0
  0
LINE
  5
69D3
  8
0
 10
236.20568923391929
 20
212.02351497680419
 30
0.0
 11
236.20568923391929
 21
209.02351454327351
 31
0.0
  0
LINE
  5
69D4
  8
0
 10
236.2056892339194
 20
245.8235151270265
 30
0.0
 11
236.2056892339194
 21
215.62351520600271
 31
0.0
  0
LINE
  5
69D8
  8
0
 10
202.0056858632766
 20
274.82351801785182
 30
0.0
 11
201.2056872222625
 21
274.02351937683773
 31
0.0
  0
LINE
  5
69D9
  8
0
 10
201.2056872222625
 20
274.02351937683773
 30
0.0
 11
201.2056872222625
 21
253.62351677807521
 31
0.0
  0
LINE
  5
69DA
  8
0
 10
237.20568939783209
 20
285.32351694496822
 30
0.0
 11
236.20568923391929
 21
284.3235149184103
 31
0.0
  0
LINE
  5
69DB
  8
0
 10
236.20568923391929
 20
284.3235149184103
 30
0.0
 11
236.20568923391929
 21
274.82351801785182
 31
0.0
  0
LINE
  5
69DC
  8
0
 10
246.705688626697
 20
287.82351456078243
 30
0.0
 11
246.7056890923582
 21
285.32351694496822
 31
0.0
  0
LINE
  5
69DD
  8
0
 10
265.70568755008799
 20
287.82351456078243
 30
0.0
 11
265.70568755008799
 21
285.32351694496822
 31
0.0
  0
LINE
  5
69DE
  8
0
 10
242.6986173700594
 20
304.82351920994472
 30
0.0
 11
242.6986173700594
 21
287.82351456078243
 31
0.0
  0
LINE
  5
69DF
  8
0
 10
269.69861760475271
 20
304.82351920994472
 30
0.0
 11
269.69861760475271
 21
287.82351456078243
 31
0.0
  0
LINE
  5
69E0
  8
0
 10
207.7056854937278
 20
284.8942293921346
 30
0.0
 11
207.7056854937278
 21
281.6895409623022
 31
0.0
  0
LINE
  5
69E1
  8
0
 10
207.7056854937278
 20
281.6895409623022
 30
0.0
 11
206.20568617918121
 21
280.82351527603811
 31
0.0
  0
LINE
  5
69E2
  8
0
 10
214.70568850376239
 20
284.8942293921346
 30
0.0
 11
214.70568850376239
 21
281.6895409623022
 31
0.0
  0
LINE
  5
69E4
  8
0
 10
214.70568850376239
 20
281.6895409623022
 30
0.0
 11
216.205687818309
 21
280.82351527603811
 31
0.0
  0
LINE
  5
69EB
  8
0
 10
57.938126666726703
 20
209.0235143745179
 30
0.0
 11
57.938126219691867
 21
195.62351435430821
 31
0.0
  0
LINE
  5
69EC
  8
0
 10
57.938126219691867
 20
195.62351435430821
 30
0.0
 11
58.738124860705973
 21
194.82351437451791
 31
0.0
  0
LINE
  5
69ED
  8
0
 10
142.93812711376151
 20
209.02351446690511
 30
0.0
 11
142.93812711376151
 21
195.62351435430821
 31
0.0
  0
LINE
  5
69EE
  8
0
 10
142.93812711376151
 20
195.62351435430821
 30
0.0
 11
142.13812847274741
 21
194.82351437451791
 31
0.0
  0
LINE
  5
69F3
  8
0
 10
105.43812655496809
 20
246.82351610305261
 30
0.0
 11
105.43812655496809
 21
236.323513450646
 31
0.0
  0
LINE
  5
69F5
  8
0
 10
113.93105548459491
 20
304.82351815941291
 30
0.0
 11
113.93105548459491
 21
287.82351351025062
 31
0.0
  0
LINE
  5
69F6
  8
0
 10
109.9381263612529
 20
287.82351351025062
 30
0.0
 11
109.9381263612529
 21
285.32351589443641
 31
0.0
  0
LINE
  5
69F7
  8
0
 10
86.931055715562934
 20
304.82351815941291
 30
0.0
 11
86.931055715562934
 21
287.82351351025062
 31
0.0
  0
LINE
  5
69FA
  8
0
 10
90.938126972200493
 20
287.82351351025062
 30
0.0
 11
90.938126972200493
 21
285.32351589443641
 31
0.0
  0
LINE
  5
8243
  8
3
 10
104.6261266667268
 20
236.32351345064589
 30
0.0
 11
104.62612666672671
 21
246.82351610305261
 31
0.0
  0
LINE
  5
824C
  8
3
 10
215.39368699874501
 20
236.3235145011777
 30
0.0
 11
215.3936869987449
 21
246.8235171535845
 31
0.0
  0
LINE
  5
824D
  8
0
 10
216.2056868869864
 20
246.8235171535845
 30
0.0
 11
216.2056868869864
 21
236.32351450117781
 31
0.0
  0
LINE
  5
824E
  8
3
 10
207.01768699874481
 20
236.32351450117781
 30
0.0
 11
207.01768699874481
 21
246.8235171535845
 31
0.0
  0
LINE
  5
824F
  8
0
 10
206.20568711050379
 20
246.8235171535845
 30
0.0
 11
206.20568711050379
 21
236.32351450117781
 31
0.0
  0
POLYLINE
  5
8269
  8
0
 66
     1
 10
0.0
 20
0.0
 30
0.0
  0
VERTEX
  5
9887
  8
0
 10
125.7876784785408
 20
332.8768167519803
 30
0.0
  0
VERTEX
  5
9888
  8
0
 10
123.7061297028694
 20
332.04853493920427
 30
0.0
  0
VERTEX
  5
9889
  8
0
 10
121.3863764151956
 20
331.0770868816407
 30
0.0
  0
VERTEX
  5
988A
  8
0
 10
117.1543945099083
 20
329.25954075843111
 30
0.0
  0
VERTEX
  5
988B
  8
0
 10
112.8910655636864
 20
327.5046683239259
 30
0.0
  0
VERTEX
  5
988C
  8
0
 10
107.78152854637619
 20
325.47326456234919
 30
0.0
  0
VERTEX
  5
988D
  8
0
 10
101.2365731418047
 20
322.9494024519156
 30
0.0
  0
SEQEND
  5
988E
  8
0
  0
POLYLINE
  5
826B
  8
0
 66
     1
 10
0.0
 20
0.0
 30
0.0
  0
VERTEX
  5
988F
  8
0
 10
86.693721195938224
 20
314.63305688145113
 30
0.0
  0
VERTEX
  5
9890
  8
0
 10
86.750565366241517
 20
314.35472629264518
 30
0.0
  0
VERTEX
  5
9891
  8
0
 10
86.793202246731184
 20
314.17997385678751
 30
0.0
  0
VERTEX
  5
9892
  8
0
 10
86.861423007235075
 20
314.0009584649431
 30
0.0
  0
VERTEX
  5
9893
  8
0
 10
86.938229388548265
 20
313.752829850144
 30
0.0
  0
VERTEX
  5
9894
  8
0
 10
87.057004806855275
 20
313.50744777644542
 30
0.0
  0
VERTEX
  5
9895
  8
0
 10
87.130909900850824
 20
313.35177471581733
 30
0.0
  0
VERTEX
  5
9896
  8
0
 10
87.380775333596603
 20
312.84612094294062
 30
0.0
  0
VERTEX
  5
9897
  8
0
 10
87.555993380723294
 20
312.53680237296822
 30
0.0
  0
VERTEX
  5
9898
  8
0
 10
87.861683960761624
 20
312.00207265189971
 30
0.0
  0
VERTEX
  5
9899
  8
0
 10
88.077574771605214
 20
311.64940030322742
 30
0.0
  0
VERTEX
  5
989A
  8
0
 10
88.293465582448775
 20
311.291462334588
 30
0.0
  0
VERTEX
  5
989B
  8
0
 10
88.610299295437471
 20
310.71254219212369
 30
0.0
  0
VERTEX
  5
989C
  8
0
 10
88.835603415094965
 20
310.23706376823162
 30
0.0
  0
VERTEX
  5
989D
  8
0
 10
89.002496409858395
 20
309.81163618636901
 30
0.0
  0
VERTEX
  5
989E
  8
0
 10
89.076468093576096
 20
309.2370781922574
 30
0.0
  0
SEQEND
  5
989F
  8
0
  0
POLYLINE
  5
826C
  8
0
 66
     1
 10
0.0
 20
0.0
 30
0.0
  0
VERTEX
  5
98A0
  8
0
 10
92.693759897979177
 20
309.2370781922574
 30
0.0
  0
VERTEX
  5
98A1
  8
0
 10
92.693759897979177
 20
309.2370781922574
 30
0.0
  0
VERTEX
  5
98A2
  8
0
 10
92.730773233441596
 20
309.55498165959699
 30
0.0
  0
VERTEX
  5
98A3
  8
0
 10
92.825731819934404
 20
309.82825008015431
 30
0.0
  0
VERTEX
  5
98A4
  8
0
 10
92.955374475190638
 20
310.0632303320852
 30
0.0
  0
VERTEX
  5
98A5
  8
0
 10
93.112343972502003
 20
310.32998339764799
 30
0.0
  0
VERTEX
  5
98A6
  8
0
 10
93.471667859376339
 20
310.76646904289311
 30
0.0
  0
VERTEX
  5
98A7
  8
0
 10
93.884968828263027
 20
311.18622052696543
 30
0.0
  0
VERTEX
  5
98A8
  8
0
 10
94.577861929234118
 20
311.74841565903631
 30
0.0
  0
VERTEX
  5
98A9
  8
0
 10
94.762850198256274
 20
311.91328786755679
 30
0.0
  0
VERTEX
  5
98AA
  8
0
 10
95.244700375267712
 20
312.2521595335088
 30
0.0
  0
VERTEX
  5
98AB
  8
0
 10
95.702339583320281
 20
312.57408787761392
 30
0.0
  0
VERTEX
  5
98AC
  8
0
 10
96.740293185816881
 20
313.20017244480692
 30
0.0
  0
VERTEX
  5
98AD
  8
0
 10
97.727541044605005
 20
313.72229369899702
 30
0.0
  0
VERTEX
  5
98AE
  8
0
 10
98.734202347436621
 20
314.16166706879721
 30
0.0
  0
VERTEX
  5
98AF
  8
0
 10
98.927456548250575
 20
314.24752752546669
 30
0.0
  0
VERTEX
  5
98B0
  8
0
 10
100.4359113676323
 20
314.76269026548448
 30
0.0
  0
VERTEX
  5
98B1
  8
0
 10
103.05458264540221
 20
315.64659804471529
 30
0.0
  0
VERTEX
  5
98B2
  8
0
 10
105.2503535251535
 20
316.48678862857582
 30
0.0
  0
VERTEX
  5
98B3
  8
0
 10
108.3393420891407
 20
317.88307077458938
 30
0.0
  0
VERTEX
  5
98B4
  8
0
 10
110.8282677980669
 20
319.21876168785889
 30
0.0
  0
VERTEX
  5
98B5
  8
0
 10
112.5836145044004
 20
320.39731149401968
 30
0.0
  0
VERTEX
  5
98B6
  8
0
 10
113.4219880049054
 20
321.15682226965419
 30
0.0
  0
VERTEX
  5
98B7
  8
0
 10
113.658702526561
 20
321.43955628657341
 30
0.0
  0
VERTEX
  5
98B8
  8
0
 10
113.7990677701637
 20
321.61944384836761
 30
0.0
  0
VERTEX
  5
98B9
  8
0
 10
114.0298744822958
 20
322.03005501098693
 30
0.0
  0
VERTEX
  5
98BA
  8
0
 10
114.1769926308414
 20
322.42478466274679
 30
0.0
  0
VERTEX
  5
98BB
  8
0
 10
115.7607387029702
 20
323.6158171188149
 30
0.0
  0
VERTEX
  5
98BC
  8
0
 10
117.2904856867876
 20
324.70106427007522
 30
0.0
  0
VERTEX
  5
98BD
  8
0
 10
119.0916420776279
 20
325.71231691115167
 30
0.0
  0
VERTEX
  5
98BE
  8
0
 10
120.7200853818631
 20
326.64957504204449
 30
0.0
  0
VERTEX
  5
98BF
  8
0
 10
122.4718936124945
 20
327.46351073230312
 30
0.0
  0
VERTEX
  5
98C0
  8
0
 10
124.1990288578467
 20
328.30211038778702
 30
0.0
  0
VERTEX
  5
98C1
  8
0
 10
125.950839278129
 20
329.04205156786202
 30
0.0
  0
VERTEX
  5
98C2
  8
0
 10
127.9987277114119
 20
329.85598725812059
 30
0.0
  0
VERTEX
  5
98C3
  8
0
 10
130.2933525664393
 20
330.66992294837951
 30
0.0
  0
VERTEX
  5
98C4
  8
0
 10
133.9805208857951
 20
331.85504824322879
 30
0.0
  0
VERTEX
  5
98C5
  8
0
 10
137.26739095633789
 20
332.87681662184463
 30
0.0
  0
SEQEND
  5
98C6
  8
0
  0
POLYLINE
  5
826E
  8
0
 66
     1
 10
0.0
 20
0.0
 30
0.0
  0
VERTEX
  5
98C7
  8
0
 10
137.26738963860461
 20
318.55702436211061
 30
0.0
  0
VERTEX
  5
98C8
  8
0
 10
134.04898907684029
 20
316.95423266807848
 30
0.0
  0
VERTEX
  5
98C9
  8
0
 10
131.78945775527649
 20
315.8248630726419
 30
0.0
  0
VERTEX
  5
98CA
  8
0
 10
129.1388504205047
 20
314.47830756961321
 30
0.0
  0
VERTEX
  5
98CB
  8
0
 10
126.86178875459061
 20
313.17409403052397
 30
0.0
  0
VERTEX
  5
98CC
  8
0
 10
124.6291835689853
 20
311.74895424777168
 30
0.0
  0
VERTEX
  5
98CD
  8
0
 10
122.0594071937075
 20
309.99343472243157
 30
0.0
  0
VERTEX
  5
98CE
  8
0
 10
119.39897489577061
 20
307.87181211864117
 30
0.0
  0
VERTEX
  5
98CF
  8
0
 10
116.1806968285461
 20
304.82351815941291
 30
0.0
  0
SEQEND
  5
98D0
  8
0
  0
POLYLINE
  5
826F
  8
0
 66
     1
 10
0.0
 20
0.0
 30
0.0
  0
VERTEX
  5
98D1
  8
0
 10
167.61326913374839
 20
340.25266802551698
 30
0.0
  0
VERTEX
  5
98D2
  8
0
 10
169.0755200817006
 20
340.48485791923952
 30
0.0
  0
VERTEX
  5
98D3
  8
0
 10
169.0755200817006
 20
340.48485791923952
 30
0.0
  0
SEQEND
  5
98D4
  8
0
  0
POLYLINE
  5
8270
  8
0
 66
     1
 10
0.0
 20
0.0
 30
0.0
  0
VERTEX
  5
98D5
  8
0
 10
169.07552008170069
 20
340.48485791923969
 30
0.0
  0
VERTEX
  5
98D6
  8
0
 10
169.26876247848071
 20
340.4712431140893
 30
0.0
  0
VERTEX
  5
98D7
  8
0
 10
169.41902288572371
 20
340.40878250782163
 30
0.0
  0
VERTEX
  5
98D8
  8
0
 10
169.47781938915981
 20
340.25917379948493
 30
0.0
  0
VERTEX
  5
98D9
  8
0
 10
169.51707874077729
 20
340.03402328731971
 30
0.0
  0
VERTEX
  5
98DA
  8
0
 10
169.51707874077729
 20
331.55313170196962
 30
0.0
  0
VERTEX
  5
98DB
  8
0
 10
169.5284528743918
 20
330.8618644698758
 30
0.0
  0
VERTEX
  5
98DC
  8
0
 10
169.3381087194989
 20
330.18724547553961
 30
0.0
  0
VERTEX
  5
98DD
  8
0
 10
169.07854970263631
 20
329.58181813941093
 30
0.0
  0
VERTEX
  5
98DE
  8
0
 10
168.66325396186539
 20
329.11477411969707
 30
0.0
  0
VERTEX
  5
98DF
  8
0
 10
168.265260841762
 20
328.82070859187479
 30
0.0
  0
VERTEX
  5
98E0
  8
0
 10
167.89390270251221
 20
328.5547051453824
 30
0.0
  0
SEQEND
  5
98E1
  8
0
  0
POLYLINE
  5
8271
  8
0
 66
     1
 10
0.0
 20
0.0
 30
0.0
  0
VERTEX
  5
98E2
  8
0
 10
158.4208827240235
 20
340.25267269275082
 30
0.0
  0
VERTEX
  5
98E3
  8
0
 10
160.8270717098134
 20
340.47240799906211
 30
0.0
  0
VERTEX
  5
98E4
  8
0
 10
169.1653517319578
 20
340.4974941039319
 30
0.0
  0
SEQEND
  5
98E5
  8
0
  0
LINE
  5
8273
  8
0
 10
93.338126620533089
 20
320.82351351025062
 30
0.0
 11
93.338126620533089
 21
315.95945796634919
 31
0.0
  0
POLYLINE
  5
8276
  8
0
 66
     1
 10
0.0
 20
0.0
 30
0.0
  0
VERTEX
  5
98E6
  8
0
 10
93.338126620533089
 20
320.13910154657168
 30
0.0
  0
VERTEX
  5
98E7
  8
0
 10
93.049724338759461
 20
320.0127055394475
 30
0.0
  0
VERTEX
  5
98E8
  8
0
 10
90.649610866514408
 20
318.82222834585258
 30
0.0
  0
VERTEX
  5
98E9
  8
0
 10
89.788502221693079
 20
318.29109226661399
 30
0.0
  0
VERTEX
  5
98EA
  8
0
 10
88.689212120825914
 20
317.5768059504569
 30
0.0
  0
VERTEX
  5
98EB
  8
0
 10
87.644888824135251
 20
316.587793625296
 30
0.0
  0
VERTEX
  5
98EC
  8
0
 10
86.930351024949218
 20
315.7086717037364
 30
0.0
  0
VERTEX
  5
98ED
  8
0
 10
86.811702606388963
 20
315.35791186797701
 30
0.0
  0
VERTEX
  5
98EE
  8
0
 10
86.693721195938224
 20
314.63305688145113
 30
0.0
  0
VERTEX
  5
98EF
  8
0
 10
86.688126741232495
 20
304.82351815941291
 30
0.0
  0
SEQEND
  5
98F0
  8
0
  0
POLYLINE
  5
8279
  8
0
 66
     1
 10
0.0
 20
0.0
 30
0.0
  0
VERTEX
  5
98F1
  8
0
 10
281.55524059869867
 20
332.87681780251222
 30
0.0
  0
VERTEX
  5
98F2
  8
0
 10
277.96894053302913
 20
331.42893985759309
 30
0.0
  0
VERTEX
  5
98F3
  8
0
 10
275.38316875861568
 20
330.2359265908263
 30
0.0
  0
VERTEX
  5
98F4
  8
0
 10
273.04602964354399
 20
329.29145764569807
 30
0.0
  0
VERTEX
  5
98F5
  8
0
 10
269.33693416101909
 20
327.77177070203521
 30
0.0
  0
VERTEX
  5
98F6
  8
0
 10
265.39676263931278
 20
326.19625485272383
 30
0.0
  0
VERTEX
  5
98F7
  8
0
 10
261.57577819026483
 20
324.64342640026831
 30
0.0
  0
VERTEX
  5
98F8
  8
0
 10
258.64883035485491
 20
323.619353517131
 30
0.0
  0
VERTEX
  5
98F9
  8
0
 10
256.06335856260188
 20
322.49775031897002
 30
0.0
  0
VERTEX
  5
98FA
  8
0
 10
252.23114777387261
 20
321.39814036567827
 30
0.0
  0
VERTEX
  5
98FB
  8
0
 10
249.87563310923949
 20
320.42639033239152
 30
0.0
  0
VERTEX
  5
98FC
  8
0
 10
246.9563862757131
 20
319.18255755811811
 30
0.0
  0
VERTEX
  5
98FD
  8
0
 10
245.00177258745359
 20
317.91301109348711
 30
0.0
  0
VERTEX
  5
98FE
  8
0
 10
243.61902562082969
 20
316.84973365652041
 30
0.0
  0
VERTEX
  5
98FF
  8
0
 10
242.66174094366761
 20
315.68012808368059
 30
0.0
  0
VERTEX
  5
9900
  8
0
 10
242.44900979893649
 20
314.51052251084047
 30
0.0
  0
VERTEX
  5
9901
  8
0
 10
242.44900979893649
 20
304.82351920994472
 30
0.0
  0
SEQEND
  5
9902
  8
0
  0
POLYLINE
  5
827A
  8
0
 66
     1
 10
0.0
 20
0.0
 30
0.0
  0
VERTEX
  5
9903
  8
0
 10
259.54085923471081
 20
304.82351920994472
 30
0.0
  0
VERTEX
  5
9904
  8
0
 10
262.03620044449139
 20
306.31714724968879
 30
0.0
  0
VERTEX
  5
9905
  8
0
 10
266.01798409011008
 20
308.77924159858708
 30
0.0
  0
VERTEX
  5
9906
  8
0
 10
272.50377575940502
 20
312.71859203392268
 30
0.0
  0
VERTEX
  5
9907
  8
0
 10
278.1685819452436
 20
316.45276892062412
 30
0.0
  0
VERTEX
  5
9908
  8
0
 10
279.72960371151879
 20
317.5033829860356
 30
0.0
  0
VERTEX
  5
9909
  8
0
 10
281.55524059869867
 20
318.55702541264247
 30
0.0
  0
SEQEND
  5
990A
  8
0
  0
LINE
  5
827B
  8
0
 10
271.94825894870388
 20
304.82351920994472
 30
0.0
 11
274.17648942363121
 21
306.99550368381819
 31
0.0
  0
LINE
  5
827C
  8
0
 10
274.17648942363121
 20
306.99550368381819
 30
0.0
 11
276.6615394506311
 21
308.98284774942073
 31
0.0
  0
LINE
  5
827D
  8
0
 10
276.6615394506311
 20
308.98284774942073
 30
0.0
 11
278.69476379246822
 21
310.65402192572361
 31
0.0
  0
LINE
  5
827E
  8
0
 10
278.69476379246822
 20
310.65402192572361
 30
0.0
 11
281.40572885170059
 21
312.32519740928052
 31
0.0
  0
LINE
  5
827F
  8
0
 10
281.40572885170059
 20
312.32519740928052
 30
0.0
 11
285.20952892122477
 21
314.78011623980711
 31
0.0
  0
LINE
  5
8280
  8
0
 10
285.20952892122477
 20
314.78011623980711
 30
0.0
 11
290.28086529057782
 21
317.18940928381261
 31
0.0
  0
LINE
  5
8281
  8
0
 10
290.28086529057782
 20
317.18940928381261
 30
0.0
 11
293.03494989611733
 21
318.55702541264247
 31
0.0
  0
LINE
  5
8282
  8
0
 10
314.18844833709818
 20
340.25266162546831
 30
0.0
 11
316.76368936636078
 21
340.49748770388322
 31
0.0
  0
LINE
  5
8283
  8
0
 10
316.76368936636078
 20
340.49748770388322
 30
0.0
 11
324.94762705367111
 21
340.4833132679039
 31
0.0
  0
LINE
  5
8284
  8
0
 10
324.94762705367111
 20
340.4833132679039
 30
0.0
 11
325.22718196169171
 21
340.36535187679488
 31
0.0
  0
LINE
  5
8286
  8
0
 10
325.28846371879217
 20
340.13444110722708
 30
0.0
 11
325.19672829828551
 21
339.46104308832543
 31
0.0
  0
LINE
  5
8287
  8
0
 10
325.19672829828551
 20
339.46104308832543
 30
0.0
 11
324.96073868269559
 21
339.00233150696113
 31
0.0
  0
LINE
  5
8288
  8
0
 10
324.96073868269559
 20
339.00233150696113
 30
0.0
 11
323.99055039333552
 21
337.49513799180608
 31
0.0
  0
LINE
  5
8289
  8
0
 10
323.99055039333552
 20
337.49513799180608
 30
0.0
 11
323.84961351922311
 21
337.28923630257549
 31
0.0
  0
LINE
  5
828A
  8
0
 10
323.84961351922311
 20
337.28923630257549
 30
0.0
 11
323.75415569234661
 21
337.03309552670891
 31
0.0
  0
LINE
  5
828B
  8
0
 10
323.75415569234661
 20
337.03309552670891
 30
0.0
 11
323.76922705884272
 21
336.73677498537018
 31
0.0
  0
LINE
  5
828C
  8
0
 10
323.76922705884272
 20
336.73677498537018
 30
0.0
 11
323.92054793128938
 21
336.47724677395331
 31
0.0
  0
LINE
  5
828D
  8
0
 10
325.28464272358048
 20
339.8828797694099
 30
0.0
 11
325.28464272358048
 21
331.53294167908382
 31
0.0
  0
LINE
  5
828E
  8
0
 10
325.2211226829956
 20
340.36790865874929
 30
0.0
 11
325.27637903599538
 21
340.27456699350699
 31
0.0
  0
LINE
  5
828F
  8
0
 10
325.27637903599538
 20
340.27456699350699
 30
0.0
 11
325.28846371879217
 21
340.13444110722708
 31
0.0
  0
LINE
  5
8290
  8
0
 10
325.28846371879217
 20
340.13444110722708
 30
0.0
 11
325.28464272358048
 21
339.8828797694099
 31
0.0
  0
ARC
  5
829D
  8
1
 10
256.20554238525489
 20
429.44755169708509
 30
0.0
 40
32.000000000000007
 50
61.054101266897717
 51
118.9453015211227
  0
ARC
  5
829F
  8
0
 10
318.76938410182862
 20
366.81219953066699
 30
0.0
 40
6.5000334117698344
 50
225.19015823317031
 51
44.809841766819282
  0
ARC
  5
82A0
  8
0
 10
256.20568832494843
 20
429.37589530754741
 30
0.0
 40
13.73448452258202
 50
2.6373180260488911
 51
267.50840839765118
  0
LINE
  5
82A1
  8
0
 10
269.92529771182529
 20
430.00884255490308
 30
0.0
 11
269.96740907612138
 21
429.88372263972701
 31
0.0
  0
LINE
  5
82A2
  8
0
 10
269.96740907612138
 20
429.88372263972701
 30
0.0
 11
270.0573883966822
 21
429.70951663612999
 31
0.0
  0
LINE
  5
82A3
  8
0
 10
270.0573883966822
 20
429.70951663612999
 30
0.0
 11
270.41464963249751
 21
429.01338154471227
 31
0.0
  0
LINE
  5
82A4
  8
0
 10
270.41464963249751
 20
429.01338154471227
 30
0.0
 11
270.82168820007968
 21
428.21929650966848
 31
0.0
  0
LINE
  5
82A5
  8
0
 10
270.82168820007968
 20
428.21929650966848
 30
0.0
 11
272.00928691794297
 21
425.93786730743068
 31
0.0
  0
LINE
  5
82A6
  8
0
 10
272.00928691794297
 20
425.93786730743068
 30
0.0
 11
272.16202202385841
 21
425.66716182227498
 31
0.0
  0
LINE
  5
82A7
  8
0
 10
272.16202202385841
 20
425.66716182227498
 30
0.0
 11
274.67521688595792
 21
421.70279197616611
 31
0.0
  0
LINE
  5
82A8
  8
0
 10
274.67521688595792
 20
421.70279197616611
 30
0.0
 11
276.20568787791359
 21
419.63446699935872
 31
0.0
  0
LINE
  5
82A9
  8
0
 10
276.20568787791359
 20
419.63446699935872
 30
0.0
 11
278.72336377387319
 21
416.43766608044263
 31
0.0
  0
LINE
  5
82AA
  8
0
 10
278.72336377387319
 20
416.43766608044263
 30
0.0
 11
282.68878539644038
 21
412.29039085918629
 31
0.0
  0
LINE
  5
82AB
  8
0
 10
282.68878539644038
 20
412.29039085918629
 30
0.0
 11
285.97473742970669
 21
409.46954673678249
 31
0.0
  0
LINE
  5
82AC
  8
0
 10
285.97473742970669
 20
409.46954673678249
 30
0.0
 11
289.09455627703937
 21
407.1192043214844
 31
0.0
  0
LINE
  5
82AD
  8
0
 10
289.09455627703937
 20
407.1192043214844
 30
0.0
 11
291.35529409619681
 21
405.49204408725831
 31
0.0
  0
LINE
  5
82AE
  8
0
 10
291.35529409619681
 20
405.49204408725831
 30
0.0
 11
293.03495129682648
 21
404.02634349573287
 31
0.0
  0
LINE
  5
82AF
  8
0
 10
281.55524013676268
 20
392.54663233566919
 30
0.0
 11
280.63805317618483
 21
393.63548439849058
 31
0.0
  0
LINE
  5
82B0
  8
0
 10
280.63805317618483
 20
393.63548439849058
 30
0.0
 11
279.7208662156068
 21
394.72433646131202
 31
0.0
  0
LINE
  5
82B1
  8
0
 10
279.7208662156068
 20
394.72433646131202
 30
0.0
 11
278.55419915899301
 21
396.37789909259482
 31
0.0
  0
LINE
  5
82B2
  8
0
 10
278.55419915899301
 20
396.37789909259482
 30
0.0
 11
277.30125469213408
 21
398.1656450487788
 31
0.0
  0
LINE
  5
82B3
  8
0
 10
277.30125469213408
 20
398.1656450487788
 30
0.0
 11
276.51056740687642
 21
399.16047204067672
 31
0.0
  0
LINE
  5
82B4
  8
0
 10
276.51056740687642
 20
399.16047204067672
 30
0.0
 11
275.22910711757407
 21
400.7140364772535
 31
0.0
  0
LINE
  5
82B5
  8
0
 10
275.22910711757407
 20
400.7140364772535
 30
0.0
 11
273.84368439766558
 21
402.25365643314711
 31
0.0
  0
LINE
  5
82B6
  8
0
 10
273.84368439766558
 20
402.25365643314711
 30
0.0
 11
272.0759070437079
 21
404.1567492720153
 31
0.0
  0
LINE
  5
82B7
  8
0
 10
272.0759070437079
 20
404.1567492720153
 30
0.0
 11
270.3931166064736
 21
405.7709807620808
 31
0.0
  0
LINE
  5
82B8
  8
0
 10
270.3931166064736
 20
405.7709807620808
 30
0.0
 11
268.23438585975282
 21
407.65708321795063
 31
0.0
  0
LINE
  5
82B9
  8
0
 10
268.23438585975282
 20
407.65708321795063
 30
0.0
 11
263.53642655614522
 21
411.15725898612612
 31
0.0
  0
LINE
  5
82BA
  8
0
 10
263.53642655614522
 20
411.15725898612612
 30
0.0
 11
260.9976643948803
 21
412.78874753904933
 31
0.0
  0
LINE
  5
82BB
  8
0
 10
260.9976643948803
 20
412.78874753904933
 30
0.0
 11
255.60702657608039
 21
415.65523836404122
 31
0.0
  0
ARC
  5
840C
  8
0
 10
256.20568832494843
 20
429.49997608280239
 30
0.0
 40
18.999999389052391
 50
339.33408053511971
 51
290.14759029446498
  0
LINE
  5
8414
  8
0
 10
256.20568832494843
 20
429.35412698243942
 30
0.0
 11
256.20568832494843
 21
429.35412698243942
 31
0.0
  0
LINE
  5
85AA
  8
0
 10
253.9959796337404
 20
432.51842982824928
 30
0.0
 11
253.0413854791386
 21
431.56383567364742
 31
0.0
  0
LINE
  5
85AB
  8
0
 10
259.36999117075823
 20
427.14441829123149
 30
0.0
 11
258.41539701615642
 21
426.18982413662968
 31
0.0
  0
LINE
  5
85AC
  8
0
 10
257.95374249723068
 20
428.56066696475898
 30
0.0
 11
259.36999117075823
 21
427.14441829123149
 31
0.0
  0
LINE
  5
85AD
  8
0
 10
256.99914834262893
 20
427.60607281015712
 30
0.0
 11
258.41539701615642
 21
426.18982413662968
 31
0.0
  0
LINE
  5
85AE
  8
0
 10
253.9959796337404
 20
432.51842982824928
 30
0.0
 11
255.4122283072679
 21
431.10218115472179
 31
0.0
  0
LINE
  5
85AF
  8
0
 10
253.0413854791386
 20
431.56383567364742
 30
0.0
 11
254.45763415266609
 21
430.14758700011993
 31
0.0
  0
CIRCLE
  5
85B0
  8
0
 10
256.20568832494848
 20
429.35412698243942
 30
0.0
 40
3.999175415007485
  0
ARC
  5
85B8
  8
0
 10
258.841985542891
 20
428.64773327188328
 30
0.0
 40
0.8925000000000011
 50
118.3417582272229
 51
185.59829508169
  0
ARC
  5
85B9
  8
0
 10
256.91208203550462
 20
426.7178297644968
 30
0.0
 40
0.8925000000000002
 50
84.401704918322196
 51
151.65824177277699
  0
ARC
  5
85BA
  8
0
 10
255.6776974729392
 20
427.38363829680969
 30
0.0
 40
0.5099999999999997
 50
178.34175822722111
 51
331.65824177277699
  0
ARC
  5
85BB
  8
0
 10
254.27578481756211
 20
427.42422347505288
 30
0.0
 40
0.8925000000000002
 50
358.34175822722119
 51
91.658241772775398
  0
ARC
  5
85BC
  8
0
 10
254.23519963931881
 20
428.8261361304302
 30
0.0
 40
0.5100000000000002
 50
118.3417582272229
 51
271.65824177277892
  0
ARC
  5
85BD
  8
0
 10
253.569391107006
 20
430.0605206929954
 30
0.0
 40
0.8925000000000011
 50
298.34175822722301
 51
5.5982950816777848
  0
ARC
  5
85BE
  8
0
 10
258.17617701057821
 20
429.88211783444848
 30
0.0
 40
0.5100000000000003
 50
298.34175822722301
 51
91.658241772778851
  0
ARC
  5
85BF
  8
0
 10
258.13559183233491
 20
431.2840304898258
 30
0.0
 40
0.8924999999999984
 50
178.34175822722111
 51
271.65824177277892
  0
ARC
  5
85C0
  8
0
 10
256.73367917695771
 20
431.3246156680691
 30
0.0
 40
0.5099999999999997
 50
358.34175822722119
 51
151.65824177277699
  0
ARC
  5
85C1
  8
0
 10
255.4992946143924
 20
431.99042420038182
 30
0.0
 40
0.8925000000000004
 50
264.40170491830997
 51
331.65824177277699
  0
LINE
  5
8764
  8
0
 10
93.338126620533089
 20
320.82351351025062
 30
0.0
 11
107.5381267129203
 21
320.82351351025062
 31
0.0
  0
POLYLINE
  5
8765
  8
0
 10
93.338126620533075
 20
317.93033432481667
 30
0.0
 66
     1
 70
     8
  0
VERTEX
  8
0
  5
9D43
 10
93.3381
 20
317.930
 30
0.000000
  70
    32
  0
VERTEX
  8
0
  5
9D44
 10
93.1925
 20
317.795
 30
0.000000
  70
    32
  0
VERTEX
  8
0
  5
9D45
 10
93.0615
 20
317.662
 30
0.000000
  70
    32
  0
VERTEX
  8
0
  5
9D46
 10
92.9454
 20
317.532
 30
0.000000
  70
    32
  0
VERTEX
  8
0
  5
9D47
 10
92.8444
 20
317.405
 30
0.000000
  70
    32
  0
VERTEX
  8
0
  5
9D48
 10
92.7587
 20
317.281
 30
0.000000
  70
    32
  0
VERTEX
  8
0
  5
9D49
 10
92.6885
 20
317.161
 30
0.000000
  70
    32
  0
VERTEX
  8
0
  5
9D4A
 10
92.6337
 20
317.044
 30
0.000000
  70
    32
  0
VERTEX
  8
0
  5
9D4B
 10
92.5947
 20
316.932
 30
0.000000
  70
    32
  0
VERTEX
  8
0
  5
9D4C
 10
92.5714
 20
316.823
 30
0.000000
  70
    32
  0
VERTEX
  8
0
  5
9D4D
 10
92.5638
 20
316.719
 30
0.000000
  70
    32
  0
VERTEX
  8
0
  5
9D4E
 10
92.5720
 20
316.620
 30
0.000000
  70
    32
  0
VERTEX
  8
0
  5
9D4F
 10
92.5960
 20
316.525
 30
0.000000
  70
    32
  0
VERTEX
  8
0
  5
9D50
 10
92.6358
 20
316.435
 30
0.000000
  70
    32
  0
VERTEX
  8
0
  5
9D51
 10
92.6912
 20
316.350
 30
0.000000
  70
    32
  0
VERTEX
  8
0
  5
9D52
 10
92.7621
 20
316.270
 30
0.000000
  70
    32
  0
VERTEX
  8
0
  5
9D53
 10
92.8485
 20
316.195
 30
0.000000
  70
    32
  0
VERTEX
  8
0
  5
9D54
 10
92.9501
 20
316.126
 30
0.000000
  70
    32
  0
VERTEX
  8
0
  5
9D55
 10
93.0669
 20
316.063
 30
0.000000
  70
    32
  0
VERTEX
  8
0
  5
9D56
 10
93.1985
 20
316.005
 30
0.000000
  70
    32
  0
VERTEX
  8
0
  5
9D57
 10
93.3447
 20
315.953
 30
0.000000
  70
    32
  0
VERTEX
  8
0
  5
9D58
 10
93.5054
 20
315.907
 30
0.000000
  70
    32
  0
VERTEX
  8
0
  5
9D59
 10
93.6801
 20
315.867
 30
0.000000
  70
    32
  0
VERTEX
  8
0
  5
9D5A
 10
93.8686
 20
315.833
 30
0.000000
  70
    32
  0
VERTEX
  8
0
  5
9D5B
 10
94.0706
 20
315.805
 30
0.000000
  70
    32
  0
VERTEX
  8
0
  5
9D5C
 10
94.2856
 20
315.783
 30
0.000000
  70
    32
  0
VERTEX
  8
0
  5
9D5D
 10
94.5134
 20
315.768
 30
0.000000
  70
    32
  0
VERTEX
  8
0
  5
9D5E
 10
94.7534
 20
315.758
 30
0.000000
  70
    32
  0
VERTEX
  8
0
  5
9D5F
 10
95.0053
 20
315.755
 30
0.000000
  70
    32
  0
VERTEX
  8
0
  5
9D60
 10
95.2685
 20
315.758
 30
0.000000
  70
    32
  0
VERTEX
  8
0
  5
9D61
 10
95.5427
 20
315.768
 30
0.000000
  70
    32
  0
VERTEX
  8
0
  5
9D62
 10
95.8274
 20
315.783
 30
0.000000
  70
    32
  0
VERTEX
  8
0
  5
9D63
 10
96.1219
 20
315.805
 30
0.000000
  70
    32
  0
VERTEX
  8
0
  5
9D64
 10
96.4259
 20
315.833
 30
0.000000
  70
    32
  0
VERTEX
  8
0
  5
9D65
 10
96.7387
 20
315.867
 30
0.000000
  70
    32
  0
VERTEX
  8
0
  5
9D66
 10
97.0598
 20
315.907
 30
0.000000
  70
    32
  0
VERTEX
  8
0
  5
9D67
 10
97.3886
 20
315.953
 30
0.000000
  70
    32
  0
VERTEX
  8
0
  5
9D68
 10
97.7245
 20
316.005
 30
0.000000
  70
    32
  0
VERTEX
  8
0
  5
9D69
 10
98.0669
 20
316.063
 30
0.000000
  70
    32
  0
VERTEX
  8
0
  5
9D6A
 10
98.4153
 20
316.126
 30
0.000000
  70
    32
  0
VERTEX
  8
0
  5
9D6B
 10
98.7689
 20
316.195
 30
0.000000
  70
    32
  0
VERTEX
  8
0
  5
9D6C
 10
99.1272
 20
316.270
 30
0.000000
  70
    32
  0
VERTEX
  8
0
  5
9D6D
 10
99.4894
 20
316.350
 30
0.000000
  70
    32
  0
VERTEX
  8
0
  5
9D6E
 10
99.8550
 20
316.435
 30
0.000000
  70
    32
  0
VERTEX
  8
0
  5
9D6F
 10
100.223
 20
316.525
 30
0.000000
  70
    32
  0
VERTEX
  8
0
  5
9D70
 10
100.594
 20
316.620
 30
0.000000
  70
    32
  0
VERTEX
  8
0
  5
9D71
 10
100.965
 20
316.719
 30
0.000000
  70
    32
  0
VERTEX
  8
0
  5
9D72
 10
101.338
 20
316.823
 30
0.000000
  70
    32
  0
VERTEX
  8
0
  5
9D73
 10
101.710
 20
316.932
 30
0.000000
  70
    32
  0
VERTEX
  8
0
  5
9D74
 10
102.082
 20
317.044
 30
0.000000
  70
    32
  0
VERTEX
  8
0
  5
9D75
 10
102.452
 20
317.161
 30
0.000000
  70
    32
  0
VERTEX
  8
0
  5
9D76
 10
102.821
 20
317.281
 30
0.000000
  70
    32
  0
VERTEX
  8
0
  5
9D77
 10
103.187
 20
317.405
 30
0.000000
  70
    32
  0
VERTEX
  8
0
  5
9D78
 10
103.549
 20
317.532
 30
0.000000
  70
    32
  0
VERTEX
  8
0
  5
9D79
 10
103.908
 20
317.662
 30
0.000000
  70
    32
  0
VERTEX
  8
0
  5
9D7A
 10
104.262
 20
317.795
 30
0.000000
  70
    32
  0
VERTEX
  8
0
  5
9D7B
 10
104.611
 20
317.930
 30
0.000000
  70
    32
  0
VERTEX
  8
0
  5
9D7C
 10
104.954
 20
318.068
 30
0.000000
  70
    32
  0
VERTEX
  8
0
  5
9D7D
 10
105.290
 20
318.208
 30
0.000000
  70
    32
  0
VERTEX
  8
0
  5
9D7E
 10
105.620
 20
318.350
 30
0.000000
  70
    32
  0
VERTEX
  8
0
  5
9D7F
 10
105.942
 20
318.493
 30
0.000000
  70
    32
  0
VERTEX
  8
0
  5
9D80
 10
106.255
 20
318.638
 30
0.000000
  70
    32
  0
VERTEX
  8
0
  5
9D81
 10
106.560
 20
318.784
 30
0.000000
  70
    32
  0
VERTEX
  8
0
  5
9D82
 10
106.855
 20
318.930
 30
0.000000
  70
    32
  0
VERTEX
  8
0
  5
9D83
 10
107.141
 20
319.077
 30
0.000000
  70
    32
  0
VERTEX
  8
0
  5
9D84
 10
107.416
 20
319.225
 30
0.000000
  70
    32
  0
VERTEX
  8
0
  5
9D85
 10
107.680
 20
319.372
 30
0.000000
  70
    32
  0
VERTEX
  8
0
  5
9D86
 10
107.933
 20
319.519
 30
0.000000
  70
    32
  0
VERTEX
  8
0
  5
9D87
 10
108.174
 20
319.666
 30
0.000000
  70
    32
  0
VERTEX
  8
0
  5
9D88
 10
108.403
 20
319.812
 30
0.000000
  70
    32
  0
VERTEX
  8
0
  5
9D89
 10
108.619
 20
319.957
 30
0.000000
  70
    32
  0
VERTEX
  8
0
  5
9D8A
 10
108.822
 20
320.100
 30
0.000000
  70
    32
  0
VERTEX
  8
0
  5
9D8B
 10
109.012
 20
320.242
 30
0.000000
  70
    32
  0
VERTEX
  8
0
  5
9D8C
 10
109.188
 20
320.382
 30
0.000000
  70
    32
  0
VERTEX
  8
0
  5
9D8D
 10
109.350
 20
320.520
 30
0.000000
  70
    32
  0
VERTEX
  8
0
  5
9D8E
 10
109.497
 20
320.656
 30
0.000000
  70
    32
  0
VERTEX
  8
0
  5
9D8F
 10
109.630
 20
320.790
 30
0.000000
  70
    32
  0
VERTEX
  8
0
  5
9D90
 10
109.748
 20
320.920
 30
0.000000
  70
    32
  0
VERTEX
  8
0
  5
9D91
 10
109.851
 20
321.047
 30
0.000000
  70
    32
  0
VERTEX
  8
0
  5
9D92
 10
109.939
 20
321.172
 30
0.000000
  70
    32
  0
VERTEX
  8
0
  5
9D93
 10
110.011
 20
321.292
 30
0.000000
  70
    32
  0
VERTEX
  8
0
  5
9D94
 10
110.068
 20
321.409
 30
0.000000
  70
    32
  0
VERTEX
  8
0
  5
9D95
 10
110.109
 20
321.522
 30
0.000000
  70
    32
  0
VERTEX
  8
0
  5
9D96
 10
110.134
 20
321.631
 30
0.000000
  70
    32
  0
VERTEX
  8
0
  5
9D97
 10
110.144
 20
321.736
 30
0.000000
  70
    32
  0
VERTEX
  8
0
  5
9D98
 10
110.137
 20
321.836
 30
0.000000
  70
    32
  0
VERTEX
  8
0
  5
9D99
 10
110.115
 20
321.932
 30
0.000000
  70
    32
  0
VERTEX
  8
0
  5
9D9A
 10
110.078
 20
322.022
 30
0.000000
  70
    32
  0
VERTEX
  8
0
  5
9D9B
 10
110.024
 20
322.108
 30
0.000000
  70
    32
  0
VERTEX
  8
0
  5
9D9C
 10
109.955
 20
322.189
 30
0.000000
  70
    32
  0
VERTEX
  8
0
  5
9D9D
 10
109.871
 20
322.264
 30
0.000000
  70
    32
  0
VERTEX
  8
0
  5
9D9E
 10
109.771
 20
322.334
 30
0.000000
  70
    32
  0
VERTEX
  8
0
  5
9D9F
 10
109.657
 20
322.398
 30
0.000000
  70
    32
  0
VERTEX
  8
0
  5
9DA0
 10
109.527
 20
322.456
 30
0.000000
  70
    32
  0
VERTEX
  8
0
  5
9DA1
 10
109.382
 20
322.509
 30
0.000000
  70
    32
  0
VERTEX
  8
0
  5
9DA2
 10
109.224
 20
322.556
 30
0.000000
  70
    32
  0
VERTEX
  8
0
  5
9DA3
 10
109.051
 20
322.597
 30
0.000000
  70
    32
  0
VERTEX
  8
0
  5
9DA4
 10
108.864
 20
322.632
 30
0.000000
  70
    32
  0
VERTEX
  8
0
  5
9DA5
 10
108.664
 20
322.660
 30
0.000000
  70
    32
  0
VERTEX
  8
0
  5
9DA6
 10
108.450
 20
322.683
 30
0.000000
  70
    32
  0
VERTEX
  8
0
  5
9DA7
 10
108.224
 20
322.699
 30
0.000000
  70
    32
  0
VERTEX
  8
0
  5
9DA8
 10
107.986
 20
322.709
 30
0.000000
  70
    32
  0
VERTEX
  8
0
  5
9DA9
 10
107.735
 20
322.713
 30
0.000000
  70
    32
  0
VERTEX
  8
0
  5
9DAA
 10
107.474
 20
322.711
 30
0.000000
  70
    32
  0
VERTEX
  8
0
  5
9DAB
 10
107.201
 20
322.703
 30
0.000000
  70
    32
  0
VERTEX
  8
0
  5
9DAC
 10
106.917
 20
322.688
 30
0.000000
  70
    32
  0
VERTEX
  8
0
  5
9DAD
 10
106.624
 20
322.667
 30
0.000000
  70
    32
  0
VERTEX
  8
0
  5
9DAE
 10
106.321
 20
322.640
 30
0.000000
  70
    32
  0
VERTEX
  8
0
  5
9DAF
 10
106.010
 20
322.606
 30
0.000000
  70
    32
  0
VERTEX
  8
0
  5
9DB0
 10
105.690
 20
322.567
 30
0.000000
  70
    32
  0
VERTEX
  8
0
  5
9DB1
 10
105.362
 20
322.522
 30
0.000000
  70
    32
  0
VERTEX
  8
0
  5
9DB2
 10
105.027
 20
322.470
 30
0.000000
  70
    32
  0
VERTEX
  8
0
  5
9DB3
 10
104.685
 20
322.413
 30
0.000000
  70
    32
  0
VERTEX
  8
0
  5
9DB4
 10
104.337
 20
322.351
 30
0.000000
  70
    32
  0
VERTEX
  8
0
  5
9DB5
 10
103.984
 20
322.282
 30
0.000000
  70
    32
  0
VERTEX
  8
0
  5
9DB6
 10
103.627
 20
322.209
 30
0.000000
  70
    32
  0
VERTEX
  8
0
  5
9DB7
 10
103.265
 20
322.129
 30
0.000000
  70
    32
  0
VERTEX
  8
0
  5
9DB8
 10
102.900
 20
322.045
 30
0.000000
  70
    32
  0
VERTEX
  8
0
  5
9DB9
 10
102.532
 20
321.956
 30
0.000000
  70
    32
  0
VERTEX
  8
0
  5
9DBA
 10
102.162
 20
321.861
 30
0.000000
  70
    32
  0
VERTEX
  8
0
  5
9DBB
 10
101.790
 20
321.762
 30
0.000000
  70
    32
  0
VERTEX
  8
0
  5
9DBC
 10
101.418
 20
321.659
 30
0.000000
  70
    32
  0
VERTEX
  8
0
  5
9DBD
 10
101.045
 20
321.551
 30
0.000000
  70
    32
  0
VERTEX
  8
0
  5
9DBE
 10
100.673
 20
321.439
 30
0.000000
  70
    32
  0
VERTEX
  8
0
  5
9DBF
 10
100.303
 20
321.323
 30
0.000000
  70
    32
  0
VERTEX
  8
0
  5
9DC0
 10
99.9340
 20
321.203
 30
0.000000
  70
    32
  0
VERTEX
  8
0
  5
9DC1
 10
99.5677
 20
321.080
 30
0.000000
  70
    32
  0
VERTEX
  8
0
  5
9DC2
 10
99.2047
 20
320.953
 30
0.000000
  70
    32
  0
VERTEX
  8
0
  5
9DC3
 10
98.8455
 20
320.824
 30
0.000000
  70
    32
  0
SEQEND
  8
0
  5
9DC4
  0
LINE
  5
8766
  8
0
 10
107.5381267129203
 20
320.82351351025062
 30
0.0
 11
107.5381267129203
 21
319.29219477861471
 31
0.0
  0
LINE
  5
8768
  8
0
 10
249.1056882787548
 20
320.8235137859221
 30
0.0
 11
249.1056882787548
 21
320.0983322170103
 31
0.0
  0
LINE
  5
8769
  8
0
 10
249.10568827875491
 20
320.8235137859221
 30
0.0
 11
250.83825732989109
 21
320.8235137859221
 31
0.0
  0
LINE
  5
876A
  8
0
 10
316.76368936636902
 20
340.49748770388322
 30
0.0
 11
318.21093862610093
 21
340.3080104780226
 31
0.0
  0
LINE
  5
876B
  8
0
 10
318.21093862610093
 20
340.3080104780226
 30
0.0
 11
319.06983791325911
 21
339.93792681049581
 31
0.0
  0
LINE
  5
876C
  8
0
 10
319.06983791325911
 20
339.93792681049581
 30
0.0
 11
319.81026614357228
 21
339.58264518241572
 31
0.0
  0
LINE
  5
876D
  8
0
 10
319.81026614357228
 20
339.58264518241572
 30
0.0
 11
320.43222769634212
 21
339.2569702477378
 31
0.0
  0
LINE
  5
876E
  8
0
 10
320.43222769634212
 20
339.2569702477378
 30
0.0
 11
321.09861288465851
 21
338.82767188615247
 31
0.0
  0
LINE
  5
876F
  8
0
 10
321.09861288465851
 20
338.82767188615247
 30
0.0
 11
322.06908582862388
 21
338.1113122648149
 31
0.0
  0
LINE
  5
8770
  8
0
 10
322.06908582862388
 20
338.1113122648149
 30
0.0
 11
322.76149501676667
 21
337.38453774916712
 31
0.0
  0
LINE
  5
8771
  8
0
 10
322.76149501676667
 20
337.38453774916712
 30
0.0
 11
322.88843783257931
 21
337.25763996826208
 31
0.0
  0
LINE
  5
8772
  8
0
 10
322.88843783257931
 20
337.25763996826208
 30
0.0
 11
323.015378458741
 21
336.96923746568791
 31
0.0
  0
LINE
  5
8773
  8
0
 10
323.015378458741
 20
336.96923746568791
 30
0.0
 11
322.92305840146901
 21
336.69237148153798
 31
0.0
  0
LINE
  5
8774
  8
0
 10
322.92305840146901
 20
336.69237148153798
 30
0.0
 11
322.78393730260962
 21
336.49746469649028
 31
0.0
  0
LINE
  5
8775
  8
0
 10
322.3694168005191
 20
335.83650879057598
 30
0.0
 11
322.3694168005191
 21
335.83650879057598
 31
0.0
  0
LINE
  5
8776
  8
0
 10
322.3694168005191
 20
335.83650879057598
 30
0.0
 11
321.18721272521179
 21
334.10650891831909
 31
0.0
  0
LINE
  5
8777
  8
0
 10
321.18721272521179
 20
334.10650891831909
 30
0.0
 11
319.68919378156988
 21
332.3908632609652
 31
0.0
  0
LINE
  5
8778
  8
0
 10
319.68919378156988
 20
332.3908632609652
 30
0.0
 11
318.50344969793917
 21
331.25112452511581
 31
0.0
  0
LINE
  5
8779
  8
0
 10
318.50344969793917
 20
331.25112452511581
 30
0.0
 11
316.86309031401879
 21
329.94541287269908
 31
0.0
  0
LINE
  5
877A
  8
0
 10
316.86309031401879
 20
329.94541287269908
 30
0.0
 11
315.72276615705192
 21
329.21079483177692
 31
0.0
  0
LINE
  5
877B
  8
0
 10
315.72276615705192
 20
329.21079483177692
 30
0.0
 11
314.33750846138372
 21
328.48697699199812
 31
0.0
  0
LINE
  5
877C
  8
0
 10
324.20675977804382
 20
335.83650879057382
 30
0.0
 11
324.3782236891916
 21
335.30075100404559
 31
0.0
  0
LINE
  5
877D
  8
0
 10
324.3782236891916
 20
335.30075100404559
 30
0.0
 11
324.56923130827857
 21
334.75084013980859
 31
0.0
  0
LINE
  5
877E
  8
0
 10
324.56923130827857
 20
334.75084013980859
 30
0.0
 11
324.822089993676
 21
334.05369715539291
 31
0.0
  0
LINE
  5
877F
  8
0
 10
324.822089993676
 20
334.05369715539291
 30
0.0
 11
325.00039325878788
 21
333.37468317239473
 31
0.0
  0
LINE
  5
8780
  8
0
 10
325.00039325878788
 20
333.37468317239473
 30
0.0
 11
325.13624357407798
 21
332.95030008664799
 31
0.0
  0
LINE
  5
8781
  8
0
 10
325.13624357407798
 20
332.95030008664799
 30
0.0
 11
325.26876099017647
 21
331.96916449952778
 31
0.0
  0
LINE
  5
8782
  8
0
 10
325.26876099017647
 20
331.96916449952778
 30
0.0
 11
325.27406676474448
 21
331.45829555818659
 31
0.0
  0
LINE
  5
8783
  8
0
 10
325.27406676474448
 20
331.45829555818659
 30
0.0
 11
325.25271547973762
 21
330.95613999758211
 31
0.0
  0
LINE
  5
8784
  8
0
 10
325.25271547973762
 20
330.95613999758211
 30
0.0
 11
325.16860442333609
 21
330.42362737965777
 31
0.0
  0
LINE
  5
8785
  8
0
 10
325.16860442333609
 20
330.42362737965777
 30
0.0
 11
324.96300059197802
 21
329.90979934619099
 31
0.0
  0
LINE
  5
8786
  8
0
 10
324.96300059197802
 20
329.90979934619099
 30
0.0
 11
324.7667443799096
 21
329.54544798838538
 31
0.0
  0
LINE
  5
8787
  8
0
 10
324.7667443799096
 20
329.54544798838538
 30
0.0
 11
324.45879408023978
 21
329.142105159187
 31
0.0
  0
LINE
  5
8788
  8
0
 10
324.45879408023978
 20
329.142105159187
 30
0.0
 11
324.06751661915717
 21
328.82097293289712
 31
0.0
  0
LINE
  5
8789
  8
0
 10
324.06751661915717
 20
328.82097293289712
 30
0.0
 11
323.6614666853153
 21
328.55470619591432
 31
0.0
  0
LINE
  5
878A
  8
0
 10
276.20568833984959
 20
284.3235149184103
 30
0.0
 11
236.20568923391929
 21
284.3235149184103
 31
0.0
  0
ARC
  5
87EB
  8
0
 10
109.63812666672681
 20
253.6235147023435
 30
0.0
 40
0.8000000000000113
 50
270.0000000000008
 51
0.0
  0
ARC
  5
88BC
  8
0
 10
424.8620952707754
 20
215.6235147023435
 30
0.0
 40
0.8000000000000113
 50
180.0
 51
270.0000000000008
  0
ARC
  5
88BD
  8
0
 10
463.26209527077538
 20
215.6235147023435
 30
0.0
 40
0.8000000000000113
 50
270.0000000000008
 51
0.0
  0
ARC
  5
88BE
  8
0
 10
402.3620952707754
 20
209.0235143745179
 30
0.0
 40
0.7999999999999972
 50
90.0
 51
180.0
  0
ARC
  5
88C0
  8
0
 10
428.56209527077539
 20
214.32351437451791
 30
0.0
 40
1.5
 50
270.0000000000008
 51
0.0
  0
ARC
  5
88C1
  8
0
 10
459.56209527077539
 20
214.32351437451791
 30
0.0
 40
1.5
 50
180.0
 51
270.0000000000008
  0
LINE
  5
88CE
  8
0
 10
430.06209483864171
 20
214.8235147023434
 30
0.0
 11
430.06209483864171
 21
214.32351477684929
 31
0.0
  0
LINE
  5
88D2
  8
0
 10
401.56209482374061
 20
195.62351435430821
 30
0.0
 11
402.36209346475471
 21
194.82351437451791
 31
0.0
  0
LINE
  5
88D6
  8
0
 10
458.06209535720211
 20
214.8235147023434
 30
0.0
 11
458.06209527077539
 21
214.32351463379811
 31
0.0
  0
LINE
  5
8907
  8
1
 10
444.06209527077539
 20
329.5594937720586
 30
0.0
 11
444.06209527077539
 21
189.82351437451791
 31
0.0
  0
LINE
  5
893B
  8
0
 10
463.81247429671151
 20
271.82351833822679
 30
0.0
 11
463.81247429671151
 21
274.82351696732002
 31
0.0
  0
LINE
  5
893E
  8
0
 10
424.31171624483932
 20
271.82351833822679
 30
0.0
 11
424.31171624483932
 21
274.82351696732002
 31
0.0
  0
LINE
  5
8946
  8
0
 10
463.83581510307653
 20
272.32351190092521
 30
0.0
 11
463.83581510307653
 21
274.82351696732002
 31
0.0
  0
LINE
  5
8947
  8
0
 10
424.2883754384743
 20
272.32351190092521
 30
0.0
 11
424.2883754384743
 21
274.82351696732002
 31
0.0
  0
LINE
  5
894A
  8
0
 10
463.83581510307653
 20
274.82351696732002
 30
0.0
 11
424.2883754384743
 21
274.82351696732002
 31
0.0
  0
LINE
  5
894F
  8
0
 10
425.062095881723
 20
285.32351589443641
 30
0.0
 11
424.06209571781022
 21
284.32351386787838
 31
0.0
  0
LINE
  5
8950
  8
0
 10
424.06209571781022
 20
284.32351386787838
 30
0.0
 11
424.06209571781022
 21
272.32351190092521
 31
0.0
  0
LINE
  5
8951
  8
0
 10
463.06209465982778
 20
285.32351589443641
 30
0.0
 11
464.06209482374061
 21
284.32351386787838
 31
0.0
  0
LINE
  5
8952
  8
0
 10
464.06209482374061
 20
284.32351386787838
 30
0.0
 11
464.06209482374061
 21
272.32351190092521
 31
0.0
  0
LINE
  5
8A32
  8
0
 10
425.062095881723
 20
285.32351589443641
 30
0.0
 11
441.06209524469853
 21
285.32351589443641
 31
0.0
  0
LINE
  5
8A34
  8
0
 10
453.56209496530158
 20
287.82351351025062
 30
0.0
 11
453.56209496530158
 21
285.32351589443641
 31
0.0
  0
LINE
  5
8A35
  8
0
 10
434.68583249049652
 20
285.32351589443641
 30
0.0
 11
441.06209524469853
 21
285.32351589443641
 31
0.0
  0
LINE
  5
8A36
  8
0
 10
434.56209557624919
 20
287.82351351025062
 30
0.0
 11
434.56209557624919
 21
285.32351589443641
 31
0.0
  0
LINE
  5
8A38
  8
0
 10
434.68583249049652
 20
285.32351589443641
 30
0.0
 11
441.06209524469853
 21
285.32351589443641
 31
0.0
  0
LINE
  5
8A3B
  8
0
 10
424.06209571781022
 20
284.32351386787838
 30
0.0
 11
464.06209482374072
 21
284.32351386787838
 31
0.0
  0
LINE
  5
8A3F
  8
0
 10
434.68583249049652
 20
285.32351589443641
 30
0.0
 11
441.06209524469853
 21
285.32351589443641
 31
0.0
  0
LINE
  5
8A42
  8
0
 10
434.68583249049652
 20
285.32351589443641
 30
0.0
 11
463.06209465982778
 21
285.32351589443641
 31
0.0
  0
LINE
  5
8A46
  8
0
 10
451.16209531696887
 20
320.82351351025062
 30
0.0
 11
449.42952626583269
 21
320.82351351025062
 31
0.0
  0
LINE
  5
8A47
  8
0
 10
451.16209531696899
 20
320.82351351025062
 30
0.0
 11
451.16209531696899
 21
320.09833194133893
 31
0.0
  0
LINE
  5
8A49
  8
0
 10
423.6062441450926
 20
308.98284747374919
 30
0.0
 11
421.57301980325559
 21
310.65402165005207
 31
0.0
  0
LINE
  5
8A4A
  8
0
 10
426.0912941720926
 20
306.99550340814682
 30
0.0
 11
423.6062441450926
 21
308.98284747374919
 31
0.0
  0
LINE
  5
8A4B
  8
0
 10
428.31952464701988
 20
304.8235189342733
 30
0.0
 11
426.0912941720926
 21
306.99550340814682
 31
0.0
  0
POLYLINE
  5
8A4C
  8
0
 66
     1
 10
0.0
 20
0.0
 30
0.0
  0
VERTEX
  5
990B
  8
0
 10
440.726924361013
 20
304.8235189342733
 30
0.0
  0
VERTEX
  5
990C
  8
0
 10
438.23158315123243
 20
306.31714697401731
 30
0.0
  0
VERTEX
  5
990D
  8
0
 10
434.24979950561368
 20
308.7792413229156
 30
0.0
  0
VERTEX
  5
990E
  8
0
 10
427.76400783631868
 20
312.71859175825119
 30
0.0
  0
VERTEX
  5
990F
  8
0
 10
422.0992016504801
 20
316.45276864495258
 30
0.0
  0
VERTEX
  5
9910
  8
0
 10
420.53817988420491
 20
317.50338271036412
 30
0.0
  0
VERTEX
  5
9911
  8
0
 10
418.71254299702508
 20
318.55702513697099
 30
0.0
  0
SEQEND
  5
9912
  8
0
  0
POLYLINE
  5
8A4D
  8
0
 66
     1
 10
0.0
 20
0.0
 30
0.0
  0
VERTEX
  5
9913
  8
0
 10
418.71254299702508
 20
332.87681752684068
 30
0.0
  0
VERTEX
  5
9914
  8
0
 10
422.29884306269457
 20
331.42893958192161
 30
0.0
  0
VERTEX
  5
9915
  8
0
 10
424.88461483710807
 20
330.23592631515481
 30
0.0
  0
VERTEX
  5
9916
  8
0
 10
427.22175395217982
 20
329.29145737002659
 30
0.0
  0
VERTEX
  5
9917
  8
0
 10
430.93084943470461
 20
327.77177042636367
 30
0.0
  0
VERTEX
  5
9918
  8
0
 10
434.87102095641097
 20
326.19625457705229
 30
0.0
  0
VERTEX
  5
9919
  8
0
 10
438.69200540545899
 20
324.64342612459677
 30
0.0
  0
VERTEX
  5
991A
  8
0
 10
441.61895324086879
 20
323.61935324145952
 30
0.0
  0
VERTEX
  5
991B
  8
0
 10
444.20442503312182
 20
322.49775004329848
 30
0.0
  0
VERTEX
  5
991C
  8
0
 10
448.03663582185112
 20
321.39814009000679
 30
0.0
  0
VERTEX
  5
991D
  8
0
 10
450.3921504864843
 20
320.42639005671998
 30
0.0
  0
VERTEX
  5
991E
  8
0
 10
453.3113973200106
 20
319.18255728244662
 30
0.0
  0
VERTEX
  5
991F
  8
0
 10
455.2660110082702
 20
317.91301081781558
 30
0.0
  0
VERTEX
  5
9920
  8
0
 10
456.64875797489412
 20
316.84973338084887
 30
0.0
  0
VERTEX
  5
9921
  8
0
 10
457.60604265205609
 20
315.6801278080091
 30
0.0
  0
VERTEX
  5
9922
  8
0
 10
457.8187737967873
 20
314.51052223516899
 30
0.0
  0
VERTEX
  5
9923
  8
0
 10
457.8187737967873
 20
304.8235189342733
 30
0.0
  0
SEQEND
  5
9924
  8
0
  0
LINE
  5
8A4E
  8
0
 10
430.56916599097121
 20
304.8235189342733
 30
0.0
 11
430.56916599097121
 21
287.823514285111
 31
0.0
  0
LINE
  5
8A4F
  8
0
 10
457.56916622566439
 20
304.8235189342733
 30
0.0
 11
457.56916622566439
 21
287.823514285111
 31
0.0
  0
LINE
  5
8A51
  8
0
 10
457.81209519999481
 20
304.8235189342733
 30
0.0
 11
444.61532370122541
 21
304.8235189342733
 31
0.0
  0
LINE
  5
8A52
  8
0
 10
444.61532370122541
 20
304.8235189342733
 30
0.0
 11
440.726924361013
 21
304.8235189342733
 31
0.0
  0
LINE
  5
8A53
  8
0
 10
440.726924361013
 20
304.8235189342733
 30
0.0
 11
434.52322450401653
 21
304.8235189342733
 31
0.0
  0
LINE
  5
8A54
  8
0
 10
434.52322450401653
 20
304.8235189342733
 30
0.0
 11
428.31952464701988
 21
304.8235189342733
 31
0.0
  0
LINE
  5
8A55
  8
0
 10
376.20026697656658
 20
328.82097265722558
 30
0.0
 11
376.60631691040862
 21
328.55470592024278
 31
0.0
  0
LINE
  5
8A56
  8
0
 10
375.80898951548397
 20
329.14210488351551
 30
0.0
 11
376.20026697656658
 21
328.82097265722558
 31
0.0
  0
LINE
  5
8A57
  8
0
 10
375.50103921581422
 20
329.54544771271389
 30
0.0
 11
375.80898951548397
 21
329.14210488351551
 31
0.0
  0
LINE
  5
8A58
  8
0
 10
375.3047830037458
 20
329.90979907051951
 30
0.0
 11
375.50103921581422
 21
329.54544771271389
 31
0.0
  0
LINE
  5
8A59
  8
0
 10
375.09917917238772
 20
330.42362710398629
 30
0.0
 11
375.3047830037458
 21
329.90979907051951
 31
0.0
  0
LINE
  5
8A5A
  8
0
 10
375.0150681159862
 20
330.95613972191057
 30
0.0
 11
375.09917917238772
 21
330.42362710398629
 31
0.0
  0
LINE
  5
8A5B
  8
0
 10
374.99371683097928
 20
331.45829528251511
 30
0.0
 11
375.0150681159862
 21
330.95613972191057
 31
0.0
  0
LINE
  5
8A5C
  8
0
 10
374.99902260554728
 20
331.9691642238563
 30
0.0
 11
374.99371683097928
 21
331.45829528251511
 31
0.0
  0
LINE
  5
8A5D
  8
0
 10
375.13154002164589
 20
332.9502998109765
 30
0.0
 11
374.99902260554728
 21
331.9691642238563
 31
0.0
  0
LINE
  5
8A5E
  8
0
 10
375.26739033693588
 20
333.37468289672319
 30
0.0
 11
375.13154002164589
 21
332.9502998109765
 31
0.0
  0
LINE
  5
8A5F
  8
0
 10
375.44569360204792
 20
334.05369687972137
 30
0.0
 11
375.26739033693588
 21
333.37468289672319
 31
0.0
  0
LINE
  5
8A60
  8
0
 10
375.69855228744518
 20
334.75083986413711
 30
0.0
 11
375.44569360204792
 21
334.05369687972137
 31
0.0
  0
LINE
  5
8A61
  8
0
 10
375.88955990653221
 20
335.30075072837423
 30
0.0
 11
375.69855228744518
 21
334.75083986413711
 31
0.0
  0
LINE
  5
8A62
  8
0
 10
376.06102381768011
 20
335.83650851490228
 30
0.0
 11
375.88955990653221
 21
335.30075072837423
 31
0.0
  0
LINE
  5
8A63
  8
0
 10
384.54501743867201
 20
329.21079455610538
 30
0.0
 11
385.93027513434021
 21
328.48697671632658
 31
0.0
  0
LINE
  5
8A64
  8
0
 10
383.40469328170502
 20
329.9454125970276
 30
0.0
 11
384.54501743867201
 21
329.21079455610538
 31
0.0
  0
LINE
  5
8A65
  8
0
 10
381.76433389778458
 20
331.25112424944427
 30
0.0
 11
383.40469328170502
 21
329.9454125970276
 31
0.0
  0
LINE
  5
8A66
  8
0
 10
380.57858981415399
 20
332.39086298529378
 30
0.0
 11
381.76433389778458
 21
331.25112424944427
 31
0.0
  0
LINE
  5
8A67
  8
0
 10
379.08057087051202
 20
334.10650864264773
 30
0.0
 11
380.57858981415399
 21
332.39086298529378
 31
0.0
  0
LINE
  5
8A68
  8
0
 10
377.89836679520482
 20
335.83650851490449
 30
0.0
 11
379.08057087051202
 21
334.10650864264773
 31
0.0
  0
LINE
  5
8A69
  8
0
 10
377.89836679520482
 20
335.83650851490449
 30
0.0
 11
377.89836679520482
 21
335.83650851490449
 31
0.0
  0
LINE
  5
8A6A
  8
0
 10
377.34472519425481
 20
336.69237120586649
 30
0.0
 11
377.48384629311431
 21
336.4974644208188
 31
0.0
  0
LINE
  5
8A6B
  8
0
 10
377.25240513698282
 20
336.96923719001649
 30
0.0
 11
377.34472519425481
 21
336.69237120586649
 31
0.0
  0
LINE
  5
8A6C
  8
0
 10
377.37934576314461
 20
337.2576396925906
 30
0.0
 11
377.25240513698282
 21
336.96923719001649
 31
0.0
  0
LINE
  5
8A6D
  8
0
 10
377.50628857895708
 20
337.38453747349558
 30
0.0
 11
377.37934576314461
 21
337.2576396925906
 31
0.0
  0
LINE
  5
8A6E
  8
0
 10
378.19869776709999
 20
338.11131198914342
 30
0.0
 11
377.50628857895708
 21
337.38453747349558
 31
0.0
  0
LINE
  5
8A6F
  8
0
 10
379.16917071106542
 20
338.82767161048099
 30
0.0
 11
378.19869776709999
 21
338.11131198914342
 31
0.0
  0
LINE
  5
8A70
  8
0
 10
379.83555589938169
 20
339.25696997206637
 30
0.0
 11
379.16917071106542
 21
338.82767161048099
 31
0.0
  0
LINE
  5
8A71
  8
0
 10
380.45751745215148
 20
339.58264490674418
 30
0.0
 11
379.83555589938169
 21
339.25696997206637
 31
0.0
  0
LINE
  5
8A72
  8
0
 10
381.19794568246471
 20
339.93792653482433
 30
0.0
 11
380.45751745215148
 21
339.58264490674418
 31
0.0
  0
LINE
  5
8A73
  8
0
 10
382.05684496962289
 20
340.30801020235123
 30
0.0
 11
381.19794568246471
 21
339.93792653482433
 31
0.0
  0
LINE
  5
8A74
  8
0
 10
383.50409422935491
 20
340.49748742821168
 30
0.0
 11
382.05684496962289
 21
340.30801020235123
 31
0.0
  0
LINE
  5
8A75
  8
0
 10
374.97931987693158
 20
340.13444083155559
 30
0.0
 11
374.98314087214339
 21
339.88287949373841
 31
0.0
  0
LINE
  5
8A76
  8
0
 10
374.99140455972838
 20
340.27456671783563
 30
0.0
 11
374.97931987693158
 21
340.13444083155559
 31
0.0
  0
LINE
  5
8A77
  8
0
 10
375.04666091272821
 20
340.36790838307792
 30
0.0
 11
374.99140455972838
 21
340.27456671783563
 31
0.0
  0
LINE
  5
8A78
  8
0
 10
374.98314087214339
 20
339.88287949373841
 30
0.0
 11
374.98314087214339
 21
331.53294140341239
 31
0.0
  0
LINE
  5
8A79
  8
0
 10
376.4985565368811
 20
336.73677470969869
 30
0.0
 11
376.34723566443449
 21
336.47724649828177
 31
0.0
  0
LINE
  5
8A7A
  8
0
 10
376.51362790337731
 20
337.03309525103742
 30
0.0
 11
376.4985565368811
 21
336.73677470969869
 31
0.0
  0
LINE
  5
8A7B
  8
0
 10
376.4181700765007
 20
337.28923602690412
 30
0.0
 11
376.51362790337731
 21
337.03309525103742
 31
0.0
  0
LINE
  5
8A7C
  8
0
 10
376.27723320238829
 20
337.49513771613459
 30
0.0
 11
376.4181700765007
 21
337.28923602690412
 31
0.0
  0
LINE
  5
8A7D
  8
0
 10
375.30704491302822
 20
339.0023312312897
 30
0.0
 11
376.27723320238829
 21
337.49513771613459
 31
0.0
  0
LINE
  5
8A7E
  8
0
 10
375.07105529743831
 20
339.46104281265389
 30
0.0
 11
375.30704491302822
 21
339.0023312312897
 31
0.0
  0
LINE
  5
8A7F
  8
0
 10
374.97931987693158
 20
340.13444083155559
 30
0.0
 11
375.07105529743831
 21
339.46104281265389
 31
0.0
  0
LINE
  5
8A80
  8
0
 10
375.3201565420527
 20
340.48331299223241
 30
0.0
 11
375.0406016340321
 21
340.36535160112339
 31
0.0
  0
LINE
  5
8A81
  8
0
 10
383.50409422936309
 20
340.49748742821168
 30
0.0
 11
375.3201565420527
 21
340.48331299223241
 31
0.0
  0
LINE
  5
8A82
  8
0
 10
386.07933525862558
 20
340.25266134979682
 30
0.0
 11
383.50409422936309
 21
340.49748742821168
 31
0.0
  0
LINE
  5
8A83
  8
0
 10
409.98691830514599
 20
317.18940900814118
 30
0.0
 11
407.23283369960649
 21
318.55702513697099
 31
0.0
  0
LINE
  5
8A84
  8
0
 10
415.05825467449898
 20
314.78011596413558
 30
0.0
 11
409.98691830514599
 21
317.18940900814118
 31
0.0
  0
LINE
  5
8A85
  8
0
 10
418.86205474402323
 20
312.32519713360898
 30
0.0
 11
415.05825467449898
 21
314.78011596413558
 31
0.0
  0
LINE
  5
8A86
  8
0
 10
421.57301980325559
 20
310.65402165005207
 30
0.0
 11
418.86205474402323
 21
312.32519713360898
 31
0.0
  0
ARC
  5
8A87
  8
0
 10
388.35514208809872
 20
321.96180200958139
 30
0.0
 40
4.8317362819584
 50
69.044747702806447
 51
89.854806405914957
  0
ARC
  5
8A88
  8
0
 10
341.81144352312981
 20
199.37452785754459
 30
0.0
 40
135.95744168813741
 50
61.236834483301209
 51
69.203479994518219
  0
ARC
  5
8A89
  8
0
 10
381.71311589338723
 20
333.33842379535668
 30
0.0
 40
6.5449888491499131
 50
243.39982463078539
 51
269.70316951698408
  0
LINE
  5
8A8A
  8
0
 10
391.23281617584098
 20
326.79352277758079
 30
0.0
 11
381.67920862259729
 21
326.79352277758079
 31
0.0
  0
LINE
  5
8A8B
  8
0
 10
376.88695047917241
 20
328.41751092913103
 30
0.0
 11
378.78251974406112
 21
327.4862032556768
 31
0.0
  0
ARC
  5
8A8C
  8
0
 10
382.06975006636719
 20
339.37459008276289
 30
0.0
 40
12.12101460852111
 50
243.20879126680839
 51
244.68541855062
  0
ARC
  5
8A8D
  8
0
 10
379.1652447356613
 20
334.83417429086091
 30
0.0
 40
3.2620333236060071
 50
149.3432528523704
 51
162.10504457377331
  0
ARC
  5
8A8E
  8
0
 10
363.82431649944988
 20
165.91093978472739
 30
0.0
 40
175.75642730279719
 50
71.802279583979825
 51
82.725438457466112
  0
ARC
  5
8A8F
  8
0
 10
349.80541285918889
 20
183.4784561028743
 30
0.0
 40
151.63908597763279
 50
62.972676104227041
 51
70.561462660868443
  0
ARC
  5
8A90
  8
0
 10
398.41527818567471
 20
321.2501871531602
 30
0.0
 40
5.5433443521776109
 50
70.450327737470715
 51
89.898327598147404
  0
LINE
  5
8A91
  8
0
 10
398.42511494579179
 20
326.79352277758079
 30
0.0
 11
391.23281617584098
 21
326.79352277758079
 31
0.0
  0
ARC
  5
8A92
  8
0
 10
391.26006863625071
 20
334.26667575176498
 30
0.0
 40
7.4732026649996222
 50
245.13550939566809
 51
269.79105953717061
  0
LINE
  5
8A93
  8
0
 10
388.1177843076216
 20
327.4862032556768
 30
0.0
 11
386.07933525862558
 21
328.41751092913103
 31
0.0
  0
ARC
  5
8A94
  8
0
 10
380.02624794858298
 20
315.62341797338229
 30
0.0
 40
14.15375146536558
 50
64.680429957285213
 51
66.011872138087114
  0
ARC
  5
8A95
  8
0
 10
374.2644512671605
 20
334.01794921257363
 30
0.0
 40
4.0635575547855192
 50
26.585248720524842
 51
37.602762372661743
  0
LINE
  5
8B0D
  8
0
 10
681.91850343104704
 20
246.8235171535845
 30
0.0
 11
681.91850343104704
 21
236.32351450117781
 31
0.0
  0
LINE
  5
8B0E
  8
3
 10
681.10650354280585
 20
236.32351450117781
 30
0.0
 11
681.10650354280585
 21
246.8235171535845
 31
0.0
  0
LINE
  5
8B0F
  8
0
 10
671.91850365456446
 20
246.8235171535845
 30
0.0
 11
671.91850365456446
 21
236.32351450117781
 31
0.0
  0
LINE
  5
8B10
  8
3
 10
672.73050354280576
 20
236.3235145011777
 30
0.0
 11
672.73050354280588
 21
246.8235171535845
 31
0.0
  0
LINE
  5
8B11
  8
0
 10
673.41850203778847
 20
281.6895409623022
 30
0.0
 11
671.91850272324189
 21
280.82351527603811
 31
0.0
  0
LINE
  5
8B12
  8
0
 10
673.41850203778847
 20
284.8942293921346
 30
0.0
 11
673.41850203778847
 21
281.6895409623022
 31
0.0
  0
LINE
  5
8B13
  8
0
 10
680.41850504782303
 20
281.6895409623022
 30
0.0
 11
681.91850436236962
 21
280.82351527603811
 31
0.0
  0
LINE
  5
8B14
  8
0
 10
680.41850504782303
 20
284.8942293921346
 30
0.0
 11
680.41850504782303
 21
281.6895409623022
 31
0.0
  0
LINE
  5
8B15
  8
0
 10
651.91850130763157
 20
284.3235149184103
 30
0.0
 11
651.91850130763157
 21
274.82351801785182
 31
0.0
  0
LINE
  5
8B16
  8
0
 10
651.91850130763135
 20
245.8235151270265
 30
0.0
 11
651.91850130763135
 21
215.62351520600271
 31
0.0
  0
LINE
  5
8B17
  8
0
 10
651.91850130763135
 20
212.02351497680419
 30
0.0
 11
651.91850130763135
 21
209.02351454327351
 31
0.0
  0
LINE
  5
8B18
  8
0
 10
651.11850266661725
 20
212.8235135996575
 30
0.0
 11
651.91850130763135
 21
212.02351497680419
 31
0.0
  0
LINE
  5
8B19
  8
0
 10
645.9185026524608
 20
214.8235147023434
 30
0.0
 11
645.9185026524608
 21
214.32351342673161
 31
0.0
  0
LINE
  5
8B1A
  8
0
 10
611.91850220170124
 20
212.02351497680419
 30
0.0
 11
611.91850220169795
 21
209.0235168476481
 31
0.0
  0
LINE
  5
8B1B
  8
0
 10
612.71850084271534
 20
212.8235135996575
 30
0.0
 11
611.91850220170124
 21
212.02351497680419
 31
0.0
  0
LINE
  5
8B1C
  8
0
 10
617.91850132253273
 20
214.8235147023434
 30
0.0
 11
617.91850132253273
 21
214.32351473680239
 31
0.0
  0
LINE
  5
8B1D
  8
0
 10
611.91850220170124
 20
267.3235177198286
 30
0.0
 11
611.91850220170124
 21
215.62351520600271
 31
0.0
  0
LINE
  5
8B1E
  8
0
 10
611.91850220170124
 20
274.02351937683773
 30
0.0
 11
611.91850220170124
 21
267.3235177198286
 31
0.0
  0
LINE
  5
8B1F
  8
0
 10
612.71850084271534
 20
274.82351801785182
 30
0.0
 11
611.91850220170124
 21
274.02351937683773
 31
0.0
  0
LINE
  5
8B20
  8
0
 10
611.91850220170124
 20
284.3235149184103
 30
0.0
 11
611.91850220170124
 21
274.82351801785182
 31
0.0
  0
LINE
  5
8B21
  8
1
 10
676.91850221660229
 20
224.32351444157311
 30
0.0
 11
676.91850221660229
 21
291.32351497801488
 31
0.0
  0
LINE
  5
8B25
  8
0
 10
611.91850220170124
 20
274.82351801785182
 30
0.0
 11
628.91850219425066
 21
274.82351801785182
 31
0.0
  0
LINE
  5
8B26
  8
0
 10
634.91850224640473
 20
274.82351801785182
 30
0.0
 11
648.83164194729432
 21
274.82351801785182
 31
0.0
  0
LINE
  5
8B27
  8
0
 10
634.91850224640473
 20
272.32351295145702
 30
0.0
 11
634.91850224640473
 21
274.82351801785182
 31
0.0
  0
LINE
  5
8B28
  8
0
 10
628.91850219425066
 20
272.32351295145702
 30
0.0
 11
634.91850224640473
 21
272.32351295145702
 31
0.0
  0
LINE
  5
8B29
  8
0
 10
628.91850219425066
 20
272.32351295145702
 30
0.0
 11
628.91850219425066
 21
274.82351801785182
 31
0.0
  0
LINE
  5
8B2A
  8
0
 10
673.41850203778847
 20
281.6895409623022
 30
0.0
 11
680.41850504782303
 21
281.6895409623022
 31
0.0
  0
LINE
  5
8B2B
  8
0
 10
667.10354824867352
 20
229.32351521643349
 30
0.0
 11
672.01102775838478
 21
229.32351521643349
 31
0.0
  0
LINE
  5
8B2C
  8
0
 10
667.10354824867352
 20
236.32351450117781
 30
0.0
 11
672.01102775838478
 21
236.32351450117781
 31
0.0
  0
LINE
  5
8B2D
  8
0
 10
667.10354824867352
 20
229.32351521643349
 30
0.0
 11
667.10354824867352
 21
236.32351450117781
 31
0.0
  0
LINE
  5
8B2E
  8
0
 10
681.82597932722672
 20
229.32351521643349
 30
0.0
 11
686.73345697429284
 21
229.32351521643349
 31
0.0
  0
LINE
  5
8B2F
  8
0
 10
681.82597932722672
 20
236.32351450117781
 30
0.0
 11
686.73345697429284
 21
236.32351450117781
 31
0.0
  0
LINE
  5
8B30
  8
0
 10
672.01102775838478
 20
236.32351450117781
 30
0.0
 11
681.82597932722672
 21
236.32351450117781
 31
0.0
  0
LINE
  5
8B31
  8
0
 10
681.82597932722672
 20
229.32351521643349
 30
0.0
 11
681.82597932722672
 21
236.32351450117781
 31
0.0
  0
LINE
  5
8B32
  8
0
 10
672.01102775838478
 20
229.32351521643349
 30
0.0
 11
681.82597932722672
 21
229.32351521643349
 31
0.0
  0
LINE
  5
8B33
  8
0
 10
672.01102775838478
 20
229.32351521643349
 30
0.0
 11
672.01102775838478
 21
236.32351450117781
 31
0.0
  0
LINE
  5
8B34
  8
0
 10
681.82597932722672
 20
274.82351801785182
 30
0.0
 11
680.4384465267907
 21
274.82351801785182
 31
0.0
  0
LINE
  5
8B35
  8
0
 10
682.51974759008988
 20
274.82351801785182
 30
0.0
 11
681.82597932722672
 21
274.82351801785182
 31
0.0
  0
LINE
  5
8B36
  8
0
 10
681.82597932722672
 20
252.82351441177079
 30
0.0
 11
682.51974759008988
 21
252.82351441177079
 31
0.0
  0
LINE
  5
8B37
  8
0
 10
680.4384465267907
 20
252.82351441177079
 30
0.0
 11
681.82597932722672
 21
252.82351441177079
 31
0.0
  0
LINE
  5
8B38
  8
0
 10
611.91850220170124
 20
209.82351411561021
 30
0.0
 11
612.71850084271534
 21
209.82351411561021
 31
0.0
  0
LINE
  5
8B39
  8
0
 10
651.11850266661747
 20
209.82351411561021
 30
0.0
 11
651.91850130763157
 21
209.82351411561021
 31
0.0
  0
LINE
  5
8B3A
  8
0
 10
651.11850266661747
 20
212.8235135996575
 30
0.0
 11
631.91850175466641
 21
212.8235135996575
 31
0.0
  0
LINE
  5
8B3B
  8
0
 10
631.91850175466641
 20
212.8235135996575
 30
0.0
 11
612.71850084271534
 21
212.8235135996575
 31
0.0
  0
LINE
  5
8B3C
  8
0
 10
651.91850130763157
 20
195.62351379039239
 30
0.0
 11
651.11850266661747
 21
194.8235151493783
 31
0.0
  0
LINE
  5
8B3D
  8
0
 10
612.71850084271534
 20
194.8235151493783
 30
0.0
 11
651.11850266661747
 21
194.8235151493783
 31
0.0
  0
LINE
  5
8B3E
  8
0
 10
611.91850220170124
 20
195.62351379039239
 30
0.0
 11
612.71850084271534
 21
194.8235151493783
 31
0.0
  0
LINE
  5
8B3F
  8
0
 10
651.11850266661747
 20
209.82351411561021
 30
0.0
 11
612.71850084271534
 21
209.82351411561021
 31
0.0
  0
LINE
  5
8B40
  8
0
 10
651.91850130763157
 20
209.02351454327351
 30
0.0
 11
651.91850130763157
 21
195.62351379039239
 31
0.0
  0
LINE
  5
8B41
  8
0
 10
611.91850220170124
 20
209.02351454327351
 30
0.0
 11
611.91850220170124
 21
195.62351379039239
 31
0.0
  0
LINE
  5
8B42
  8
0
 10
676.9185054054509
 20
274.82351801785182
 30
0.0
 11
654.27918237950905
 21
274.82351801785182
 31
0.0
  0
LINE
  5
8B43
  8
0
 10
682.51974759008988
 20
252.82351441177079
 30
0.0
 11
686.03969243671997
 21
252.82351441177079
 31
0.0
  0
LINE
  5
8B44
  8
0
 10
676.9185054054509
 20
252.82351441177079
 30
0.0
 11
680.4384465267907
 21
252.82351441177079
 31
0.0
  0
LINE
  5
8B45
  8
0
 10
658.91849846799255
 20
252.8235144117719
 30
0.0
 11
676.9185054054509
 21
252.82351441177079
 31
0.0
  0
LINE
  5
8B46
  8
0
 10
680.4384465267907
 20
274.82351801785182
 30
0.0
 11
676.9185054054509
 21
274.82351801785182
 31
0.0
  0
LINE
  5
8B47
  8
0
 10
686.11850467827423
 20
274.82351801785182
 30
0.0
 11
682.51974759008988
 21
274.82351801785182
 31
0.0
  0
LINE
  5
8B48
  8
0
 10
654.27918237950905
 20
274.82351801785182
 30
0.0
 11
648.83164194729432
 21
274.82351801785182
 31
0.0
  0
LINE
  5
8B49
  8
0
 10
612.71850084271534
 20
214.8235147023434
 30
0.0
 11
631.91850175466641
 21
214.8235147023434
 31
0.0
  0
LINE
  5
8B4A
  8
0
 10
631.91850175466641
 20
214.8235147023434
 30
0.0
 11
651.11850266661747
 21
214.8235147023434
 31
0.0
  0
LINE
  5
8B4B
  8
0
 10
628.76850244906052
 20
271.8235193887586
 30
0.0
 11
628.76850244906052
 21
274.82351801785182
 31
0.0
  0
LINE
  5
8B4C
  8
0
 10
635.06850199159487
 20
271.8235193887586
 30
0.0
 11
628.76850244906052
 21
271.8235193887586
 31
0.0
  0
LINE
  5
8B4D
  8
0
 10
635.06850199159487
 20
271.8235193887586
 30
0.0
 11
635.06850199159487
 21
274.82351801785182
 31
0.0
  0
ARC
  5
8B4E
  8
0
 10
616.41850308532514
 20
214.32351183686751
 30
0.0
 40
1.499998237210395
 50
269.9999588486325
 51
0.0001107694827736
  0
ARC
  5
8B4F
  8
0
 10
647.41850247953494
 20
214.32351342673161
 30
0.0
 40
1.499999827074223
 50
179.9999499589774
 51
269.99998042290508
  0
ARC
  5
8B50
  8
0
 10
658.91849846799755
 20
245.8235172514056
 30
0.0
 40
6.9999971603663456
 50
89.999967365755992
 51
180.0000173882853
  0
ARC
  5
8B51
  8
0
 10
612.7185010595241
 20
215.62351356016799
 30
0.0
 40
0.7999988578245915
 50
179.99988212560501
 51
269.99998447219349
  0
ARC
  5
8B52
  8
0
 10
651.1185024498086
 20
215.62351356016799
 30
0.0
 40
0.7999988578245915
 50
270.0000155278068
 51
0.0001178743949241
  0
LINE
  5
8B53
  8
0
 10
611.91850220170124
 20
284.3235149184103
 30
0.0
 11
651.91850130763157
 21
284.3235149184103
 31
0.0
  0
LINE
  5
8B54
  8
0
 10
622.41850299146279
 20
287.82351456078243
 30
0.0
 11
622.41850299146279
 21
285.32351694496822
 31
0.0
  0
LINE
  5
8B55
  8
0
 10
641.41850191485389
 20
287.82351456078243
 30
0.0
 11
641.4185014491926
 21
285.32351694496822
 31
0.0
  0
LINE
  5
8B56
  8
0
 10
650.9185011437188
 20
285.32351694496822
 30
0.0
 11
651.91850130763157
 21
284.3235149184103
 31
0.0
  0
LINE
  5
8B57
  8
0
 10
612.91850236561402
 20
285.32351694496822
 30
0.0
 11
611.91850220170124
 21
284.3235149184103
 31
0.0
  0
LINE
  5
8B58
  8
0
 10
650.9185011437188
 20
285.32351694496822
 30
0.0
 11
631.91850175466641
 21
285.32351694496822
 31
0.0
  0
LINE
  5
8B59
  8
0
 10
631.91850175466641
 20
285.32351694496822
 30
0.0
 11
612.91850236561402
 21
285.32351694496822
 31
0.0
  0
LINE
  5
8B5A
  8
0
 10
673.41850203778847
 20
284.8942293921346
 30
0.0
 11
680.41850504782303
 21
284.8942293921346
 31
0.0
  0
ARC
  5
8B5B
  8
0
 10
676.91850354280575
 20
281.32352476357772
 30
0.0
 40
4.9999942079487827
 50
45.572906791883433
 51
134.4270932081165
  0
LINE
  5
8B5C
  8
0
 10
686.91850331928822
 20
274.02351937683773
 30
0.0
 11
686.91850331928833
 21
253.62351677807521
 31
0.0
  0
LINE
  5
8B5D
  8
0
 10
686.73345697429284
 20
229.32351521643349
 30
0.0
 11
686.73345697429284
 21
236.32351450117781
 31
0.0
  0
ARC
  5
8B5E
  8
0
 10
686.11850128172784
 20
253.623516449324
 30
0.0
 40
0.8000020375603666
 50
270.00024325908169
 51
0.0000235450133326
  0
LINE
  5
8B5F
  8
1
 10
631.91850221660241
 20
329.5594937720586
 30
0.0
 11
631.91850221660241
 21
189.82351437451791
 31
0.0
  0
LINE
  5
8B60
  8
0
 10
624.81850217040881
 20
320.8235137859221
 30
0.0
 11
624.81850217040881
 21
319.29219505428608
 31
0.0
  0
POLYLINE
  5
8B61
  8
0
 10
639.01850226279601
 20
317.93033460048815
 30
0.0
 66
     1
 70
     8
  0
VERTEX
  8
0
  5
9DC5
 10
639.019
 20
317.930
 30
0.000000
  70
    32
  0
VERTEX
  8
0
  5
9DC6
 10
639.164
 20
317.795
 30
0.000000
  70
    32
  0
VERTEX
  8
0
  5
9DC7
 10
639.295
 20
317.662
 30
0.000000
  70
    32
  0
VERTEX
  8
0
  5
9DC8
 10
639.411
 20
317.532
 30
0.000000
  70
    32
  0
VERTEX
  8
0
  5
9DC9
 10
639.512
 20
317.405
 30
0.000000
  70
    32
  0
VERTEX
  8
0
  5
9DCA
 10
639.598
 20
317.281
 30
0.000000
  70
    32
  0
VERTEX
  8
0
  5
9DCB
 10
639.668
 20
317.161
 30
0.000000
  70
    32
  0
VERTEX
  8
0
  5
9DCC
 10
639.723
 20
317.044
 30
0.000000
  70
    32
  0
VERTEX
  8
0
  5
9DCD
 10
639.762
 20
316.932
 30
0.000000
  70
    32
  0
VERTEX
  8
0
  5
9DCE
 10
639.785
 20
316.823
 30
0.000000
  70
    32
  0
VERTEX
  8
0
  5
9DCF
 10
639.793
 20
316.719
 30
0.000000
  70
    32
  0
VERTEX
  8
0
  5
9DD0
 10
639.785
 20
316.620
 30
0.000000
  70
    32
  0
VERTEX
  8
0
  5
9DD1
 10
639.761
 20
316.525
 30
0.000000
  70
    32
  0
VERTEX
  8
0
  5
9DD2
 10
639.721
 20
316.435
 30
0.000000
  70
    32
  0
VERTEX
  8
0
  5
9DD3
 10
639.665
 20
316.350
 30
0.000000
  70
    32
  0
VERTEX
  8
0
  5
9DD4
 10
639.595
 20
316.270
 30
0.000000
  70
    32
  0
VERTEX
  8
0
  5
9DD5
 10
639.508
 20
316.195
 30
0.000000
  70
    32
  0
VERTEX
  8
0
  5
9DD6
 10
639.407
 20
316.126
 30
0.000000
  70
    32
  0
VERTEX
  8
0
  5
9DD7
 10
639.290
 20
316.063
 30
0.000000
  70
    32
  0
VERTEX
  8
0
  5
9DD8
 10
639.158
 20
316.005
 30
0.000000
  70
    32
  0
VERTEX
  8
0
  5
9DD9
 10
639.012
 20
315.953
 30
0.000000
  70
    32
  0
VERTEX
  8
0
  5
9DDA
 10
638.851
 20
315.907
 30
0.000000
  70
    32
  0
VERTEX
  8
0
  5
9DDB
 10
638.677
 20
315.867
 30
0.000000
  70
    32
  0
VERTEX
  8
0
  5
9DDC
 10
638.488
 20
315.833
 30
0.000000
  70
    32
  0
VERTEX
  8
0
  5
9DDD
 10
638.286
 20
315.805
 30
0.000000
  70
    32
  0
VERTEX
  8
0
  5
9DDE
 10
638.071
 20
315.783
 30
0.000000
  70
    32
  0
VERTEX
  8
0
  5
9DDF
 10
637.843
 20
315.768
 30
0.000000
  70
    32
  0
VERTEX
  8
0
  5
9DE0
 10
637.603
 20
315.758
 30
0.000000
  70
    32
  0
VERTEX
  8
0
  5
9DE1
 10
637.351
 20
315.755
 30
0.000000
  70
    32
  0
VERTEX
  8
0
  5
9DE2
 10
637.088
 20
315.758
 30
0.000000
  70
    32
  0
VERTEX
  8
0
  5
9DE3
 10
636.814
 20
315.768
 30
0.000000
  70
    32
  0
VERTEX
  8
0
  5
9DE4
 10
636.529
 20
315.783
 30
0.000000
  70
    32
  0
VERTEX
  8
0
  5
9DE5
 10
636.235
 20
315.805
 30
0.000000
  70
    32
  0
VERTEX
  8
0
  5
9DE6
 10
635.931
 20
315.833
 30
0.000000
  70
    32
  0
VERTEX
  8
0
  5
9DE7
 10
635.618
 20
315.867
 30
0.000000
  70
    32
  0
VERTEX
  8
0
  5
9DE8
 10
635.297
 20
315.907
 30
0.000000
  70
    32
  0
VERTEX
  8
0
  5
9DE9
 10
634.968
 20
315.953
 30
0.000000
  70
    32
  0
VERTEX
  8
0
  5
9DEA
 10
634.632
 20
316.005
 30
0.000000
  70
    32
  0
VERTEX
  8
0
  5
9DEB
 10
634.290
 20
316.063
 30
0.000000
  70
    32
  0
VERTEX
  8
0
  5
9DEC
 10
633.941
 20
316.126
 30
0.000000
  70
    32
  0
VERTEX
  8
0
  5
9DED
 10
633.588
 20
316.195
 30
0.000000
  70
    32
  0
VERTEX
  8
0
  5
9DEE
 10
633.229
 20
316.270
 30
0.000000
  70
    32
  0
VERTEX
  8
0
  5
9DEF
 10
632.867
 20
316.350
 30
0.000000
  70
    32
  0
VERTEX
  8
0
  5
9DF0
 10
632.502
 20
316.435
 30
0.000000
  70
    32
  0
VERTEX
  8
0
  5
9DF1
 10
632.133
 20
316.525
 30
0.000000
  70
    32
  0
VERTEX
  8
0
  5
9DF2
 10
631.763
 20
316.620
 30
0.000000
  70
    32
  0
VERTEX
  8
0
  5
9DF3
 10
631.391
 20
316.719
 30
0.000000
  70
    32
  0
VERTEX
  8
0
  5
9DF4
 10
631.019
 20
316.823
 30
0.000000
  70
    32
  0
VERTEX
  8
0
  5
9DF5
 10
630.646
 20
316.932
 30
0.000000
  70
    32
  0
VERTEX
  8
0
  5
9DF6
 10
630.275
 20
317.044
 30
0.000000
  70
    32
  0
VERTEX
  8
0
  5
9DF7
 10
629.904
 20
317.161
 30
0.000000
  70
    32
  0
VERTEX
  8
0
  5
9DF8
 10
629.536
 20
317.281
 30
0.000000
  70
    32
  0
VERTEX
  8
0
  5
9DF9
 10
629.170
 20
317.405
 30
0.000000
  70
    32
  0
VERTEX
  8
0
  5
9DFA
 10
628.807
 20
317.532
 30
0.000000
  70
    32
  0
VERTEX
  8
0
  5
9DFB
 10
628.449
 20
317.662
 30
0.000000
  70
    32
  0
VERTEX
  8
0
  5
9DFC
 10
628.095
 20
317.795
 30
0.000000
  70
    32
  0
VERTEX
  8
0
  5
9DFD
 10
627.746
 20
317.930
 30
0.000000
  70
    32
  0
VERTEX
  8
0
  5
9DFE
 10
627.403
 20
318.068
 30
0.000000
  70
    32
  0
VERTEX
  8
0
  5
9DFF
 10
627.066
 20
318.208
 30
0.000000
  70
    32
  0
VERTEX
  8
0
  5
9E00
 10
626.737
 20
318.350
 30
0.000000
  70
    32
  0
VERTEX
  8
0
  5
9E01
 10
626.415
 20
318.493
 30
0.000000
  70
    32
  0
VERTEX
  8
0
  5
9E02
 10
626.102
 20
318.638
 30
0.000000
  70
    32
  0
VERTEX
  8
0
  5
9E03
 10
625.797
 20
318.784
 30
0.000000
  70
    32
  0
VERTEX
  8
0
  5
9E04
 10
625.501
 20
318.930
 30
0.000000
  70
    32
  0
VERTEX
  8
0
  5
9E05
 10
625.216
 20
319.077
 30
0.000000
  70
    32
  0
VERTEX
  8
0
  5
9E06
 10
624.941
 20
319.225
 30
0.000000
  70
    32
  0
VERTEX
  8
0
  5
9E07
 10
624.677
 20
319.372
 30
0.000000
  70
    32
  0
VERTEX
  8
0
  5
9E08
 10
624.424
 20
319.519
 30
0.000000
  70
    32
  0
VERTEX
  8
0
  5
9E09
 10
624.183
 20
319.666
 30
0.000000
  70
    32
  0
VERTEX
  8
0
  5
9E0A
 10
623.954
 20
319.812
 30
0.000000
  70
    32
  0
VERTEX
  8
0
  5
9E0B
 10
623.738
 20
319.957
 30
0.000000
  70
    32
  0
VERTEX
  8
0
  5
9E0C
 10
623.535
 20
320.100
 30
0.000000
  70
    32
  0
VERTEX
  8
0
  5
9E0D
 10
623.345
 20
320.242
 30
0.000000
  70
    32
  0
VERTEX
  8
0
  5
9E0E
 10
623.169
 20
320.382
 30
0.000000
  70
    32
  0
VERTEX
  8
0
  5
9E0F
 10
623.007
 20
320.520
 30
0.000000
  70
    32
  0
VERTEX
  8
0
  5
9E10
 10
622.860
 20
320.656
 30
0.000000
  70
    32
  0
VERTEX
  8
0
  5
9E11
 10
622.727
 20
320.790
 30
0.000000
  70
    32
  0
VERTEX
  8
0
  5
9E12
 10
622.609
 20
320.920
 30
0.000000
  70
    32
  0
VERTEX
  8
0
  5
9E13
 10
622.506
 20
321.047
 30
0.000000
  70
    32
  0
VERTEX
  8
0
  5
9E14
 10
622.418
 20
321.172
 30
0.000000
  70
    32
  0
VERTEX
  8
0
  5
9E15
 10
622.346
 20
321.292
 30
0.000000
  70
    32
  0
VERTEX
  8
0
  5
9E16
 10
622.289
 20
321.409
 30
0.000000
  70
    32
  0
VERTEX
  8
0
  5
9E17
 10
622.248
 20
321.522
 30
0.000000
  70
    32
  0
VERTEX
  8
0
  5
9E18
 10
622.223
 20
321.631
 30
0.000000
  70
    32
  0
VERTEX
  8
0
  5
9E19
 10
622.213
 20
321.736
 30
0.000000
  70
    32
  0
VERTEX
  8
0
  5
9E1A
 10
622.219
 20
321.836
 30
0.000000
  70
    32
  0
VERTEX
  8
0
  5
9E1B
 10
622.241
 20
321.932
 30
0.000000
  70
    32
  0
VERTEX
  8
0
  5
9E1C
 10
622.279
 20
322.022
 30
0.000000
  70
    32
  0
VERTEX
  8
0
  5
9E1D
 10
622.332
 20
322.108
 30
0.000000
  70
    32
  0
VERTEX
  8
0
  5
9E1E
 10
622.401
 20
322.189
 30
0.000000
  70
    32
  0
VERTEX
  8
0
  5
9E1F
 10
622.486
 20
322.264
 30
0.000000
  70
    32
  0
VERTEX
  8
0
  5
9E20
 10
622.585
 20
322.334
 30
0.000000
  70
    32
  0
VERTEX
  8
0
  5
9E21
 10
622.700
 20
322.398
 30
0.000000
  70
    32
  0
VERTEX
  8
0
  5
9E22
 10
622.830
 20
322.456
 30
0.000000
  70
    32
  0
VERTEX
  8
0
  5
9E23
 10
622.974
 20
322.509
 30
0.000000
  70
    32
  0
VERTEX
  8
0
  5
9E24
 10
623.133
 20
322.556
 30
0.000000
  70
    32
  0
VERTEX
  8
0
  5
9E25
 10
623.306
 20
322.597
 30
0.000000
  70
    32
  0
VERTEX
  8
0
  5
9E26
 10
623.493
 20
322.632
 30
0.000000
  70
    32
  0
VERTEX
  8
0
  5
9E27
 10
623.693
 20
322.660
 30
0.000000
  70
    32
  0
VERTEX
  8
0
  5
9E28
 10
623.906
 20
322.683
 30
0.000000
  70
    32
  0
VERTEX
  8
0
  5
9E29
 10
624.132
 20
322.699
 30
0.000000
  70
    32
  0
VERTEX
  8
0
  5
9E2A
 10
624.371
 20
322.709
 30
0.000000
  70
    32
  0
VERTEX
  8
0
  5
9E2B
 10
624.621
 20
322.713
 30
0.000000
  70
    32
  0
VERTEX
  8
0
  5
9E2C
 10
624.883
 20
322.711
 30
0.000000
  70
    32
  0
VERTEX
  8
0
  5
9E2D
 10
625.156
 20
322.703
 30
0.000000
  70
    32
  0
VERTEX
  8
0
  5
9E2E
 10
625.439
 20
322.688
 30
0.000000
  70
    32
  0
VERTEX
  8
0
  5
9E2F
 10
625.733
 20
322.667
 30
0.000000
  70
    32
  0
VERTEX
  8
0
  5
9E30
 10
626.035
 20
322.640
 30
0.000000
  70
    32
  0
VERTEX
  8
0
  5
9E31
 10
626.347
 20
322.606
 30
0.000000
  70
    32
  0
VERTEX
  8
0
  5
9E32
 10
626.667
 20
322.567
 30
0.000000
  70
    32
  0
VERTEX
  8
0
  5
9E33
 10
626.995
 20
322.522
 30
0.000000
  70
    32
  0
VERTEX
  8
0
  5
9E34
 10
627.330
 20
322.470
 30
0.000000
  70
    32
  0
VERTEX
  8
0
  5
9E35
 10
627.672
 20
322.413
 30
0.000000
  70
    32
  0
VERTEX
  8
0
  5
9E36
 10
628.019
 20
322.351
 30
0.000000
  70
    32
  0
VERTEX
  8
0
  5
9E37
 10
628.372
 20
322.282
 30
0.000000
  70
    32
  0
VERTEX
  8
0
  5
9E38
 10
628.730
 20
322.209
 30
0.000000
  70
    32
  0
VERTEX
  8
0
  5
9E39
 10
629.092
 20
322.129
 30
0.000000
  70
    32
  0
VERTEX
  8
0
  5
9E3A
 10
629.457
 20
322.045
 30
0.000000
  70
    32
  0
VERTEX
  8
0
  5
9E3B
 10
629.825
 20
321.956
 30
0.000000
  70
    32
  0
VERTEX
  8
0
  5
9E3C
 10
630.195
 20
321.861
 30
0.000000
  70
    32
  0
VERTEX
  8
0
  5
9E3D
 10
630.566
 20
321.762
 30
0.000000
  70
    32
  0
VERTEX
  8
0
  5
9E3E
 10
630.939
 20
321.659
 30
0.000000
  70
    32
  0
VERTEX
  8
0
  5
9E3F
 10
631.311
 20
321.551
 30
0.000000
  70
    32
  0
VERTEX
  8
0
  5
9E40
 10
631.683
 20
321.439
 30
0.000000
  70
    32
  0
VERTEX
  8
0
  5
9E41
 10
632.054
 20
321.323
 30
0.000000
  70
    32
  0
VERTEX
  8
0
  5
9E42
 10
632.423
 20
321.203
 30
0.000000
  70
    32
  0
VERTEX
  8
0
  5
9E43
 10
632.789
 20
321.080
 30
0.000000
  70
    32
  0
VERTEX
  8
0
  5
9E44
 10
633.152
 20
320.953
 30
0.000000
  70
    32
  0
VERTEX
  8
0
  5
9E45
 10
633.511
 20
320.824
 30
0.000000
  70
    32
  0
SEQEND
  8
0
  5
9E46
  0
LINE
  5
8B63
  8
0
 10
624.81850217040881
 20
320.82351378592199
 30
0.0
 11
639.01850226279601
 21
320.8235137859221
 31
0.0
  0
POLYLINE
  5
8B64
  8
0
 66
     1
 10
0.0
 20
0.0
 30
0.0
  0
VERTEX
  5
9925
  8
0
 10
639.01850226279601
 20
320.13910182224322
 30
0.0
  0
VERTEX
  5
9926
  8
0
 10
639.30690454456965
 20
320.01270581511898
 30
0.0
  0
VERTEX
  5
9927
  8
0
 10
641.70701801681457
 20
318.82222862152412
 30
0.0
  0
VERTEX
  5
9928
  8
0
 10
642.56812666163603
 20
318.29109254228553
 30
0.0
  0
VERTEX
  5
9929
  8
0
 10
643.66741676250319
 20
317.57680622612838
 30
0.0
  0
VERTEX
  5
992A
  8
0
 10
644.71174005919374
 20
316.58779390096743
 30
0.0
  0
VERTEX
  5
992B
  8
0
 10
645.42627785837988
 20
315.70867197940788
 30
0.0
  0
VERTEX
  5
992C
  8
0
 10
645.54492627694015
 20
315.35791214364849
 30
0.0
  0
VERTEX
  5
992D
  8
0
 10
645.66290768739088
 20
314.63305715712261
 30
0.0
  0
VERTEX
  5
992E
  8
0
 10
645.6685021420966
 20
304.82351843508428
 30
0.0
  0
SEQEND
  5
992F
  8
0
  0
LINE
  5
8B65
  8
0
 10
639.01850226279601
 20
320.8235137859221
 30
0.0
 11
639.01850226279601
 21
315.95945824202067
 31
0.0
  0
POLYLINE
  5
8B66
  8
0
 66
     1
 10
0.0
 20
0.0
 30
0.0
  0
VERTEX
  5
9930
  8
0
 10
595.08923924472435
 20
318.55702463778209
 30
0.0
  0
VERTEX
  5
9931
  8
0
 10
598.30763980648874
 20
316.95423294375001
 30
0.0
  0
VERTEX
  5
9932
  8
0
 10
600.56717112805245
 20
315.82486334831327
 30
0.0
  0
VERTEX
  5
9933
  8
0
 10
603.21777846282441
 20
314.47830784528469
 30
0.0
  0
VERTEX
  5
9934
  8
0
 10
605.49484012873847
 20
313.1740943061954
 30
0.0
  0
VERTEX
  5
9935
  8
0
 10
607.72744531434375
 20
311.74895452344322
 30
0.0
  0
VERTEX
  5
9936
  8
0
 10
610.29722168962155
 20
309.99343499810311
 30
0.0
  0
VERTEX
  5
9937
  8
0
 10
612.9576539875585
 20
307.87181239431271
 30
0.0
  0
VERTEX
  5
9938
  8
0
 10
616.17593205478295
 20
304.82351843508428
 30
0.0
  0
SEQEND
  5
9939
  8
0
  0
POLYLINE
  5
8B67
  8
0
 66
     1
 10
0.0
 20
0.0
 30
0.0
  0
VERTEX
  5
993A
  8
0
 10
639.66286898534997
 20
309.23707846792888
 30
0.0
  0
VERTEX
  5
993B
  8
0
 10
639.66286898534997
 20
309.23707846792888
 30
0.0
  0
VERTEX
  5
993C
  8
0
 10
639.6258556498874
 20
309.55498193526842
 30
0.0
  0
VERTEX
  5
993D
  8
0
 10
639.53089706339472
 20
309.82825035582567
 30
0.0
  0
VERTEX
  5
993E
  8
0
 10
639.40125440813836
 20
310.06323060775662
 30
0.0
  0
VERTEX
  5
993F
  8
0
 10
639.24428491082699
 20
310.32998367331948
 30
0.0
  0
VERTEX
  5
9940
  8
0
 10
638.88496102395266
 20
310.76646931856448
 30
0.0
  0
VERTEX
  5
9941
  8
0
 10
638.47166005506597
 20
311.1862208026368
 30
0.0
  0
VERTEX
  5
9942
  8
0
 10
637.77876695409498
 20
311.74841593470768
 30
0.0
  0
VERTEX
  5
9943
  8
0
 10
637.59377868507283
 20
311.91328814322833
 30
0.0
  0
VERTEX
  5
9944
  8
0
 10
637.1119285080614
 20
312.25215980918028
 30
0.0
  0
VERTEX
  5
9945
  8
0
 10
636.65428930000883
 20
312.5740881532854
 30
0.0
  0
VERTEX
  5
9946
  8
0
 10
635.61633569751223
 20
313.20017272047841
 30
0.0
  0
VERTEX
  5
9947
  8
0
 10
634.62908783872399
 20
313.72229397466839
 30
0.0
  0
VERTEX
  5
9948
  8
0
 10
633.62242653589237
 20
314.1616673444687
 30
0.0
  0
VERTEX
  5
9949
  8
0
 10
633.42917233507853
 20
314.24752780113818
 30
0.0
  0
VERTEX
  5
994A
  8
0
 10
631.92071751569665
 20
314.76269054115602
 30
0.0
  0
VERTEX
  5
994B
  8
0
 10
629.3020462379269
 20
315.64659832038677
 30
0.0
  0
VERTEX
  5
994C
  8
0
 10
627.10627535817548
 20
316.48678890424731
 30
0.0
  0
VERTEX
  5
994D
  8
0
 10
624.01728679418829
 20
317.88307105026092
 30
0.0
  0
VERTEX
  5
994E
  8
0
 10
621.52836108526219
 20
319.21876196353043
 30
0.0
  0
VERTEX
  5
994F
  8
0
 10
619.77301437892868
 20
320.39731176969121
 30
0.0
  0
VERTEX
  5
9950
  8
0
 10
618.93464087842369
 20
321.15682254532572
 30
0.0
  0
VERTEX
  5
9951
  8
0
 10
618.69792635676811
 20
321.43955656224477
 30
0.0
  0
VERTEX
  5
9952
  8
0
 10
618.55756111316543
 20
321.61944412403909
 30
0.0
  0
VERTEX
  5
9953
  8
0
 10
618.32675440103333
 20
322.03005528665841
 30
0.0
  0
VERTEX
  5
9954
  8
0
 10
618.17963625248774
 20
322.42478493841833
 30
0.0
  0
VERTEX
  5
9955
  8
0
 10
616.59589018035877
 20
323.61581739448638
 30
0.0
  0
VERTEX
  5
9956
  8
0
 10
615.06614319654136
 20
324.7010645457467
 30
0.0
  0
VERTEX
  5
9957
  8
0
 10
613.26498680570114
 20
325.71231718682321
 30
0.0
  0
VERTEX
  5
9958
  8
0
 10
611.63654350146589
 20
326.64957531771603
 30
0.0
  0
VERTEX
  5
9959
  8
0
 10
609.88473527083454
 20
327.4635110079746
 30
0.0
  0
VERTEX
  5
995A
  8
0
 10
608.15760002548234
 20
328.30211066345851
 30
0.0
  0
VERTEX
  5
995B
  8
0
 10
606.40578960519997
 20
329.0420518435335
 30
0.0
  0
VERTEX
  5
995C
  8
0
 10
604.35790117191721
 20
329.85598753379207
 30
0.0
  0
VERTEX
  5
995D
  8
0
 10
602.06327631688976
 20
330.66992322405099
 30
0.0
  0
VERTEX
  5
995E
  8
0
 10
598.37610799753395
 20
331.85504851890028
 30
0.0
  0
VERTEX
  5
995F
  8
0
 10
595.08923792699113
 20
332.87681689751611
 30
0.0
  0
SEQEND
  5
9960
  8
0
  0
POLYLINE
  5
8B68
  8
0
 66
     1
 10
0.0
 20
0.0
 30
0.0
  0
VERTEX
  5
9961
  8
0
 10
645.66290768739088
 20
314.63305715712261
 30
0.0
  0
VERTEX
  5
9962
  8
0
 10
645.60606351708748
 20
314.35472656831672
 30
0.0
  0
VERTEX
  5
9963
  8
0
 10
645.5634266365978
 20
314.17997413245888
 30
0.0
  0
VERTEX
  5
9964
  8
0
 10
645.49520587609402
 20
314.00095874061458
 30
0.0
  0
VERTEX
  5
9965
  8
0
 10
645.41839949478083
 20
313.75283012581548
 30
0.0
  0
VERTEX
  5
9966
  8
0
 10
645.29962407647383
 20
313.50744805211679
 30
0.0
  0
VERTEX
  5
9967
  8
0
 10
645.22571898247816
 20
313.35177499148881
 30
0.0
  0
VERTEX
  5
9968
  8
0
 10
644.97585354973239
 20
312.8461212186121
 30
0.0
  0
VERTEX
  5
9969
  8
0
 10
644.80063550260581
 20
312.53680264863959
 30
0.0
  0
VERTEX
  5
996A
  8
0
 10
644.49494492256736
 20
312.00207292757119
 30
0.0
  0
VERTEX
  5
996B
  8
0
 10
644.27905411172389
 20
311.64940057889891
 30
0.0
  0
VERTEX
  5
996C
  8
0
 10
644.06316330088032
 20
311.29146261025949
 30
0.0
  0
VERTEX
  5
996D
  8
0
 10
643.74632958789164
 20
310.71254246779517
 30
0.0
  0
VERTEX
  5
996E
  8
0
 10
643.52102546823414
 20
310.23706404390299
 30
0.0
  0
VERTEX
  5
996F
  8
0
 10
643.35413247347071
 20
309.8116364620405
 30
0.0
  0
VERTEX
  5
9970
  8
0
 10
643.28016078975304
 20
309.23707846792888
 30
0.0
  0
SEQEND
  5
9971
  8
0
  0
POLYLINE
  5
8B69
  8
0
 66
     1
 10
0.0
 20
0.0
 30
0.0
  0
VERTEX
  5
9972
  8
0
 10
606.56895040478821
 20
332.87681702765178
 30
0.0
  0
VERTEX
  5
9973
  8
0
 10
608.65049918045963
 20
332.04853521487581
 30
0.0
  0
VERTEX
  5
9974
  8
0
 10
610.97025246813348
 20
331.07708715731218
 30
0.0
  0
VERTEX
  5
9975
  8
0
 10
615.20223437342065
 20
329.25954103410248
 30
0.0
  0
VERTEX
  5
9976
  8
0
 10
619.46556331964257
 20
327.50466859959738
 30
0.0
  0
VERTEX
  5
9977
  8
0
 10
624.5751003369528
 20
325.47326483802073
 30
0.0
  0
VERTEX
  5
9978
  8
0
 10
631.12005574152442
 20
322.94940272758708
 30
0.0
  0
SEQEND
  5
9979
  8
0
  0
LINE
  5
8B6A
  8
0
 10
645.42557316776617
 20
304.82351843508428
 30
0.0
 11
645.42557316776617
 21
287.8235137859221
 31
0.0
  0
LINE
  5
8B6B
  8
0
 10
618.42557339873417
 20
304.82351843508428
 30
0.0
 11
618.42557339873417
 21
287.8235137859221
 31
0.0
  0
LINE
  5
8B6D
  8
0
 10
639.66286898534997
 20
309.23707846792888
 30
0.0
 11
643.28016078975304
 21
309.23707846792888
 31
0.0
  0
LINE
  5
8B6E
  8
0
 10
618.17963625248774
 20
304.82351843508428
 30
0.0
 11
616.17593205478295
 21
304.82351843508428
 31
0.0
  0
LINE
  5
8B6F
  8
0
 10
645.6685021420966
 20
304.82351843508428
 30
0.0
 11
643.28016078975304
 21
304.82351843508428
 31
0.0
  0
LINE
  5
8B70
  8
0
 10
639.66286898534997
 20
304.82351843508428
 30
0.0
 11
641.47151465472086
 21
304.82351843508428
 31
0.0
  0
LINE
  5
8B71
  8
0
 10
643.28016078975304
 20
304.82351843508428
 30
0.0
 11
643.28016078975304
 21
309.23707846792888
 31
0.0
  0
LINE
  5
8B72
  8
0
 10
641.47151465472086
 20
304.82351843508428
 30
0.0
 11
643.28016078975304
 21
304.82351843508428
 31
0.0
  0
LINE
  5
8B73
  8
0
 10
639.66286898534997
 20
304.82351843508428
 30
0.0
 11
618.17963625248774
 21
304.82351843508428
 31
0.0
  0
LINE
  5
8B75
  8
0
 10
639.66286898534997
 20
309.23707846792888
 30
0.0
 11
639.66286898534997
 21
304.82351843508428
 31
0.0
  0
POLYLINE
  5
8B76
  8
0
 66
     1
 10
0.0
 20
0.0
 30
0.0
  0
VERTEX
  5
997A
  8
0
 10
573.93574615930561
 20
340.2526729684223
 30
0.0
  0
VERTEX
  5
997B
  8
0
 10
571.52955717351574
 20
340.47240827473348
 30
0.0
  0
VERTEX
  5
997C
  8
0
 10
563.19127715137131
 20
340.49749437960338
 30
0.0
  0
SEQEND
  5
997D
  8
0
  0
POLYLINE
  5
8B77
  8
0
 66
     1
 10
0.0
 20
0.0
 30
0.0
  0
VERTEX
  5
997E
  8
0
 10
563.28110880162842
 20
340.484858194911
 30
0.0
  0
VERTEX
  5
997F
  8
0
 10
563.08786640484834
 20
340.47124338976079
 30
0.0
  0
VERTEX
  5
9980
  8
0
 10
562.93760599760537
 20
340.408782783493
 30
0.0
  0
VERTEX
  5
9981
  8
0
 10
562.87880949416933
 20
340.25917407515641
 30
0.0
  0
VERTEX
  5
9982
  8
0
 10
562.83955014255173
 20
340.03402356299108
 30
0.0
  0
VERTEX
  5
9983
  8
0
 10
562.83955014255173
 20
331.5531319776411
 30
0.0
  0
VERTEX
  5
9984
  8
0
 10
562.82817600893725
 20
330.86186474554728
 30
0.0
  0
VERTEX
  5
9985
  8
0
 10
563.0185201638302
 20
330.18724575121109
 30
0.0
  0
VERTEX
  5
9986
  8
0
 10
563.27807918069266
 20
329.58181841508241
 30
0.0
  0
VERTEX
  5
9987
  8
0
 10
563.6933749214636
 20
329.11477439536861
 30
0.0
  0
VERTEX
  5
9988
  8
0
 10
564.09136804156697
 20
328.82070886754627
 30
0.0
  0
VERTEX
  5
9989
  8
0
 10
564.46272618081684
 20
328.55470542105388
 30
0.0
  0
SEQEND
  5
998A
  8
0
  0
POLYLINE
  5
8B78
  8
0
 66
     1
 10
0.0
 20
0.0
 30
0.0
  0
VERTEX
  5
998B
  8
0
 10
564.74335974958058
 20
340.25266830118852
 30
0.0
  0
VERTEX
  5
998C
  8
0
 10
563.28110880162842
 20
340.484858194911
 30
0.0
  0
VERTEX
  5
998D
  8
0
 10
563.28110880162842
 20
340.484858194911
 30
0.0
  0
SEQEND
  5
998E
  8
0
  0
LINE
  5
8B79
  8
0
 10
563.28110880162842
 20
340.484858194911
 30
0.0
 11
571.69440126922257
 21
340.484858194911
 31
0.0
  0
POLYLINE
  5
8B7A
  8
0
 10
564.7433580038803
 20
328.41751050173497
 30
0.0
 66
     1
 70
     8
  0
VERTEX
  8
0
  5
9E47
 10
564.743
 20
328.418
 30
0.000000
  70
    32
  0
VERTEX
  8
0
  5
9E48
 10
564.741
 20
328.419
 30
0.000000
  70
    32
  0
VERTEX
  8
0
  5
9E49
 10
564.739
 20
328.420
 30
0.000000
  70
    32
  0
VERTEX
  8
0
  5
9E4A
 10
564.737
 20
328.421
 30
0.000000
  70
    32
  0
VERTEX
  8
0
  5
9E4B
 10
564.734
 20
328.422
 30
0.000000
  70
    32
  0
VERTEX
  8
0
  5
9E4C
 10
564.732
 20
328.423
 30
0.000000
  70
    32
  0
VERTEX
  8
0
  5
9E4D
 10
564.730
 20
328.424
 30
0.000000
  70
    32
  0
VERTEX
  8
0
  5
9E4E
 10
564.728
 20
328.425
 30
0.000000
  70
    32
  0
VERTEX
  8
0
  5
9E4F
 10
564.725
 20
328.426
 30
0.000000
  70
    32
  0
VERTEX
  8
0
  5
9E50
 10
564.723
 20
328.427
 30
0.000000
  70
    32
  0
VERTEX
  8
0
  5
9E51
 10
564.721
 20
328.428
 30
0.000000
  70
    32
  0
VERTEX
  8
0
  5
9E52
 10
564.719
 20
328.429
 30
0.000000
  70
    32
  0
VERTEX
  8
0
  5
9E53
 10
564.716
 20
328.430
 30
0.000000
  70
    32
  0
VERTEX
  8
0
  5
9E54
 10
564.714
 20
328.431
 30
0.000000
  70
    32
  0
VERTEX
  8
0
  5
9E55
 10
564.712
 20
328.433
 30
0.000000
  70
    32
  0
VERTEX
  8
0
  5
9E56
 10
564.710
 20
328.434
 30
0.000000
  70
    32
  0
VERTEX
  8
0
  5
9E57
 10
564.707
 20
328.435
 30
0.000000
  70
    32
  0
VERTEX
  8
0
  5
9E58
 10
564.705
 20
328.436
 30
0.000000
  70
    32
  0
VERTEX
  8
0
  5
9E59
 10
564.703
 20
328.437
 30
0.000000
  70
    32
  0
VERTEX
  8
0
  5
9E5A
 10
564.701
 20
328.438
 30
0.000000
  70
    32
  0
VERTEX
  8
0
  5
9E5B
 10
564.698
 20
328.439
 30
0.000000
  70
    32
  0
VERTEX
  8
0
  5
9E5C
 10
564.696
 20
328.440
 30
0.000000
  70
    32
  0
VERTEX
  8
0
  5
9E5D
 10
564.694
 20
328.441
 30
0.000000
  70
    32
  0
VERTEX
  8
0
  5
9E5E
 10
564.692
 20
328.442
 30
0.000000
  70
    32
  0
VERTEX
  8
0
  5
9E5F
 10
564.689
 20
328.443
 30
0.000000
  70
    32
  0
VERTEX
  8
0
  5
9E60
 10
564.687
 20
328.444
 30
0.000000
  70
    32
  0
VERTEX
  8
0
  5
9E61
 10
564.685
 20
328.445
 30
0.000000
  70
    32
  0
VERTEX
  8
0
  5
9E62
 10
564.683
 20
328.446
 30
0.000000
  70
    32
  0
VERTEX
  8
0
  5
9E63
 10
564.680
 20
328.448
 30
0.000000
  70
    32
  0
VERTEX
  8
0
  5
9E64
 10
564.678
 20
328.449
 30
0.000000
  70
    32
  0
VERTEX
  8
0
  5
9E65
 10
564.676
 20
328.450
 30
0.000000
  70
    32
  0
VERTEX
  8
0
  5
9E66
 10
564.674
 20
328.451
 30
0.000000
  70
    32
  0
VERTEX
  8
0
  5
9E67
 10
564.671
 20
328.452
 30
0.000000
  70
    32
  0
VERTEX
  8
0
  5
9E68
 10
564.669
 20
328.453
 30
0.000000
  70
    32
  0
VERTEX
  8
0
  5
9E69
 10
564.667
 20
328.454
 30
0.000000
  70
    32
  0
VERTEX
  8
0
  5
9E6A
 10
564.665
 20
328.455
 30
0.000000
  70
    32
  0
VERTEX
  8
0
  5
9E6B
 10
564.663
 20
328.456
 30
0.000000
  70
    32
  0
VERTEX
  8
0
  5
9E6C
 10
564.660
 20
328.457
 30
0.000000
  70
    32
  0
VERTEX
  8
0
  5
9E6D
 10
564.658
 20
328.458
 30
0.000000
  70
    32
  0
VERTEX
  8
0
  5
9E6E
 10
564.656
 20
328.459
 30
0.000000
  70
    32
  0
VERTEX
  8
0
  5
9E6F
 10
564.654
 20
328.460
 30
0.000000
  70
    32
  0
VERTEX
  8
0
  5
9E70
 10
564.651
 20
328.461
 30
0.000000
  70
    32
  0
VERTEX
  8
0
  5
9E71
 10
564.649
 20
328.463
 30
0.000000
  70
    32
  0
VERTEX
  8
0
  5
9E72
 10
564.647
 20
328.464
 30
0.000000
  70
    32
  0
VERTEX
  8
0
  5
9E73
 10
564.645
 20
328.465
 30
0.000000
  70
    32
  0
VERTEX
  8
0
  5
9E74
 10
564.643
 20
328.466
 30
0.000000
  70
    32
  0
VERTEX
  8
0
  5
9E75
 10
564.640
 20
328.467
 30
0.000000
  70
    32
  0
VERTEX
  8
0
  5
9E76
 10
564.638
 20
328.468
 30
0.000000
  70
    32
  0
VERTEX
  8
0
  5
9E77
 10
564.636
 20
328.469
 30
0.000000
  70
    32
  0
VERTEX
  8
0
  5
9E78
 10
564.634
 20
328.470
 30
0.000000
  70
    32
  0
VERTEX
  8
0
  5
9E79
 10
564.631
 20
328.471
 30
0.000000
  70
    32
  0
VERTEX
  8
0
  5
9E7A
 10
564.629
 20
328.472
 30
0.000000
  70
    32
  0
VERTEX
  8
0
  5
9E7B
 10
564.627
 20
328.473
 30
0.000000
  70
    32
  0
VERTEX
  8
0
  5
9E7C
 10
564.625
 20
328.474
 30
0.000000
  70
    32
  0
VERTEX
  8
0
  5
9E7D
 10
564.623
 20
328.475
 30
0.000000
  70
    32
  0
VERTEX
  8
0
  5
9E7E
 10
564.620
 20
328.476
 30
0.000000
  70
    32
  0
VERTEX
  8
0
  5
9E7F
 10
564.618
 20
328.478
 30
0.000000
  70
    32
  0
VERTEX
  8
0
  5
9E80
 10
564.616
 20
328.479
 30
0.000000
  70
    32
  0
VERTEX
  8
0
  5
9E81
 10
564.614
 20
328.480
 30
0.000000
  70
    32
  0
VERTEX
  8
0
  5
9E82
 10
564.612
 20
328.481
 30
0.000000
  70
    32
  0
VERTEX
  8
0
  5
9E83
 10
564.609
 20
328.482
 30
0.000000
  70
    32
  0
VERTEX
  8
0
  5
9E84
 10
564.607
 20
328.483
 30
0.000000
  70
    32
  0
VERTEX
  8
0
  5
9E85
 10
564.605
 20
328.484
 30
0.000000
  70
    32
  0
VERTEX
  8
0
  5
9E86
 10
564.603
 20
328.485
 30
0.000000
  70
    32
  0
VERTEX
  8
0
  5
9E87
 10
564.601
 20
328.486
 30
0.000000
  70
    32
  0
VERTEX
  8
0
  5
9E88
 10
564.598
 20
328.487
 30
0.000000
  70
    32
  0
VERTEX
  8
0
  5
9E89
 10
564.596
 20
328.488
 30
0.000000
  70
    32
  0
VERTEX
  8
0
  5
9E8A
 10
564.594
 20
328.489
 30
0.000000
  70
    32
  0
VERTEX
  8
0
  5
9E8B
 10
564.592
 20
328.490
 30
0.000000
  70
    32
  0
VERTEX
  8
0
  5
9E8C
 10
564.590
 20
328.492
 30
0.000000
  70
    32
  0
VERTEX
  8
0
  5
9E8D
 10
564.588
 20
328.493
 30
0.000000
  70
    32
  0
VERTEX
  8
0
  5
9E8E
 10
564.585
 20
328.494
 30
0.000000
  70
    32
  0
VERTEX
  8
0
  5
9E8F
 10
564.583
 20
328.495
 30
0.000000
  70
    32
  0
VERTEX
  8
0
  5
9E90
 10
564.581
 20
328.496
 30
0.000000
  70
    32
  0
VERTEX
  8
0
  5
9E91
 10
564.579
 20
328.497
 30
0.000000
  70
    32
  0
VERTEX
  8
0
  5
9E92
 10
564.577
 20
328.498
 30
0.000000
  70
    32
  0
VERTEX
  8
0
  5
9E93
 10
564.574
 20
328.499
 30
0.000000
  70
    32
  0
VERTEX
  8
0
  5
9E94
 10
564.572
 20
328.500
 30
0.000000
  70
    32
  0
VERTEX
  8
0
  5
9E95
 10
564.570
 20
328.501
 30
0.000000
  70
    32
  0
VERTEX
  8
0
  5
9E96
 10
564.568
 20
328.502
 30
0.000000
  70
    32
  0
VERTEX
  8
0
  5
9E97
 10
564.566
 20
328.503
 30
0.000000
  70
    32
  0
VERTEX
  8
0
  5
9E98
 10
564.564
 20
328.504
 30
0.000000
  70
    32
  0
VERTEX
  8
0
  5
9E99
 10
564.561
 20
328.505
 30
0.000000
  70
    32
  0
VERTEX
  8
0
  5
9E9A
 10
564.559
 20
328.507
 30
0.000000
  70
    32
  0
VERTEX
  8
0
  5
9E9B
 10
564.557
 20
328.508
 30
0.000000
  70
    32
  0
VERTEX
  8
0
  5
9E9C
 10
564.555
 20
328.509
 30
0.000000
  70
    32
  0
VERTEX
  8
0
  5
9E9D
 10
564.553
 20
328.510
 30
0.000000
  70
    32
  0
VERTEX
  8
0
  5
9E9E
 10
564.551
 20
328.511
 30
0.000000
  70
    32
  0
VERTEX
  8
0
  5
9E9F
 10
564.548
 20
328.512
 30
0.000000
  70
    32
  0
VERTEX
  8
0
  5
9EA0
 10
564.546
 20
328.513
 30
0.000000
  70
    32
  0
VERTEX
  8
0
  5
9EA1
 10
564.544
 20
328.514
 30
0.000000
  70
    32
  0
VERTEX
  8
0
  5
9EA2
 10
564.542
 20
328.515
 30
0.000000
  70
    32
  0
VERTEX
  8
0
  5
9EA3
 10
564.540
 20
328.516
 30
0.000000
  70
    32
  0
VERTEX
  8
0
  5
9EA4
 10
564.538
 20
328.517
 30
0.000000
  70
    32
  0
VERTEX
  8
0
  5
9EA5
 10
564.535
 20
328.518
 30
0.000000
  70
    32
  0
VERTEX
  8
0
  5
9EA6
 10
564.533
 20
328.519
 30
0.000000
  70
    32
  0
VERTEX
  8
0
  5
9EA7
 10
564.531
 20
328.520
 30
0.000000
  70
    32
  0
VERTEX
  8
0
  5
9EA8
 10
564.529
 20
328.522
 30
0.000000
  70
    32
  0
VERTEX
  8
0
  5
9EA9
 10
564.527
 20
328.523
 30
0.000000
  70
    32
  0
VERTEX
  8
0
  5
9EAA
 10
564.525
 20
328.524
 30
0.000000
  70
    32
  0
VERTEX
  8
0
  5
9EAB
 10
564.522
 20
328.525
 30
0.000000
  70
    32
  0
VERTEX
  8
0
  5
9EAC
 10
564.520
 20
328.526
 30
0.000000
  70
    32
  0
VERTEX
  8
0
  5
9EAD
 10
564.518
 20
328.527
 30
0.000000
  70
    32
  0
VERTEX
  8
0
  5
9EAE
 10
564.516
 20
328.528
 30
0.000000
  70
    32
  0
VERTEX
  8
0
  5
9EAF
 10
564.514
 20
328.529
 30
0.000000
  70
    32
  0
VERTEX
  8
0
  5
9EB0
 10
564.512
 20
328.530
 30
0.000000
  70
    32
  0
VERTEX
  8
0
  5
9EB1
 10
564.510
 20
328.531
 30
0.000000
  70
    32
  0
VERTEX
  8
0
  5
9EB2
 10
564.507
 20
328.532
 30
0.000000
  70
    32
  0
VERTEX
  8
0
  5
9EB3
 10
564.505
 20
328.533
 30
0.000000
  70
    32
  0
VERTEX
  8
0
  5
9EB4
 10
564.503
 20
328.534
 30
0.000000
  70
    32
  0
VERTEX
  8
0
  5
9EB5
 10
564.501
 20
328.535
 30
0.000000
  70
    32
  0
VERTEX
  8
0
  5
9EB6
 10
564.499
 20
328.537
 30
0.000000
  70
    32
  0
VERTEX
  8
0
  5
9EB7
 10
564.497
 20
328.538
 30
0.000000
  70
    32
  0
VERTEX
  8
0
  5
9EB8
 10
564.495
 20
328.539
 30
0.000000
  70
    32
  0
VERTEX
  8
0
  5
9EB9
 10
564.492
 20
328.540
 30
0.000000
  70
    32
  0
VERTEX
  8
0
  5
9EBA
 10
564.490
 20
328.541
 30
0.000000
  70
    32
  0
VERTEX
  8
0
  5
9EBB
 10
564.488
 20
328.542
 30
0.000000
  70
    32
  0
VERTEX
  8
0
  5
9EBC
 10
564.486
 20
328.543
 30
0.000000
  70
    32
  0
VERTEX
  8
0
  5
9EBD
 10
564.484
 20
328.544
 30
0.000000
  70
    32
  0
VERTEX
  8
0
  5
9EBE
 10
564.482
 20
328.545
 30
0.000000
  70
    32
  0
VERTEX
  8
0
  5
9EBF
 10
564.480
 20
328.546
 30
0.000000
  70
    32
  0
VERTEX
  8
0
  5
9EC0
 10
564.478
 20
328.547
 30
0.000000
  70
    32
  0
VERTEX
  8
0
  5
9EC1
 10
564.475
 20
328.548
 30
0.000000
  70
    32
  0
VERTEX
  8
0
  5
9EC2
 10
564.473
 20
328.549
 30
0.000000
  70
    32
  0
VERTEX
  8
0
  5
9EC3
 10
564.471
 20
328.550
 30
0.000000
  70
    32
  0
VERTEX
  8
0
  5
9EC4
 10
564.469
 20
328.551
 30
0.000000
  70
    32
  0
VERTEX
  8
0
  5
9EC5
 10
564.467
 20
328.553
 30
0.000000
  70
    32
  0
VERTEX
  8
0
  5
9EC6
 10
564.465
 20
328.554
 30
0.000000
  70
    32
  0
VERTEX
  8
0
  5
9EC7
 10
564.463
 20
328.555
 30
0.000000
  70
    32
  0
SEQEND
  8
0
  5
9EC8
  0
POLYLINE
  5
8B7B
  8
0
 10
577.93956368492695
 20
326.47397112831254
 30
0.0
 66
     1
 70
     8
  0
VERTEX
  8
0
  5
9EC9
 10
577.940
 20
326.474
 30
0.000000
  70
    32
  0
VERTEX
  8
0
  5
9ECA
 10
578.076
 20
326.422
 30
0.000000
  70
    32
  0
VERTEX
  8
0
  5
9ECB
 10
578.212
 20
326.371
 30
0.000000
  70
    32
  0
VERTEX
  8
0
  5
9ECC
 10
578.348
 20
326.319
 30
0.000000
  70
    32
  0
VERTEX
  8
0
  5
9ECD
 10
578.484
 20
326.267
 30
0.000000
  70
    32
  0
VERTEX
  8
0
  5
9ECE
 10
578.620
 20
326.214
 30
0.000000
  70
    32
  0
VERTEX
  8
0
  5
9ECF
 10
578.755
 20
326.162
 30
0.000000
  70
    32
  0
VERTEX
  8
0
  5
9ED0
 10
578.891
 20
326.109
 30
0.000000
  70
    32
  0
VERTEX
  8
0
  5
9ED1
 10
579.027
 20
326.057
 30
0.000000
  70
    32
  0
VERTEX
  8
0
  5
9ED2
 10
579.163
 20
326.004
 30
0.000000
  70
    32
  0
VERTEX
  8
0
  5
9ED3
 10
579.299
 20
325.951
 30
0.000000
  70
    32
  0
VERTEX
  8
0
  5
9ED4
 10
579.435
 20
325.897
 30
0.000000
  70
    32
  0
VERTEX
  8
0
  5
9ED5
 10
579.570
 20
325.844
 30
0.000000
  70
    32
  0
VERTEX
  8
0
  5
9ED6
 10
579.706
 20
325.791
 30
0.000000
  70
    32
  0
VERTEX
  8
0
  5
9ED7
 10
579.842
 20
325.737
 30
0.000000
  70
    32
  0
VERTEX
  8
0
  5
9ED8
 10
579.977
 20
325.683
 30
0.000000
  70
    32
  0
VERTEX
  8
0
  5
9ED9
 10
580.113
 20
325.629
 30
0.000000
  70
    32
  0
VERTEX
  8
0
  5
9EDA
 10
580.248
 20
325.575
 30
0.000000
  70
    32
  0
VERTEX
  8
0
  5
9EDB
 10
580.384
 20
325.520
 30
0.000000
  70
    32
  0
VERTEX
  8
0
  5
9EDC
 10
580.520
 20
325.466
 30
0.000000
  70
    32
  0
VERTEX
  8
0
  5
9EDD
 10
580.655
 20
325.411
 30
0.000000
  70
    32
  0
VERTEX
  8
0
  5
9EDE
 10
580.790
 20
325.356
 30
0.000000
  70
    32
  0
VERTEX
  8
0
  5
9EDF
 10
580.926
 20
325.301
 30
0.000000
  70
    32
  0
VERTEX
  8
0
  5
9EE0
 10
581.061
 20
325.246
 30
0.000000
  70
    32
  0
VERTEX
  8
0
  5
9EE1
 10
581.197
 20
325.191
 30
0.000000
  70
    32
  0
VERTEX
  8
0
  5
9EE2
 10
581.332
 20
325.135
 30
0.000000
  70
    32
  0
VERTEX
  8
0
  5
9EE3
 10
581.467
 20
325.080
 30
0.000000
  70
    32
  0
VERTEX
  8
0
  5
9EE4
 10
581.603
 20
325.024
 30
0.000000
  70
    32
  0
VERTEX
  8
0
  5
9EE5
 10
581.738
 20
324.968
 30
0.000000
  70
    32
  0
VERTEX
  8
0
  5
9EE6
 10
581.873
 20
324.912
 30
0.000000
  70
    32
  0
VERTEX
  8
0
  5
9EE7
 10
582.008
 20
324.855
 30
0.000000
  70
    32
  0
VERTEX
  8
0
  5
9EE8
 10
582.143
 20
324.799
 30
0.000000
  70
    32
  0
VERTEX
  8
0
  5
9EE9
 10
582.278
 20
324.742
 30
0.000000
  70
    32
  0
VERTEX
  8
0
  5
9EEA
 10
582.414
 20
324.685
 30
0.000000
  70
    32
  0
VERTEX
  8
0
  5
9EEB
 10
582.549
 20
324.629
 30
0.000000
  70
    32
  0
VERTEX
  8
0
  5
9EEC
 10
582.684
 20
324.571
 30
0.000000
  70
    32
  0
VERTEX
  8
0
  5
9EED
 10
582.819
 20
324.514
 30
0.000000
  70
    32
  0
VERTEX
  8
0
  5
9EEE
 10
582.954
 20
324.457
 30
0.000000
  70
    32
  0
VERTEX
  8
0
  5
9EEF
 10
583.088
 20
324.399
 30
0.000000
  70
    32
  0
VERTEX
  8
0
  5
9EF0
 10
583.223
 20
324.341
 30
0.000000
  70
    32
  0
VERTEX
  8
0
  5
9EF1
 10
583.358
 20
324.283
 30
0.000000
  70
    32
  0
VERTEX
  8
0
  5
9EF2
 10
583.493
 20
324.225
 30
0.000000
  70
    32
  0
VERTEX
  8
0
  5
9EF3
 10
583.628
 20
324.167
 30
0.000000
  70
    32
  0
VERTEX
  8
0
  5
9EF4
 10
583.763
 20
324.109
 30
0.000000
  70
    32
  0
VERTEX
  8
0
  5
9EF5
 10
583.897
 20
324.050
 30
0.000000
  70
    32
  0
VERTEX
  8
0
  5
9EF6
 10
584.032
 20
323.991
 30
0.000000
  70
    32
  0
VERTEX
  8
0
  5
9EF7
 10
584.167
 20
323.932
 30
0.000000
  70
    32
  0
VERTEX
  8
0
  5
9EF8
 10
584.301
 20
323.873
 30
0.000000
  70
    32
  0
VERTEX
  8
0
  5
9EF9
 10
584.436
 20
323.814
 30
0.000000
  70
    32
  0
VERTEX
  8
0
  5
9EFA
 10
584.570
 20
323.755
 30
0.000000
  70
    32
  0
VERTEX
  8
0
  5
9EFB
 10
584.705
 20
323.695
 30
0.000000
  70
    32
  0
VERTEX
  8
0
  5
9EFC
 10
584.840
 20
323.635
 30
0.000000
  70
    32
  0
VERTEX
  8
0
  5
9EFD
 10
584.974
 20
323.576
 30
0.000000
  70
    32
  0
VERTEX
  8
0
  5
9EFE
 10
585.108
 20
323.516
 30
0.000000
  70
    32
  0
VERTEX
  8
0
  5
9EFF
 10
585.243
 20
323.455
 30
0.000000
  70
    32
  0
VERTEX
  8
0
  5
9F00
 10
585.377
 20
323.395
 30
0.000000
  70
    32
  0
VERTEX
  8
0
  5
9F01
 10
585.512
 20
323.335
 30
0.000000
  70
    32
  0
VERTEX
  8
0
  5
9F02
 10
585.646
 20
323.274
 30
0.000000
  70
    32
  0
VERTEX
  8
0
  5
9F03
 10
585.780
 20
323.213
 30
0.000000
  70
    32
  0
VERTEX
  8
0
  5
9F04
 10
585.914
 20
323.152
 30
0.000000
  70
    32
  0
VERTEX
  8
0
  5
9F05
 10
586.049
 20
323.091
 30
0.000000
  70
    32
  0
VERTEX
  8
0
  5
9F06
 10
586.183
 20
323.030
 30
0.000000
  70
    32
  0
VERTEX
  8
0
  5
9F07
 10
586.317
 20
322.968
 30
0.000000
  70
    32
  0
VERTEX
  8
0
  5
9F08
 10
586.451
 20
322.906
 30
0.000000
  70
    32
  0
VERTEX
  8
0
  5
9F09
 10
586.585
 20
322.845
 30
0.000000
  70
    32
  0
VERTEX
  8
0
  5
9F0A
 10
586.719
 20
322.783
 30
0.000000
  70
    32
  0
VERTEX
  8
0
  5
9F0B
 10
586.853
 20
322.721
 30
0.000000
  70
    32
  0
VERTEX
  8
0
  5
9F0C
 10
586.987
 20
322.658
 30
0.000000
  70
    32
  0
VERTEX
  8
0
  5
9F0D
 10
587.121
 20
322.596
 30
0.000000
  70
    32
  0
VERTEX
  8
0
  5
9F0E
 10
587.255
 20
322.533
 30
0.000000
  70
    32
  0
VERTEX
  8
0
  5
9F0F
 10
587.389
 20
322.470
 30
0.000000
  70
    32
  0
VERTEX
  8
0
  5
9F10
 10
587.522
 20
322.408
 30
0.000000
  70
    32
  0
VERTEX
  8
0
  5
9F11
 10
587.656
 20
322.344
 30
0.000000
  70
    32
  0
VERTEX
  8
0
  5
9F12
 10
587.790
 20
322.281
 30
0.000000
  70
    32
  0
VERTEX
  8
0
  5
9F13
 10
587.924
 20
322.218
 30
0.000000
  70
    32
  0
VERTEX
  8
0
  5
9F14
 10
588.057
 20
322.154
 30
0.000000
  70
    32
  0
VERTEX
  8
0
  5
9F15
 10
588.191
 20
322.091
 30
0.000000
  70
    32
  0
VERTEX
  8
0
  5
9F16
 10
588.325
 20
322.027
 30
0.000000
  70
    32
  0
VERTEX
  8
0
  5
9F17
 10
588.458
 20
321.963
 30
0.000000
  70
    32
  0
VERTEX
  8
0
  5
9F18
 10
588.592
 20
321.898
 30
0.000000
  70
    32
  0
VERTEX
  8
0
  5
9F19
 10
588.725
 20
321.834
 30
0.000000
  70
    32
  0
VERTEX
  8
0
  5
9F1A
 10
588.859
 20
321.770
 30
0.000000
  70
    32
  0
VERTEX
  8
0
  5
9F1B
 10
588.992
 20
321.705
 30
0.000000
  70
    32
  0
VERTEX
  8
0
  5
9F1C
 10
589.125
 20
321.640
 30
0.000000
  70
    32
  0
VERTEX
  8
0
  5
9F1D
 10
589.259
 20
321.575
 30
0.000000
  70
    32
  0
VERTEX
  8
0
  5
9F1E
 10
589.392
 20
321.510
 30
0.000000
  70
    32
  0
VERTEX
  8
0
  5
9F1F
 10
589.525
 20
321.444
 30
0.000000
  70
    32
  0
VERTEX
  8
0
  5
9F20
 10
589.659
 20
321.379
 30
0.000000
  70
    32
  0
VERTEX
  8
0
  5
9F21
 10
589.792
 20
321.313
 30
0.000000
  70
    32
  0
VERTEX
  8
0
  5
9F22
 10
589.925
 20
321.248
 30
0.000000
  70
    32
  0
VERTEX
  8
0
  5
9F23
 10
590.058
 20
321.182
 30
0.000000
  70
    32
  0
VERTEX
  8
0
  5
9F24
 10
590.191
 20
321.115
 30
0.000000
  70
    32
  0
VERTEX
  8
0
  5
9F25
 10
590.324
 20
321.049
 30
0.000000
  70
    32
  0
VERTEX
  8
0
  5
9F26
 10
590.457
 20
320.983
 30
0.000000
  70
    32
  0
VERTEX
  8
0
  5
9F27
 10
590.590
 20
320.916
 30
0.000000
  70
    32
  0
VERTEX
  8
0
  5
9F28
 10
590.723
 20
320.849
 30
0.000000
  70
    32
  0
VERTEX
  8
0
  5
9F29
 10
590.856
 20
320.782
 30
0.000000
  70
    32
  0
VERTEX
  8
0
  5
9F2A
 10
590.989
 20
320.715
 30
0.000000
  70
    32
  0
VERTEX
  8
0
  5
9F2B
 10
591.122
 20
320.648
 30
0.000000
  70
    32
  0
VERTEX
  8
0
  5
9F2C
 10
591.255
 20
320.581
 30
0.000000
  70
    32
  0
VERTEX
  8
0
  5
9F2D
 10
591.387
 20
320.513
 30
0.000000
  70
    32
  0
VERTEX
  8
0
  5
9F2E
 10
591.520
 20
320.445
 30
0.000000
  70
    32
  0
VERTEX
  8
0
  5
9F2F
 10
591.653
 20
320.378
 30
0.000000
  70
    32
  0
VERTEX
  8
0
  5
9F30
 10
591.786
 20
320.310
 30
0.000000
  70
    32
  0
VERTEX
  8
0
  5
9F31
 10
591.918
 20
320.241
 30
0.000000
  70
    32
  0
VERTEX
  8
0
  5
9F32
 10
592.051
 20
320.173
 30
0.000000
  70
    32
  0
VERTEX
  8
0
  5
9F33
 10
592.183
 20
320.104
 30
0.000000
  70
    32
  0
VERTEX
  8
0
  5
9F34
 10
592.316
 20
320.036
 30
0.000000
  70
    32
  0
VERTEX
  8
0
  5
9F35
 10
592.448
 20
319.967
 30
0.000000
  70
    32
  0
VERTEX
  8
0
  5
9F36
 10
592.581
 20
319.898
 30
0.000000
  70
    32
  0
VERTEX
  8
0
  5
9F37
 10
592.713
 20
319.829
 30
0.000000
  70
    32
  0
VERTEX
  8
0
  5
9F38
 10
592.845
 20
319.760
 30
0.000000
  70
    32
  0
VERTEX
  8
0
  5
9F39
 10
592.978
 20
319.690
 30
0.000000
  70
    32
  0
VERTEX
  8
0
  5
9F3A
 10
593.110
 20
319.620
 30
0.000000
  70
    32
  0
VERTEX
  8
0
  5
9F3B
 10
593.242
 20
319.551
 30
0.000000
  70
    32
  0
VERTEX
  8
0
  5
9F3C
 10
593.374
 20
319.481
 30
0.000000
  70
    32
  0
VERTEX
  8
0
  5
9F3D
 10
593.507
 20
319.411
 30
0.000000
  70
    32
  0
VERTEX
  8
0
  5
9F3E
 10
593.639
 20
319.340
 30
0.000000
  70
    32
  0
VERTEX
  8
0
  5
9F3F
 10
593.771
 20
319.270
 30
0.000000
  70
    32
  0
VERTEX
  8
0
  5
9F40
 10
593.903
 20
319.199
 30
0.000000
  70
    32
  0
VERTEX
  8
0
  5
9F41
 10
594.035
 20
319.129
 30
0.000000
  70
    32
  0
VERTEX
  8
0
  5
9F42
 10
594.167
 20
319.058
 30
0.000000
  70
    32
  0
VERTEX
  8
0
  5
9F43
 10
594.299
 20
318.987
 30
0.000000
  70
    32
  0
VERTEX
  8
0
  5
9F44
 10
594.430
 20
318.915
 30
0.000000
  70
    32
  0
VERTEX
  8
0
  5
9F45
 10
594.562
 20
318.844
 30
0.000000
  70
    32
  0
VERTEX
  8
0
  5
9F46
 10
594.694
 20
318.773
 30
0.000000
  70
    32
  0
VERTEX
  8
0
  5
9F47
 10
594.826
 20
318.701
 30
0.000000
  70
    32
  0
VERTEX
  8
0
  5
9F48
 10
594.958
 20
318.629
 30
0.000000
  70
    32
  0
VERTEX
  8
0
  5
9F49
 10
595.089
 20
318.557
 30
0.000000
  70
    32
  0
SEQEND
  8
0
  5
9F4A
  0
POLYLINE
  5
8B7C
  8
0
 10
576.22379220492303
 20
326.79351497801485
 30
0.0
 66
     1
 70
     8
  0
VERTEX
  8
0
  5
9F4B
 10
576.224
 20
326.794
 30
0.000000
  70
    32
  0
VERTEX
  8
0
  5
9F4C
 10
576.237
 20
326.793
 30
0.000000
  70
    32
  0
VERTEX
  8
0
  5
9F4D
 10
576.251
 20
326.793
 30
0.000000
  70
    32
  0
VERTEX
  8
0
  5
9F4E
 10
576.264
 20
326.793
 30
0.000000
  70
    32
  0
VERTEX
  8
0
  5
9F4F
 10
576.278
 20
326.793
 30
0.000000
  70
    32
  0
VERTEX
  8
0
  5
9F50
 10
576.292
 20
326.793
 30
0.000000
  70
    32
  0
VERTEX
  8
0
  5
9F51
 10
576.305
 20
326.793
 30
0.000000
  70
    32
  0
VERTEX
  8
0
  5
9F52
 10
576.319
 20
326.793
 30
0.000000
  70
    32
  0
VERTEX
  8
0
  5
9F53
 10
576.332
 20
326.792
 30
0.000000
  70
    32
  0
VERTEX
  8
0
  5
9F54
 10
576.346
 20
326.792
 30
0.000000
  70
    32
  0
VERTEX
  8
0
  5
9F55
 10
576.359
 20
326.792
 30
0.000000
  70
    32
  0
VERTEX
  8
0
  5
9F56
 10
576.373
 20
326.791
 30
0.000000
  70
    32
  0
VERTEX
  8
0
  5
9F57
 10
576.386
 20
326.791
 30
0.000000
  70
    32
  0
VERTEX
  8
0
  5
9F58
 10
576.400
 20
326.790
 30
0.000000
  70
    32
  0
VERTEX
  8
0
  5
9F59
 10
576.413
 20
326.790
 30
0.000000
  70
    32
  0
VERTEX
  8
0
  5
9F5A
 10
576.427
 20
326.789
 30
0.000000
  70
    32
  0
VERTEX
  8
0
  5
9F5B
 10
576.441
 20
326.788
 30
0.000000
  70
    32
  0
VERTEX
  8
0
  5
9F5C
 10
576.454
 20
326.788
 30
0.000000
  70
    32
  0
VERTEX
  8
0
  5
9F5D
 10
576.468
 20
326.787
 30
0.000000
  70
    32
  0
VERTEX
  8
0
  5
9F5E
 10
576.481
 20
326.786
 30
0.000000
  70
    32
  0
VERTEX
  8
0
  5
9F5F
 10
576.495
 20
326.786
 30
0.000000
  70
    32
  0
VERTEX
  8
0
  5
9F60
 10
576.508
 20
326.785
 30
0.000000
  70
    32
  0
VERTEX
  8
0
  5
9F61
 10
576.522
 20
326.784
 30
0.000000
  70
    32
  0
VERTEX
  8
0
  5
9F62
 10
576.535
 20
326.783
 30
0.000000
  70
    32
  0
VERTEX
  8
0
  5
9F63
 10
576.549
 20
326.782
 30
0.000000
  70
    32
  0
VERTEX
  8
0
  5
9F64
 10
576.562
 20
326.781
 30
0.000000
  70
    32
  0
VERTEX
  8
0
  5
9F65
 10
576.576
 20
326.780
 30
0.000000
  70
    32
  0
VERTEX
  8
0
  5
9F66
 10
576.589
 20
326.779
 30
0.000000
  70
    32
  0
VERTEX
  8
0
  5
9F67
 10
576.603
 20
326.778
 30
0.000000
  70
    32
  0
VERTEX
  8
0
  5
9F68
 10
576.616
 20
326.777
 30
0.000000
  70
    32
  0
VERTEX
  8
0
  5
9F69
 10
576.630
 20
326.776
 30
0.000000
  70
    32
  0
VERTEX
  8
0
  5
9F6A
 10
576.644
 20
326.775
 30
0.000000
  70
    32
  0
VERTEX
  8
0
  5
9F6B
 10
576.657
 20
326.773
 30
0.000000
  70
    32
  0
VERTEX
  8
0
  5
9F6C
 10
576.671
 20
326.772
 30
0.000000
  70
    32
  0
VERTEX
  8
0
  5
9F6D
 10
576.684
 20
326.771
 30
0.000000
  70
    32
  0
VERTEX
  8
0
  5
9F6E
 10
576.698
 20
326.770
 30
0.000000
  70
    32
  0
VERTEX
  8
0
  5
9F6F
 10
576.711
 20
326.768
 30
0.000000
  70
    32
  0
VERTEX
  8
0
  5
9F70
 10
576.725
 20
326.767
 30
0.000000
  70
    32
  0
VERTEX
  8
0
  5
9F71
 10
576.738
 20
326.765
 30
0.000000
  70
    32
  0
VERTEX
  8
0
  5
9F72
 10
576.752
 20
326.764
 30
0.000000
  70
    32
  0
VERTEX
  8
0
  5
9F73
 10
576.765
 20
326.762
 30
0.000000
  70
    32
  0
VERTEX
  8
0
  5
9F74
 10
576.779
 20
326.761
 30
0.000000
  70
    32
  0
VERTEX
  8
0
  5
9F75
 10
576.792
 20
326.759
 30
0.000000
  70
    32
  0
VERTEX
  8
0
  5
9F76
 10
576.806
 20
326.757
 30
0.000000
  70
    32
  0
VERTEX
  8
0
  5
9F77
 10
576.819
 20
326.756
 30
0.000000
  70
    32
  0
VERTEX
  8
0
  5
9F78
 10
576.833
 20
326.754
 30
0.000000
  70
    32
  0
VERTEX
  8
0
  5
9F79
 10
576.846
 20
326.752
 30
0.000000
  70
    32
  0
VERTEX
  8
0
  5
9F7A
 10
576.860
 20
326.750
 30
0.000000
  70
    32
  0
VERTEX
  8
0
  5
9F7B
 10
576.873
 20
326.748
 30
0.000000
  70
    32
  0
VERTEX
  8
0
  5
9F7C
 10
576.887
 20
326.746
 30
0.000000
  70
    32
  0
VERTEX
  8
0
  5
9F7D
 10
576.900
 20
326.745
 30
0.000000
  70
    32
  0
VERTEX
  8
0
  5
9F7E
 10
576.914
 20
326.743
 30
0.000000
  70
    32
  0
VERTEX
  8
0
  5
9F7F
 10
576.927
 20
326.741
 30
0.000000
  70
    32
  0
VERTEX
  8
0
  5
9F80
 10
576.941
 20
326.738
 30
0.000000
  70
    32
  0
VERTEX
  8
0
  5
9F81
 10
576.954
 20
326.736
 30
0.000000
  70
    32
  0
VERTEX
  8
0
  5
9F82
 10
576.967
 20
326.734
 30
0.000000
  70
    32
  0
VERTEX
  8
0
  5
9F83
 10
576.981
 20
326.732
 30
0.000000
  70
    32
  0
VERTEX
  8
0
  5
9F84
 10
576.994
 20
326.730
 30
0.000000
  70
    32
  0
VERTEX
  8
0
  5
9F85
 10
577.008
 20
326.728
 30
0.000000
  70
    32
  0
VERTEX
  8
0
  5
9F86
 10
577.021
 20
326.725
 30
0.000000
  70
    32
  0
VERTEX
  8
0
  5
9F87
 10
577.035
 20
326.723
 30
0.000000
  70
    32
  0
VERTEX
  8
0
  5
9F88
 10
577.048
 20
326.721
 30
0.000000
  70
    32
  0
VERTEX
  8
0
  5
9F89
 10
577.062
 20
326.718
 30
0.000000
  70
    32
  0
VERTEX
  8
0
  5
9F8A
 10
577.075
 20
326.716
 30
0.000000
  70
    32
  0
VERTEX
  8
0
  5
9F8B
 10
577.089
 20
326.713
 30
0.000000
  70
    32
  0
VERTEX
  8
0
  5
9F8C
 10
577.102
 20
326.711
 30
0.000000
  70
    32
  0
VERTEX
  8
0
  5
9F8D
 10
577.115
 20
326.708
 30
0.000000
  70
    32
  0
VERTEX
  8
0
  5
9F8E
 10
577.129
 20
326.706
 30
0.000000
  70
    32
  0
VERTEX
  8
0
  5
9F8F
 10
577.142
 20
326.703
 30
0.000000
  70
    32
  0
VERTEX
  8
0
  5
9F90
 10
577.156
 20
326.700
 30
0.000000
  70
    32
  0
VERTEX
  8
0
  5
9F91
 10
577.169
 20
326.698
 30
0.000000
  70
    32
  0
VERTEX
  8
0
  5
9F92
 10
577.183
 20
326.695
 30
0.000000
  70
    32
  0
VERTEX
  8
0
  5
9F93
 10
577.196
 20
326.692
 30
0.000000
  70
    32
  0
VERTEX
  8
0
  5
9F94
 10
577.209
 20
326.689
 30
0.000000
  70
    32
  0
VERTEX
  8
0
  5
9F95
 10
577.223
 20
326.686
 30
0.000000
  70
    32
  0
VERTEX
  8
0
  5
9F96
 10
577.236
 20
326.683
 30
0.000000
  70
    32
  0
VERTEX
  8
0
  5
9F97
 10
577.250
 20
326.680
 30
0.000000
  70
    32
  0
VERTEX
  8
0
  5
9F98
 10
577.263
 20
326.677
 30
0.000000
  70
    32
  0
VERTEX
  8
0
  5
9F99
 10
577.276
 20
326.674
 30
0.000000
  70
    32
  0
VERTEX
  8
0
  5
9F9A
 10
577.290
 20
326.671
 30
0.000000
  70
    32
  0
VERTEX
  8
0
  5
9F9B
 10
577.303
 20
326.668
 30
0.000000
  70
    32
  0
VERTEX
  8
0
  5
9F9C
 10
577.317
 20
326.665
 30
0.000000
  70
    32
  0
VERTEX
  8
0
  5
9F9D
 10
577.330
 20
326.662
 30
0.000000
  70
    32
  0
VERTEX
  8
0
  5
9F9E
 10
577.343
 20
326.659
 30
0.000000
  70
    32
  0
VERTEX
  8
0
  5
9F9F
 10
577.357
 20
326.655
 30
0.000000
  70
    32
  0
VERTEX
  8
0
  5
9FA0
 10
577.370
 20
326.652
 30
0.000000
  70
    32
  0
VERTEX
  8
0
  5
9FA1
 10
577.383
 20
326.649
 30
0.000000
  70
    32
  0
VERTEX
  8
0
  5
9FA2
 10
577.397
 20
326.645
 30
0.000000
  70
    32
  0
VERTEX
  8
0
  5
9FA3
 10
577.410
 20
326.642
 30
0.000000
  70
    32
  0
VERTEX
  8
0
  5
9FA4
 10
577.423
 20
326.639
 30
0.000000
  70
    32
  0
VERTEX
  8
0
  5
9FA5
 10
577.437
 20
326.635
 30
0.000000
  70
    32
  0
VERTEX
  8
0
  5
9FA6
 10
577.450
 20
326.632
 30
0.000000
  70
    32
  0
VERTEX
  8
0
  5
9FA7
 10
577.463
 20
326.628
 30
0.000000
  70
    32
  0
VERTEX
  8
0
  5
9FA8
 10
577.477
 20
326.624
 30
0.000000
  70
    32
  0
VERTEX
  8
0
  5
9FA9
 10
577.490
 20
326.621
 30
0.000000
  70
    32
  0
VERTEX
  8
0
  5
9FAA
 10
577.503
 20
326.617
 30
0.000000
  70
    32
  0
VERTEX
  8
0
  5
9FAB
 10
577.517
 20
326.613
 30
0.000000
  70
    32
  0
VERTEX
  8
0
  5
9FAC
 10
577.530
 20
326.610
 30
0.000000
  70
    32
  0
VERTEX
  8
0
  5
9FAD
 10
577.543
 20
326.606
 30
0.000000
  70
    32
  0
VERTEX
  8
0
  5
9FAE
 10
577.557
 20
326.602
 30
0.000000
  70
    32
  0
VERTEX
  8
0
  5
9FAF
 10
577.570
 20
326.598
 30
0.000000
  70
    32
  0
VERTEX
  8
0
  5
9FB0
 10
577.583
 20
326.594
 30
0.000000
  70
    32
  0
VERTEX
  8
0
  5
9FB1
 10
577.596
 20
326.590
 30
0.000000
  70
    32
  0
VERTEX
  8
0
  5
9FB2
 10
577.610
 20
326.586
 30
0.000000
  70
    32
  0
VERTEX
  8
0
  5
9FB3
 10
577.623
 20
326.582
 30
0.000000
  70
    32
  0
VERTEX
  8
0
  5
9FB4
 10
577.636
 20
326.578
 30
0.000000
  70
    32
  0
VERTEX
  8
0
  5
9FB5
 10
577.649
 20
326.574
 30
0.000000
  70
    32
  0
VERTEX
  8
0
  5
9FB6
 10
577.663
 20
326.570
 30
0.000000
  70
    32
  0
VERTEX
  8
0
  5
9FB7
 10
577.676
 20
326.566
 30
0.000000
  70
    32
  0
VERTEX
  8
0
  5
9FB8
 10
577.689
 20
326.561
 30
0.000000
  70
    32
  0
VERTEX
  8
0
  5
9FB9
 10
577.702
 20
326.557
 30
0.000000
  70
    32
  0
VERTEX
  8
0
  5
9FBA
 10
577.716
 20
326.553
 30
0.000000
  70
    32
  0
VERTEX
  8
0
  5
9FBB
 10
577.729
 20
326.549
 30
0.000000
  70
    32
  0
VERTEX
  8
0
  5
9FBC
 10
577.742
 20
326.544
 30
0.000000
  70
    32
  0
VERTEX
  8
0
  5
9FBD
 10
577.755
 20
326.540
 30
0.000000
  70
    32
  0
VERTEX
  8
0
  5
9FBE
 10
577.768
 20
326.535
 30
0.000000
  70
    32
  0
VERTEX
  8
0
  5
9FBF
 10
577.782
 20
326.531
 30
0.000000
  70
    32
  0
VERTEX
  8
0
  5
9FC0
 10
577.795
 20
326.526
 30
0.000000
  70
    32
  0
VERTEX
  8
0
  5
9FC1
 10
577.808
 20
326.522
 30
0.000000
  70
    32
  0
VERTEX
  8
0
  5
9FC2
 10
577.821
 20
326.517
 30
0.000000
  70
    32
  0
VERTEX
  8
0
  5
9FC3
 10
577.834
 20
326.512
 30
0.000000
  70
    32
  0
VERTEX
  8
0
  5
9FC4
 10
577.848
 20
326.508
 30
0.000000
  70
    32
  0
VERTEX
  8
0
  5
9FC5
 10
577.861
 20
326.503
 30
0.000000
  70
    32
  0
VERTEX
  8
0
  5
9FC6
 10
577.874
 20
326.498
 30
0.000000
  70
    32
  0
VERTEX
  8
0
  5
9FC7
 10
577.887
 20
326.494
 30
0.000000
  70
    32
  0
VERTEX
  8
0
  5
9FC8
 10
577.900
 20
326.489
 30
0.000000
  70
    32
  0
VERTEX
  8
0
  5
9FC9
 10
577.913
 20
326.484
 30
0.000000
  70
    32
  0
VERTEX
  8
0
  5
9FCA
 10
577.926
 20
326.479
 30
0.000000
  70
    32
  0
VERTEX
  8
0
  5
9FCB
 10
577.940
 20
326.474
 30
0.000000
  70
    32
  0
SEQEND
  8
0
  5
9FCC
  0
LINE
  5
8B7D
  8
0
 10
576.22379175331707
 20
326.79352227839178
 30
0.0
 11
569.53561789300556
 21
326.79352227839178
 31
0.0
  0
POLYLINE
  5
8B7E
  8
0
 10
569.53561696221902
 20
326.79351497801491
 30
0.0
 66
     1
 70
     8
  0
VERTEX
  8
0
  5
9FCD
 10
569.536
 20
326.794
 30
0.000000
  70
    32
  0
VERTEX
  8
0
  5
9FCE
 10
569.513
 20
326.794
 30
0.000000
  70
    32
  0
VERTEX
  8
0
  5
9FCF
 10
569.490
 20
326.794
 30
0.000000
  70
    32
  0
VERTEX
  8
0
  5
9FD0
 10
569.467
 20
326.794
 30
0.000000
  70
    32
  0
VERTEX
  8
0
  5
9FD1
 10
569.444
 20
326.794
 30
0.000000
  70
    32
  0
VERTEX
  8
0
  5
9FD2
 10
569.420
 20
326.795
 30
0.000000
  70
    32
  0
VERTEX
  8
0
  5
9FD3
 10
569.397
 20
326.795
 30
0.000000
  70
    32
  0
VERTEX
  8
0
  5
9FD4
 10
569.374
 20
326.796
 30
0.000000
  70
    32
  0
VERTEX
  8
0
  5
9FD5
 10
569.351
 20
326.796
 30
0.000000
  70
    32
  0
VERTEX
  8
0
  5
9FD6
 10
569.328
 20
326.797
 30
0.000000
  70
    32
  0
VERTEX
  8
0
  5
9FD7
 10
569.305
 20
326.798
 30
0.000000
  70
    32
  0
VERTEX
  8
0
  5
9FD8
 10
569.282
 20
326.799
 30
0.000000
  70
    32
  0
VERTEX
  8
0
  5
9FD9
 10
569.259
 20
326.800
 30
0.000000
  70
    32
  0
VERTEX
  8
0
  5
9FDA
 10
569.236
 20
326.801
 30
0.000000
  70
    32
  0
VERTEX
  8
0
  5
9FDB
 10
569.213
 20
326.802
 30
0.000000
  70
    32
  0
VERTEX
  8
0
  5
9FDC
 10
569.190
 20
326.803
 30
0.000000
  70
    32
  0
VERTEX
  8
0
  5
9FDD
 10
569.167
 20
326.804
 30
0.000000
  70
    32
  0
VERTEX
  8
0
  5
9FDE
 10
569.144
 20
326.806
 30
0.000000
  70
    32
  0
VERTEX
  8
0
  5
9FDF
 10
569.121
 20
326.807
 30
0.000000
  70
    32
  0
VERTEX
  8
0
  5
9FE0
 10
569.098
 20
326.809
 30
0.000000
  70
    32
  0
VERTEX
  8
0
  5
9FE1
 10
569.075
 20
326.811
 30
0.000000
  70
    32
  0
VERTEX
  8
0
  5
9FE2
 10
569.052
 20
326.812
 30
0.000000
  70
    32
  0
VERTEX
  8
0
  5
9FE3
 10
569.029
 20
326.814
 30
0.000000
  70
    32
  0
VERTEX
  8
0
  5
9FE4
 10
569.006
 20
326.816
 30
0.000000
  70
    32
  0
VERTEX
  8
0
  5
9FE5
 10
568.983
 20
326.818
 30
0.000000
  70
    32
  0
VERTEX
  8
0
  5
9FE6
 10
568.960
 20
326.820
 30
0.000000
  70
    32
  0
VERTEX
  8
0
  5
9FE7
 10
568.937
 20
326.822
 30
0.000000
  70
    32
  0
VERTEX
  8
0
  5
9FE8
 10
568.914
 20
326.825
 30
0.000000
  70
    32
  0
VERTEX
  8
0
  5
9FE9
 10
568.891
 20
326.827
 30
0.000000
  70
    32
  0
VERTEX
  8
0
  5
9FEA
 10
568.868
 20
326.829
 30
0.000000
  70
    32
  0
VERTEX
  8
0
  5
9FEB
 10
568.845
 20
326.832
 30
0.000000
  70
    32
  0
VERTEX
  8
0
  5
9FEC
 10
568.822
 20
326.834
 30
0.000000
  70
    32
  0
VERTEX
  8
0
  5
9FED
 10
568.799
 20
326.837
 30
0.000000
  70
    32
  0
VERTEX
  8
0
  5
9FEE
 10
568.777
 20
326.840
 30
0.000000
  70
    32
  0
VERTEX
  8
0
  5
9FEF
 10
568.754
 20
326.843
 30
0.000000
  70
    32
  0
VERTEX
  8
0
  5
9FF0
 10
568.731
 20
326.846
 30
0.000000
  70
    32
  0
VERTEX
  8
0
  5
9FF1
 10
568.708
 20
326.849
 30
0.000000
  70
    32
  0
VERTEX
  8
0
  5
9FF2
 10
568.685
 20
326.852
 30
0.000000
  70
    32
  0
VERTEX
  8
0
  5
9FF3
 10
568.662
 20
326.855
 30
0.000000
  70
    32
  0
VERTEX
  8
0
  5
9FF4
 10
568.639
 20
326.858
 30
0.000000
  70
    32
  0
VERTEX
  8
0
  5
9FF5
 10
568.616
 20
326.862
 30
0.000000
  70
    32
  0
VERTEX
  8
0
  5
9FF6
 10
568.593
 20
326.865
 30
0.000000
  70
    32
  0
VERTEX
  8
0
  5
9FF7
 10
568.570
 20
326.869
 30
0.000000
  70
    32
  0
VERTEX
  8
0
  5
9FF8
 10
568.547
 20
326.872
 30
0.000000
  70
    32
  0
VERTEX
  8
0
  5
9FF9
 10
568.524
 20
326.876
 30
0.000000
  70
    32
  0
VERTEX
  8
0
  5
9FFA
 10
568.502
 20
326.880
 30
0.000000
  70
    32
  0
VERTEX
  8
0
  5
9FFB
 10
568.479
 20
326.884
 30
0.000000
  70
    32
  0
VERTEX
  8
0
  5
9FFC
 10
568.456
 20
326.888
 30
0.000000
  70
    32
  0
VERTEX
  8
0
  5
9FFD
 10
568.433
 20
326.892
 30
0.000000
  70
    32
  0
VERTEX
  8
0
  5
9FFE
 10
568.410
 20
326.896
 30
0.000000
  70
    32
  0
VERTEX
  8
0
  5
9FFF
 10
568.387
 20
326.900
 30
0.000000
  70
    32
  0
VERTEX
  8
0
  5
A000
 10
568.364
 20
326.904
 30
0.000000
  70
    32
  0
VERTEX
  8
0
  5
A001
 10
568.342
 20
326.909
 30
0.000000
  70
    32
  0
VERTEX
  8
0
  5
A002
 10
568.319
 20
326.913
 30
0.000000
  70
    32
  0
VERTEX
  8
0
  5
A003
 10
568.296
 20
326.918
 30
0.000000
  70
    32
  0
VERTEX
  8
0
  5
A004
 10
568.273
 20
326.922
 30
0.000000
  70
    32
  0
VERTEX
  8
0
  5
A005
 10
568.250
 20
326.927
 30
0.000000
  70
    32
  0
VERTEX
  8
0
  5
A006
 10
568.227
 20
326.932
 30
0.000000
  70
    32
  0
VERTEX
  8
0
  5
A007
 10
568.205
 20
326.937
 30
0.000000
  70
    32
  0
VERTEX
  8
0
  5
A008
 10
568.182
 20
326.942
 30
0.000000
  70
    32
  0
VERTEX
  8
0
  5
A009
 10
568.159
 20
326.947
 30
0.000000
  70
    32
  0
VERTEX
  8
0
  5
A00A
 10
568.136
 20
326.952
 30
0.000000
  70
    32
  0
VERTEX
  8
0
  5
A00B
 10
568.114
 20
326.957
 30
0.000000
  70
    32
  0
VERTEX
  8
0
  5
A00C
 10
568.091
 20
326.962
 30
0.000000
  70
    32
  0
VERTEX
  8
0
  5
A00D
 10
568.068
 20
326.968
 30
0.000000
  70
    32
  0
VERTEX
  8
0
  5
A00E
 10
568.045
 20
326.973
 30
0.000000
  70
    32
  0
VERTEX
  8
0
  5
A00F
 10
568.023
 20
326.979
 30
0.000000
  70
    32
  0
VERTEX
  8
0
  5
A010
 10
568.000
 20
326.985
 30
0.000000
  70
    32
  0
VERTEX
  8
0
  5
A011
 10
567.977
 20
326.990
 30
0.000000
  70
    32
  0
VERTEX
  8
0
  5
A012
 10
567.955
 20
326.996
 30
0.000000
  70
    32
  0
VERTEX
  8
0
  5
A013
 10
567.932
 20
327.002
 30
0.000000
  70
    32
  0
VERTEX
  8
0
  5
A014
 10
567.909
 20
327.008
 30
0.000000
  70
    32
  0
VERTEX
  8
0
  5
A015
 10
567.887
 20
327.014
 30
0.000000
  70
    32
  0
VERTEX
  8
0
  5
A016
 10
567.864
 20
327.020
 30
0.000000
  70
    32
  0
VERTEX
  8
0
  5
A017
 10
567.841
 20
327.026
 30
0.000000
  70
    32
  0
VERTEX
  8
0
  5
A018
 10
567.819
 20
327.033
 30
0.000000
  70
    32
  0
VERTEX
  8
0
  5
A019
 10
567.796
 20
327.039
 30
0.000000
  70
    32
  0
VERTEX
  8
0
  5
A01A
 10
567.774
 20
327.046
 30
0.000000
  70
    32
  0
VERTEX
  8
0
  5
A01B
 10
567.751
 20
327.052
 30
0.000000
  70
    32
  0
VERTEX
  8
0
  5
A01C
 10
567.728
 20
327.059
 30
0.000000
  70
    32
  0
VERTEX
  8
0
  5
A01D
 10
567.706
 20
327.066
 30
0.000000
  70
    32
  0
VERTEX
  8
0
  5
A01E
 10
567.683
 20
327.072
 30
0.000000
  70
    32
  0
VERTEX
  8
0
  5
A01F
 10
567.661
 20
327.079
 30
0.000000
  70
    32
  0
VERTEX
  8
0
  5
A020
 10
567.638
 20
327.086
 30
0.000000
  70
    32
  0
VERTEX
  8
0
  5
A021
 10
567.616
 20
327.093
 30
0.000000
  70
    32
  0
VERTEX
  8
0
  5
A022
 10
567.593
 20
327.100
 30
0.000000
  70
    32
  0
VERTEX
  8
0
  5
A023
 10
567.571
 20
327.108
 30
0.000000
  70
    32
  0
VERTEX
  8
0
  5
A024
 10
567.548
 20
327.115
 30
0.000000
  70
    32
  0
VERTEX
  8
0
  5
A025
 10
567.526
 20
327.122
 30
0.000000
  70
    32
  0
VERTEX
  8
0
  5
A026
 10
567.503
 20
327.130
 30
0.000000
  70
    32
  0
VERTEX
  8
0
  5
A027
 10
567.481
 20
327.137
 30
0.000000
  70
    32
  0
VERTEX
  8
0
  5
A028
 10
567.458
 20
327.145
 30
0.000000
  70
    32
  0
VERTEX
  8
0
  5
A029
 10
567.436
 20
327.153
 30
0.000000
  70
    32
  0
VERTEX
  8
0
  5
A02A
 10
567.414
 20
327.161
 30
0.000000
  70
    32
  0
VERTEX
  8
0
  5
A02B
 10
567.391
 20
327.169
 30
0.000000
  70
    32
  0
VERTEX
  8
0
  5
A02C
 10
567.369
 20
327.177
 30
0.000000
  70
    32
  0
VERTEX
  8
0
  5
A02D
 10
567.346
 20
327.185
 30
0.000000
  70
    32
  0
VERTEX
  8
0
  5
A02E
 10
567.324
 20
327.193
 30
0.000000
  70
    32
  0
VERTEX
  8
0
  5
A02F
 10
567.302
 20
327.201
 30
0.000000
  70
    32
  0
VERTEX
  8
0
  5
A030
 10
567.279
 20
327.209
 30
0.000000
  70
    32
  0
VERTEX
  8
0
  5
A031
 10
567.257
 20
327.218
 30
0.000000
  70
    32
  0
VERTEX
  8
0
  5
A032
 10
567.235
 20
327.226
 30
0.000000
  70
    32
  0
VERTEX
  8
0
  5
A033
 10
567.213
 20
327.235
 30
0.000000
  70
    32
  0
VERTEX
  8
0
  5
A034
 10
567.190
 20
327.243
 30
0.000000
  70
    32
  0
VERTEX
  8
0
  5
A035
 10
567.168
 20
327.252
 30
0.000000
  70
    32
  0
VERTEX
  8
0
  5
A036
 10
567.146
 20
327.261
 30
0.000000
  70
    32
  0
VERTEX
  8
0
  5
A037
 10
567.124
 20
327.270
 30
0.000000
  70
    32
  0
VERTEX
  8
0
  5
A038
 10
567.101
 20
327.279
 30
0.000000
  70
    32
  0
VERTEX
  8
0
  5
A039
 10
567.079
 20
327.288
 30
0.000000
  70
    32
  0
VERTEX
  8
0
  5
A03A
 10
567.057
 20
327.297
 30
0.000000
  70
    32
  0
VERTEX
  8
0
  5
A03B
 10
567.035
 20
327.306
 30
0.000000
  70
    32
  0
VERTEX
  8
0
  5
A03C
 10
567.013
 20
327.316
 30
0.000000
  70
    32
  0
VERTEX
  8
0
  5
A03D
 10
566.991
 20
327.325
 30
0.000000
  70
    32
  0
VERTEX
  8
0
  5
A03E
 10
566.968
 20
327.334
 30
0.000000
  70
    32
  0
VERTEX
  8
0
  5
A03F
 10
566.946
 20
327.344
 30
0.000000
  70
    32
  0
VERTEX
  8
0
  5
A040
 10
566.924
 20
327.354
 30
0.000000
  70
    32
  0
VERTEX
  8
0
  5
A041
 10
566.902
 20
327.363
 30
0.000000
  70
    32
  0
VERTEX
  8
0
  5
A042
 10
566.880
 20
327.373
 30
0.000000
  70
    32
  0
VERTEX
  8
0
  5
A043
 10
566.858
 20
327.383
 30
0.000000
  70
    32
  0
VERTEX
  8
0
  5
A044
 10
566.836
 20
327.393
 30
0.000000
  70
    32
  0
VERTEX
  8
0
  5
A045
 10
566.814
 20
327.403
 30
0.000000
  70
    32
  0
VERTEX
  8
0
  5
A046
 10
566.792
 20
327.413
 30
0.000000
  70
    32
  0
VERTEX
  8
0
  5
A047
 10
566.770
 20
327.423
 30
0.000000
  70
    32
  0
VERTEX
  8
0
  5
A048
 10
566.748
 20
327.434
 30
0.000000
  70
    32
  0
VERTEX
  8
0
  5
A049
 10
566.726
 20
327.444
 30
0.000000
  70
    32
  0
VERTEX
  8
0
  5
A04A
 10
566.705
 20
327.454
 30
0.000000
  70
    32
  0
VERTEX
  8
0
  5
A04B
 10
566.683
 20
327.465
 30
0.000000
  70
    32
  0
VERTEX
  8
0
  5
A04C
 10
566.661
 20
327.476
 30
0.000000
  70
    32
  0
VERTEX
  8
0
  5
A04D
 10
566.639
 20
327.486
 30
0.000000
  70
    32
  0
SEQEND
  8
0
  5
A04E
  0
LINE
  5
8B7F
  8
0
 10
566.63892901446945
 20
327.48620275648778
 30
0.0
 11
564.74335974958058
 21
328.41751042994213
 31
0.0
  0
POLYLINE
  5
8B80
  8
0
 10
573.93574615930572
 20
340.2526729684223
 30
0.0
 66
     1
 70
     8
  0
VERTEX
  8
0
  5
A04F
 10
573.936
 20
340.253
 30
0.000000
  70
    32
  0
VERTEX
  8
0
  5
A050
 10
574.193
 20
340.220
 30
0.000000
  70
    32
  0
VERTEX
  8
0
  5
A051
 10
574.451
 20
340.187
 30
0.000000
  70
    32
  0
VERTEX
  8
0
  5
A052
 10
574.708
 20
340.153
 30
0.000000
  70
    32
  0
VERTEX
  8
0
  5
A053
 10
574.966
 20
340.119
 30
0.000000
  70
    32
  0
VERTEX
  8
0
  5
A054
 10
575.223
 20
340.085
 30
0.000000
  70
    32
  0
VERTEX
  8
0
  5
A055
 10
575.480
 20
340.050
 30
0.000000
  70
    32
  0
VERTEX
  8
0
  5
A056
 10
575.738
 20
340.015
 30
0.000000
  70
    32
  0
VERTEX
  8
0
  5
A057
 10
575.995
 20
339.979
 30
0.000000
  70
    32
  0
VERTEX
  8
0
  5
A058
 10
576.252
 20
339.943
 30
0.000000
  70
    32
  0
VERTEX
  8
0
  5
A059
 10
576.510
 20
339.907
 30
0.000000
  70
    32
  0
VERTEX
  8
0
  5
A05A
 10
576.767
 20
339.870
 30
0.000000
  70
    32
  0
VERTEX
  8
0
  5
A05B
 10
577.024
 20
339.833
 30
0.000000
  70
    32
  0
VERTEX
  8
0
  5
A05C
 10
577.281
 20
339.795
 30
0.000000
  70
    32
  0
VERTEX
  8
0
  5
A05D
 10
577.538
 20
339.757
 30
0.000000
  70
    32
  0
VERTEX
  8
0
  5
A05E
 10
577.796
 20
339.719
 30
0.000000
  70
    32
  0
VERTEX
  8
0
  5
A05F
 10
578.053
 20
339.680
 30
0.000000
  70
    32
  0
VERTEX
  8
0
  5
A060
 10
578.310
 20
339.641
 30
0.000000
  70
    32
  0
VERTEX
  8
0
  5
A061
 10
578.567
 20
339.602
 30
0.000000
  70
    32
  0
VERTEX
  8
0
  5
A062
 10
578.824
 20
339.562
 30
0.000000
  70
    32
  0
VERTEX
  8
0
  5
A063
 10
579.081
 20
339.521
 30
0.000000
  70
    32
  0
VERTEX
  8
0
  5
A064
 10
579.338
 20
339.481
 30
0.000000
  70
    32
  0
VERTEX
  8
0
  5
A065
 10
579.594
 20
339.440
 30
0.000000
  70
    32
  0
VERTEX
  8
0
  5
A066
 10
579.851
 20
339.398
 30
0.000000
  70
    32
  0
VERTEX
  8
0
  5
A067
 10
580.108
 20
339.356
 30
0.000000
  70
    32
  0
VERTEX
  8
0
  5
A068
 10
580.365
 20
339.314
 30
0.000000
  70
    32
  0
VERTEX
  8
0
  5
A069
 10
580.622
 20
339.272
 30
0.000000
  70
    32
  0
VERTEX
  8
0
  5
A06A
 10
580.878
 20
339.228
 30
0.000000
  70
    32
  0
VERTEX
  8
0
  5
A06B
 10
581.135
 20
339.185
 30
0.000000
  70
    32
  0
VERTEX
  8
0
  5
A06C
 10
581.392
 20
339.141
 30
0.000000
  70
    32
  0
VERTEX
  8
0
  5
A06D
 10
581.648
 20
339.097
 30
0.000000
  70
    32
  0
VERTEX
  8
0
  5
A06E
 10
581.905
 20
339.052
 30
0.000000
  70
    32
  0
VERTEX
  8
0
  5
A06F
 10
582.161
 20
339.007
 30
0.000000
  70
    32
  0
VERTEX
  8
0
  5
A070
 10
582.418
 20
338.962
 30
0.000000
  70
    32
  0
VERTEX
  8
0
  5
A071
 10
582.674
 20
338.916
 30
0.000000
  70
    32
  0
VERTEX
  8
0
  5
A072
 10
582.931
 20
338.870
 30
0.000000
  70
    32
  0
VERTEX
  8
0
  5
A073
 10
583.187
 20
338.824
 30
0.000000
  70
    32
  0
VERTEX
  8
0
  5
A074
 10
583.443
 20
338.777
 30
0.000000
  70
    32
  0
VERTEX
  8
0
  5
A075
 10
583.700
 20
338.729
 30
0.000000
  70
    32
  0
VERTEX
  8
0
  5
A076
 10
583.956
 20
338.682
 30
0.000000
  70
    32
  0
VERTEX
  8
0
  5
A077
 10
584.212
 20
338.634
 30
0.000000
  70
    32
  0
VERTEX
  8
0
  5
A078
 10
584.468
 20
338.585
 30
0.000000
  70
    32
  0
VERTEX
  8
0
  5
A079
 10
584.725
 20
338.536
 30
0.000000
  70
    32
  0
VERTEX
  8
0
  5
A07A
 10
584.981
 20
338.487
 30
0.000000
  70
    32
  0
VERTEX
  8
0
  5
A07B
 10
585.237
 20
338.437
 30
0.000000
  70
    32
  0
VERTEX
  8
0
  5
A07C
 10
585.493
 20
338.387
 30
0.000000
  70
    32
  0
VERTEX
  8
0
  5
A07D
 10
585.749
 20
338.337
 30
0.000000
  70
    32
  0
VERTEX
  8
0
  5
A07E
 10
586.005
 20
338.286
 30
0.000000
  70
    32
  0
VERTEX
  8
0
  5
A07F
 10
586.261
 20
338.235
 30
0.000000
  70
    32
  0
VERTEX
  8
0
  5
A080
 10
586.516
 20
338.183
 30
0.000000
  70
    32
  0
VERTEX
  8
0
  5
A081
 10
586.772
 20
338.131
 30
0.000000
  70
    32
  0
VERTEX
  8
0
  5
A082
 10
587.028
 20
338.078
 30
0.000000
  70
    32
  0
VERTEX
  8
0
  5
A083
 10
587.284
 20
338.026
 30
0.000000
  70
    32
  0
VERTEX
  8
0
  5
A084
 10
587.539
 20
337.972
 30
0.000000
  70
    32
  0
VERTEX
  8
0
  5
A085
 10
587.795
 20
337.919
 30
0.000000
  70
    32
  0
VERTEX
  8
0
  5
A086
 10
588.051
 20
337.865
 30
0.000000
  70
    32
  0
VERTEX
  8
0
  5
A087
 10
588.306
 20
337.811
 30
0.000000
  70
    32
  0
VERTEX
  8
0
  5
A088
 10
588.562
 20
337.756
 30
0.000000
  70
    32
  0
VERTEX
  8
0
  5
A089
 10
588.817
 20
337.701
 30
0.000000
  70
    32
  0
VERTEX
  8
0
  5
A08A
 10
589.073
 20
337.645
 30
0.000000
  70
    32
  0
VERTEX
  8
0
  5
A08B
 10
589.328
 20
337.589
 30
0.000000
  70
    32
  0
VERTEX
  8
0
  5
A08C
 10
589.583
 20
337.533
 30
0.000000
  70
    32
  0
VERTEX
  8
0
  5
A08D
 10
589.839
 20
337.476
 30
0.000000
  70
    32
  0
VERTEX
  8
0
  5
A08E
 10
590.094
 20
337.419
 30
0.000000
  70
    32
  0
VERTEX
  8
0
  5
A08F
 10
590.349
 20
337.362
 30
0.000000
  70
    32
  0
VERTEX
  8
0
  5
A090
 10
590.604
 20
337.304
 30
0.000000
  70
    32
  0
VERTEX
  8
0
  5
A091
 10
590.859
 20
337.245
 30
0.000000
  70
    32
  0
VERTEX
  8
0
  5
A092
 10
591.114
 20
337.187
 30
0.000000
  70
    32
  0
VERTEX
  8
0
  5
A093
 10
591.369
 20
337.128
 30
0.000000
  70
    32
  0
VERTEX
  8
0
  5
A094
 10
591.624
 20
337.068
 30
0.000000
  70
    32
  0
VERTEX
  8
0
  5
A095
 10
591.879
 20
337.009
 30
0.000000
  70
    32
  0
VERTEX
  8
0
  5
A096
 10
592.134
 20
336.948
 30
0.000000
  70
    32
  0
VERTEX
  8
0
  5
A097
 10
592.389
 20
336.888
 30
0.000000
  70
    32
  0
VERTEX
  8
0
  5
A098
 10
592.644
 20
336.827
 30
0.000000
  70
    32
  0
VERTEX
  8
0
  5
A099
 10
592.898
 20
336.765
 30
0.000000
  70
    32
  0
VERTEX
  8
0
  5
A09A
 10
593.153
 20
336.704
 30
0.000000
  70
    32
  0
VERTEX
  8
0
  5
A09B
 10
593.408
 20
336.642
 30
0.000000
  70
    32
  0
VERTEX
  8
0
  5
A09C
 10
593.662
 20
336.579
 30
0.000000
  70
    32
  0
VERTEX
  8
0
  5
A09D
 10
593.917
 20
336.516
 30
0.000000
  70
    32
  0
VERTEX
  8
0
  5
A09E
 10
594.171
 20
336.453
 30
0.000000
  70
    32
  0
VERTEX
  8
0
  5
A09F
 10
594.425
 20
336.389
 30
0.000000
  70
    32
  0
VERTEX
  8
0
  5
A0A0
 10
594.680
 20
336.325
 30
0.000000
  70
    32
  0
VERTEX
  8
0
  5
A0A1
 10
594.934
 20
336.261
 30
0.000000
  70
    32
  0
VERTEX
  8
0
  5
A0A2
 10
595.188
 20
336.196
 30
0.000000
  70
    32
  0
VERTEX
  8
0
  5
A0A3
 10
595.442
 20
336.130
 30
0.000000
  70
    32
  0
VERTEX
  8
0
  5
A0A4
 10
595.697
 20
336.065
 30
0.000000
  70
    32
  0
VERTEX
  8
0
  5
A0A5
 10
595.951
 20
335.999
 30
0.000000
  70
    32
  0
VERTEX
  8
0
  5
A0A6
 10
596.205
 20
335.932
 30
0.000000
  70
    32
  0
VERTEX
  8
0
  5
A0A7
 10
596.459
 20
335.866
 30
0.000000
  70
    32
  0
VERTEX
  8
0
  5
A0A8
 10
596.713
 20
335.798
 30
0.000000
  70
    32
  0
VERTEX
  8
0
  5
A0A9
 10
596.966
 20
335.731
 30
0.000000
  70
    32
  0
VERTEX
  8
0
  5
A0AA
 10
597.220
 20
335.663
 30
0.000000
  70
    32
  0
VERTEX
  8
0
  5
A0AB
 10
597.474
 20
335.594
 30
0.000000
  70
    32
  0
VERTEX
  8
0
  5
A0AC
 10
597.728
 20
335.526
 30
0.000000
  70
    32
  0
VERTEX
  8
0
  5
A0AD
 10
597.981
 20
335.457
 30
0.000000
  70
    32
  0
VERTEX
  8
0
  5
A0AE
 10
598.235
 20
335.387
 30
0.000000
  70
    32
  0
VERTEX
  8
0
  5
A0AF
 10
598.488
 20
335.317
 30
0.000000
  70
    32
  0
VERTEX
  8
0
  5
A0B0
 10
598.742
 20
335.247
 30
0.000000
  70
    32
  0
VERTEX
  8
0
  5
A0B1
 10
598.995
 20
335.176
 30
0.000000
  70
    32
  0
VERTEX
  8
0
  5
A0B2
 10
599.249
 20
335.105
 30
0.000000
  70
    32
  0
VERTEX
  8
0
  5
A0B3
 10
599.502
 20
335.034
 30
0.000000
  70
    32
  0
VERTEX
  8
0
  5
A0B4
 10
599.755
 20
334.962
 30
0.000000
  70
    32
  0
VERTEX
  8
0
  5
A0B5
 10
600.008
 20
334.890
 30
0.000000
  70
    32
  0
VERTEX
  8
0
  5
A0B6
 10
600.261
 20
334.817
 30
0.000000
  70
    32
  0
VERTEX
  8
0
  5
A0B7
 10
600.514
 20
334.744
 30
0.000000
  70
    32
  0
VERTEX
  8
0
  5
A0B8
 10
600.767
 20
334.671
 30
0.000000
  70
    32
  0
VERTEX
  8
0
  5
A0B9
 10
601.020
 20
334.597
 30
0.000000
  70
    32
  0
VERTEX
  8
0
  5
A0BA
 10
601.273
 20
334.523
 30
0.000000
  70
    32
  0
VERTEX
  8
0
  5
A0BB
 10
601.526
 20
334.448
 30
0.000000
  70
    32
  0
VERTEX
  8
0
  5
A0BC
 10
601.779
 20
334.373
 30
0.000000
  70
    32
  0
VERTEX
  8
0
  5
A0BD
 10
602.031
 20
334.298
 30
0.000000
  70
    32
  0
VERTEX
  8
0
  5
A0BE
 10
602.284
 20
334.222
 30
0.000000
  70
    32
  0
VERTEX
  8
0
  5
A0BF
 10
602.537
 20
334.146
 30
0.000000
  70
    32
  0
VERTEX
  8
0
  5
A0C0
 10
602.789
 20
334.070
 30
0.000000
  70
    32
  0
VERTEX
  8
0
  5
A0C1
 10
603.042
 20
333.993
 30
0.000000
  70
    32
  0
VERTEX
  8
0
  5
A0C2
 10
603.294
 20
333.916
 30
0.000000
  70
    32
  0
VERTEX
  8
0
  5
A0C3
 10
603.546
 20
333.838
 30
0.000000
  70
    32
  0
VERTEX
  8
0
  5
A0C4
 10
603.799
 20
333.760
 30
0.000000
  70
    32
  0
VERTEX
  8
0
  5
A0C5
 10
604.051
 20
333.682
 30
0.000000
  70
    32
  0
VERTEX
  8
0
  5
A0C6
 10
604.303
 20
333.603
 30
0.000000
  70
    32
  0
VERTEX
  8
0
  5
A0C7
 10
604.555
 20
333.524
 30
0.000000
  70
    32
  0
VERTEX
  8
0
  5
A0C8
 10
604.807
 20
333.444
 30
0.000000
  70
    32
  0
VERTEX
  8
0
  5
A0C9
 10
605.059
 20
333.364
 30
0.000000
  70
    32
  0
VERTEX
  8
0
  5
A0CA
 10
605.311
 20
333.284
 30
0.000000
  70
    32
  0
VERTEX
  8
0
  5
A0CB
 10
605.562
 20
333.203
 30
0.000000
  70
    32
  0
VERTEX
  8
0
  5
A0CC
 10
605.814
 20
333.122
 30
0.000000
  70
    32
  0
VERTEX
  8
0
  5
A0CD
 10
606.066
 20
333.041
 30
0.000000
  70
    32
  0
VERTEX
  8
0
  5
A0CE
 10
606.317
 20
332.959
 30
0.000000
  70
    32
  0
VERTEX
  8
0
  5
A0CF
 10
606.569
 20
332.877
 30
0.000000
  70
    32
  0
SEQEND
  8
0
  5
A0D0
  0
POLYLINE
  5
8B81
  8
0
 10
564.74335800388053
 20
340.2526729684223
 30
0.0
 66
     1
 70
     8
  0
VERTEX
  8
0
  5
A0D1
 10
564.743
 20
340.253
 30
0.000000
  70
    32
  0
VERTEX
  8
0
  5
A0D2
 10
564.983
 20
340.220
 30
0.000000
  70
    32
  0
VERTEX
  8
0
  5
A0D3
 10
565.222
 20
340.187
 30
0.000000
  70
    32
  0
VERTEX
  8
0
  5
A0D4
 10
565.462
 20
340.153
 30
0.000000
  70
    32
  0
VERTEX
  8
0
  5
A0D5
 10
565.701
 20
340.119
 30
0.000000
  70
    32
  0
VERTEX
  8
0
  5
A0D6
 10
565.940
 20
340.085
 30
0.000000
  70
    32
  0
VERTEX
  8
0
  5
A0D7
 10
566.180
 20
340.050
 30
0.000000
  70
    32
  0
VERTEX
  8
0
  5
A0D8
 10
566.419
 20
340.015
 30
0.000000
  70
    32
  0
VERTEX
  8
0
  5
A0D9
 10
566.658
 20
339.979
 30
0.000000
  70
    32
  0
VERTEX
  8
0
  5
A0DA
 10
566.898
 20
339.943
 30
0.000000
  70
    32
  0
VERTEX
  8
0
  5
A0DB
 10
567.137
 20
339.907
 30
0.000000
  70
    32
  0
VERTEX
  8
0
  5
A0DC
 10
567.376
 20
339.870
 30
0.000000
  70
    32
  0
VERTEX
  8
0
  5
A0DD
 10
567.615
 20
339.833
 30
0.000000
  70
    32
  0
VERTEX
  8
0
  5
A0DE
 10
567.854
 20
339.795
 30
0.000000
  70
    32
  0
VERTEX
  8
0
  5
A0DF
 10
568.094
 20
339.757
 30
0.000000
  70
    32
  0
VERTEX
  8
0
  5
A0E0
 10
568.333
 20
339.719
 30
0.000000
  70
    32
  0
VERTEX
  8
0
  5
A0E1
 10
568.572
 20
339.680
 30
0.000000
  70
    32
  0
VERTEX
  8
0
  5
A0E2
 10
568.811
 20
339.641
 30
0.000000
  70
    32
  0
VERTEX
  8
0
  5
A0E3
 10
569.050
 20
339.602
 30
0.000000
  70
    32
  0
VERTEX
  8
0
  5
A0E4
 10
569.289
 20
339.562
 30
0.000000
  70
    32
  0
VERTEX
  8
0
  5
A0E5
 10
569.528
 20
339.521
 30
0.000000
  70
    32
  0
VERTEX
  8
0
  5
A0E6
 10
569.767
 20
339.481
 30
0.000000
  70
    32
  0
VERTEX
  8
0
  5
A0E7
 10
570.005
 20
339.440
 30
0.000000
  70
    32
  0
VERTEX
  8
0
  5
A0E8
 10
570.244
 20
339.398
 30
0.000000
  70
    32
  0
VERTEX
  8
0
  5
A0E9
 10
570.483
 20
339.356
 30
0.000000
  70
    32
  0
VERTEX
  8
0
  5
A0EA
 10
570.722
 20
339.314
 30
0.000000
  70
    32
  0
VERTEX
  8
0
  5
A0EB
 10
570.961
 20
339.272
 30
0.000000
  70
    32
  0
VERTEX
  8
0
  5
A0EC
 10
571.199
 20
339.228
 30
0.000000
  70
    32
  0
VERTEX
  8
0
  5
A0ED
 10
571.438
 20
339.185
 30
0.000000
  70
    32
  0
VERTEX
  8
0
  5
A0EE
 10
571.677
 20
339.141
 30
0.000000
  70
    32
  0
VERTEX
  8
0
  5
A0EF
 10
571.915
 20
339.097
 30
0.000000
  70
    32
  0
VERTEX
  8
0
  5
A0F0
 10
572.154
 20
339.052
 30
0.000000
  70
    32
  0
VERTEX
  8
0
  5
A0F1
 10
572.392
 20
339.007
 30
0.000000
  70
    32
  0
VERTEX
  8
0
  5
A0F2
 10
572.631
 20
338.962
 30
0.000000
  70
    32
  0
VERTEX
  8
0
  5
A0F3
 10
572.869
 20
338.916
 30
0.000000
  70
    32
  0
VERTEX
  8
0
  5
A0F4
 10
573.108
 20
338.870
 30
0.000000
  70
    32
  0
VERTEX
  8
0
  5
A0F5
 10
573.346
 20
338.824
 30
0.000000
  70
    32
  0
VERTEX
  8
0
  5
A0F6
 10
573.585
 20
338.777
 30
0.000000
  70
    32
  0
VERTEX
  8
0
  5
A0F7
 10
573.823
 20
338.729
 30
0.000000
  70
    32
  0
VERTEX
  8
0
  5
A0F8
 10
574.061
 20
338.682
 30
0.000000
  70
    32
  0
VERTEX
  8
0
  5
A0F9
 10
574.300
 20
338.634
 30
0.000000
  70
    32
  0
VERTEX
  8
0
  5
A0FA
 10
574.538
 20
338.585
 30
0.000000
  70
    32
  0
VERTEX
  8
0
  5
A0FB
 10
574.776
 20
338.536
 30
0.000000
  70
    32
  0
VERTEX
  8
0
  5
A0FC
 10
575.014
 20
338.487
 30
0.000000
  70
    32
  0
VERTEX
  8
0
  5
A0FD
 10
575.252
 20
338.437
 30
0.000000
  70
    32
  0
VERTEX
  8
0
  5
A0FE
 10
575.490
 20
338.387
 30
0.000000
  70
    32
  0
VERTEX
  8
0
  5
A0FF
 10
575.728
 20
338.337
 30
0.000000
  70
    32
  0
VERTEX
  8
0
  5
A100
 10
575.966
 20
338.286
 30
0.000000
  70
    32
  0
VERTEX
  8
0
  5
A101
 10
576.204
 20
338.235
 30
0.000000
  70
    32
  0
VERTEX
  8
0
  5
A102
 10
576.442
 20
338.183
 30
0.000000
  70
    32
  0
VERTEX
  8
0
  5
A103
 10
576.680
 20
338.131
 30
0.000000
  70
    32
  0
VERTEX
  8
0
  5
A104
 10
576.918
 20
338.078
 30
0.000000
  70
    32
  0
VERTEX
  8
0
  5
A105
 10
577.156
 20
338.026
 30
0.000000
  70
    32
  0
VERTEX
  8
0
  5
A106
 10
577.394
 20
337.972
 30
0.000000
  70
    32
  0
VERTEX
  8
0
  5
A107
 10
577.631
 20
337.919
 30
0.000000
  70
    32
  0
VERTEX
  8
0
  5
A108
 10
577.869
 20
337.865
 30
0.000000
  70
    32
  0
VERTEX
  8
0
  5
A109
 10
578.107
 20
337.811
 30
0.000000
  70
    32
  0
VERTEX
  8
0
  5
A10A
 10
578.344
 20
337.756
 30
0.000000
  70
    32
  0
VERTEX
  8
0
  5
A10B
 10
578.582
 20
337.701
 30
0.000000
  70
    32
  0
VERTEX
  8
0
  5
A10C
 10
578.819
 20
337.645
 30
0.000000
  70
    32
  0
VERTEX
  8
0
  5
A10D
 10
579.057
 20
337.589
 30
0.000000
  70
    32
  0
VERTEX
  8
0
  5
A10E
 10
579.294
 20
337.533
 30
0.000000
  70
    32
  0
VERTEX
  8
0
  5
A10F
 10
579.532
 20
337.476
 30
0.000000
  70
    32
  0
VERTEX
  8
0
  5
A110
 10
579.769
 20
337.419
 30
0.000000
  70
    32
  0
VERTEX
  8
0
  5
A111
 10
580.006
 20
337.362
 30
0.000000
  70
    32
  0
VERTEX
  8
0
  5
A112
 10
580.243
 20
337.304
 30
0.000000
  70
    32
  0
VERTEX
  8
0
  5
A113
 10
580.481
 20
337.245
 30
0.000000
  70
    32
  0
VERTEX
  8
0
  5
A114
 10
580.718
 20
337.187
 30
0.000000
  70
    32
  0
VERTEX
  8
0
  5
A115
 10
580.955
 20
337.128
 30
0.000000
  70
    32
  0
VERTEX
  8
0
  5
A116
 10
581.192
 20
337.068
 30
0.000000
  70
    32
  0
VERTEX
  8
0
  5
A117
 10
581.429
 20
337.009
 30
0.000000
  70
    32
  0
VERTEX
  8
0
  5
A118
 10
581.666
 20
336.948
 30
0.000000
  70
    32
  0
VERTEX
  8
0
  5
A119
 10
581.903
 20
336.888
 30
0.000000
  70
    32
  0
VERTEX
  8
0
  5
A11A
 10
582.140
 20
336.827
 30
0.000000
  70
    32
  0
VERTEX
  8
0
  5
A11B
 10
582.377
 20
336.765
 30
0.000000
  70
    32
  0
VERTEX
  8
0
  5
A11C
 10
582.614
 20
336.704
 30
0.000000
  70
    32
  0
VERTEX
  8
0
  5
A11D
 10
582.850
 20
336.642
 30
0.000000
  70
    32
  0
VERTEX
  8
0
  5
A11E
 10
583.087
 20
336.579
 30
0.000000
  70
    32
  0
VERTEX
  8
0
  5
A11F
 10
583.324
 20
336.516
 30
0.000000
  70
    32
  0
VERTEX
  8
0
  5
A120
 10
583.560
 20
336.453
 30
0.000000
  70
    32
  0
VERTEX
  8
0
  5
A121
 10
583.797
 20
336.389
 30
0.000000
  70
    32
  0
VERTEX
  8
0
  5
A122
 10
584.033
 20
336.325
 30
0.000000
  70
    32
  0
VERTEX
  8
0
  5
A123
 10
584.270
 20
336.261
 30
0.000000
  70
    32
  0
VERTEX
  8
0
  5
A124
 10
584.506
 20
336.196
 30
0.000000
  70
    32
  0
VERTEX
  8
0
  5
A125
 10
584.743
 20
336.130
 30
0.000000
  70
    32
  0
VERTEX
  8
0
  5
A126
 10
584.979
 20
336.065
 30
0.000000
  70
    32
  0
VERTEX
  8
0
  5
A127
 10
585.215
 20
335.999
 30
0.000000
  70
    32
  0
VERTEX
  8
0
  5
A128
 10
585.451
 20
335.932
 30
0.000000
  70
    32
  0
VERTEX
  8
0
  5
A129
 10
585.688
 20
335.866
 30
0.000000
  70
    32
  0
VERTEX
  8
0
  5
A12A
 10
585.924
 20
335.798
 30
0.000000
  70
    32
  0
VERTEX
  8
0
  5
A12B
 10
586.160
 20
335.731
 30
0.000000
  70
    32
  0
VERTEX
  8
0
  5
A12C
 10
586.396
 20
335.663
 30
0.000000
  70
    32
  0
VERTEX
  8
0
  5
A12D
 10
586.632
 20
335.594
 30
0.000000
  70
    32
  0
VERTEX
  8
0
  5
A12E
 10
586.868
 20
335.526
 30
0.000000
  70
    32
  0
VERTEX
  8
0
  5
A12F
 10
587.104
 20
335.457
 30
0.000000
  70
    32
  0
VERTEX
  8
0
  5
A130
 10
587.339
 20
335.387
 30
0.000000
  70
    32
  0
VERTEX
  8
0
  5
A131
 10
587.575
 20
335.317
 30
0.000000
  70
    32
  0
VERTEX
  8
0
  5
A132
 10
587.811
 20
335.247
 30
0.000000
  70
    32
  0
VERTEX
  8
0
  5
A133
 10
588.046
 20
335.176
 30
0.000000
  70
    32
  0
VERTEX
  8
0
  5
A134
 10
588.282
 20
335.105
 30
0.000000
  70
    32
  0
VERTEX
  8
0
  5
A135
 10
588.518
 20
335.034
 30
0.000000
  70
    32
  0
VERTEX
  8
0
  5
A136
 10
588.753
 20
334.962
 30
0.000000
  70
    32
  0
VERTEX
  8
0
  5
A137
 10
588.988
 20
334.890
 30
0.000000
  70
    32
  0
VERTEX
  8
0
  5
A138
 10
589.224
 20
334.817
 30
0.000000
  70
    32
  0
VERTEX
  8
0
  5
A139
 10
589.459
 20
334.744
 30
0.000000
  70
    32
  0
VERTEX
  8
0
  5
A13A
 10
589.694
 20
334.671
 30
0.000000
  70
    32
  0
VERTEX
  8
0
  5
A13B
 10
589.930
 20
334.597
 30
0.000000
  70
    32
  0
VERTEX
  8
0
  5
A13C
 10
590.165
 20
334.523
 30
0.000000
  70
    32
  0
VERTEX
  8
0
  5
A13D
 10
590.400
 20
334.448
 30
0.000000
  70
    32
  0
VERTEX
  8
0
  5
A13E
 10
590.635
 20
334.373
 30
0.000000
  70
    32
  0
VERTEX
  8
0
  5
A13F
 10
590.870
 20
334.298
 30
0.000000
  70
    32
  0
VERTEX
  8
0
  5
A140
 10
591.105
 20
334.222
 30
0.000000
  70
    32
  0
VERTEX
  8
0
  5
A141
 10
591.340
 20
334.146
 30
0.000000
  70
    32
  0
VERTEX
  8
0
  5
A142
 10
591.574
 20
334.070
 30
0.000000
  70
    32
  0
VERTEX
  8
0
  5
A143
 10
591.809
 20
333.993
 30
0.000000
  70
    32
  0
VERTEX
  8
0
  5
A144
 10
592.044
 20
333.916
 30
0.000000
  70
    32
  0
VERTEX
  8
0
  5
A145
 10
592.278
 20
333.838
 30
0.000000
  70
    32
  0
VERTEX
  8
0
  5
A146
 10
592.513
 20
333.760
 30
0.000000
  70
    32
  0
VERTEX
  8
0
  5
A147
 10
592.748
 20
333.682
 30
0.000000
  70
    32
  0
VERTEX
  8
0
  5
A148
 10
592.982
 20
333.603
 30
0.000000
  70
    32
  0
VERTEX
  8
0
  5
A149
 10
593.216
 20
333.524
 30
0.000000
  70
    32
  0
VERTEX
  8
0
  5
A14A
 10
593.451
 20
333.444
 30
0.000000
  70
    32
  0
VERTEX
  8
0
  5
A14B
 10
593.685
 20
333.364
 30
0.000000
  70
    32
  0
VERTEX
  8
0
  5
A14C
 10
593.919
 20
333.284
 30
0.000000
  70
    32
  0
VERTEX
  8
0
  5
A14D
 10
594.153
 20
333.203
 30
0.000000
  70
    32
  0
VERTEX
  8
0
  5
A14E
 10
594.387
 20
333.122
 30
0.000000
  70
    32
  0
VERTEX
  8
0
  5
A14F
 10
594.621
 20
333.041
 30
0.000000
  70
    32
  0
VERTEX
  8
0
  5
A150
 10
594.855
 20
332.959
 30
0.000000
  70
    32
  0
VERTEX
  8
0
  5
A151
 10
595.089
 20
332.877
 30
0.000000
  70
    32
  0
SEQEND
  8
0
  5
A152
  0
LINE
  5
8B8C
  8
0
 10
101.2365731418047
 20
322.9494024519156
 30
0.0
 11
95.261689781814539
 21
320.82351351025062
 31
0.0
  0
LINE
  5
8B8D
  8
0
 10
631.12005574152442
 20
322.94940272758708
 30
0.0
 11
637.79860170893596
 21
320.82076539769309
 31
0.0
  0
LINE
  5
8BA9
  8
0
 10
276.51056740687642
 20
136.98436540265851
 30
0.0
 11
275.22910711757407
 21
135.43080096608159
 31
0.0
  0
LINE
  5
8BAA
  8
0
 10
277.30125469213408
 20
137.97919239455641
 30
0.0
 11
276.51056740687642
 21
136.98436540265851
 31
0.0
  0
LINE
  5
8BAB
  8
0
 10
278.55419915899301
 20
139.76693835074039
 30
0.0
 11
277.30125469213408
 21
137.97919239455641
 31
0.0
  0
LINE
  5
8BAC
  8
0
 10
279.7208662156068
 20
141.4205009820233
 30
0.0
 11
278.55419915899301
 21
139.76693835074039
 31
0.0
  0
LINE
  5
8BAD
  8
0
 10
280.63805317618483
 20
142.50935304484469
 30
0.0
 11
279.7208662156068
 21
141.4205009820233
 31
0.0
  0
LINE
  5
8BAE
  8
0
 10
281.55524013676268
 20
143.5982051076661
 30
0.0
 11
280.63805317618483
 21
142.50935304484469
 31
0.0
  0
LINE
  5
8BAF
  8
0
 10
291.35529409619681
 20
130.65279335607681
 30
0.0
 11
293.03495129682648
 21
132.1184939476023
 31
0.0
  0
LINE
  5
8BB0
  8
0
 10
289.09455627703937
 20
129.0256331218508
 30
0.0
 11
291.35529409619681
 21
130.65279335607681
 31
0.0
  0
LINE
  5
8BB1
  8
0
 10
285.97473742970669
 20
126.6752907065526
 30
0.0
 11
289.09455627703937
 21
129.0256331218508
 31
0.0
  0
LINE
  5
8BB2
  8
0
 10
282.68878539644038
 20
123.8544465841488
 30
0.0
 11
285.97473742970669
 21
126.6752907065526
 31
0.0
  0
LINE
  5
8BB3
  8
0
 10
278.72336377387319
 20
119.70717136289269
 30
0.0
 11
282.68878539644038
 21
123.8544465841488
 31
0.0
  0
LINE
  5
8BB4
  8
0
 10
276.20568787791359
 20
116.5103704439765
 30
0.0
 11
278.72336377387319
 21
119.70717136289269
 31
0.0
  0
ARC
  5
8BBE
  8
0
 10
318.76938410182862
 20
169.3326379126683
 30
0.0
 40
6.5000334117698344
 50
315.19015823318068
 51
134.80984176682969
  0
ARC
  5
8BBF
  8
1
 10
256.20554238525489
 20
106.69728574625
 30
0.0
 40
32.000000000000007
 50
241.0546984788773
 51
298.9458987331023
  0
ARC
  5
8BC2
  8
1
 10
256.20554238525489
 20
106.69728574625
 30
0.0
 40
32.000000000000007
 50
61.054101266897739
 51
118.9453015211227
  0
ARC
  5
8BCA
  8
0
 10
261.76243001029019
 20
138.2827902321782
 30
0.0
 40
5.7500000000000133
 50
260.0
 51
79.999999999999261
  0
ARC
  5
8BD0
  8
0
 10
250.64894663960661
 20
75.25509403939688
 30
0.0
 40
5.7500000000000231
 50
79.999999999998707
 51
260.0
  0
ARC
  5
8BD1
  8
0
 10
256.20568832494843
 20
106.7689421357876
 30
0.0
 40
37.749999999999993
 50
260.0
 51
280.0
  0
ARC
  5
8BD2
  8
0
 10
261.76243001029019
 20
75.25509403939688
 30
0.0
 40
5.7500000000000133
 50
280.00000000000011
 51
99.999999999999204
  0
ARC
  5
8BD3
  8
0
 10
256.20568832494843
 20
106.7689421357876
 30
0.0
 40
26.250000000000021
 50
260.00000000000011
 51
280.0
  0
ARC
  5
8BD4
  8
0
 10
256.20568832494843
 20
84.268942135787569
 30
0.0
 40
20.0
 50
180.0
 51
0.0
  0
LINE
  5
8BD5
  8
1
 10
196.2056883249484
 20
106.7689421357877
 30
0.0
 11
281.20568832494843
 21
106.7689421357877
 31
0.0
  0
POINT
  5
8BD8
  8
0
 10
201.2056883249484
 20
106.7689421357878
 30
0.0
  0
LINE
  5
8BD9
  8
1
 10
256.20568832494843
 20
59.268942135787569
 30
0.0
 11
256.20568832494843
 21
154.26296033983479
 31
0.0
  0
LINE
  5
8BDA
  8
1
 10
256.20568832494843
 20
106.7907104608958
 30
0.0
 11
326.90091165002752
 21
177.4646135769645
 31
0.0
  0
POLYLINE
  5
8BDF
  8
0
 66
     1
 10
0.0
 20
0.0
 30
0.0
 70
   128
  0
VERTEX
  5
998F
  8
0
 10
293.03495129682648
 20
132.1184939476023
 30
0.0
  0
VERTEX
  5
9990
  8
0
 10
299.04160564877623
 20
138.57789586804009
 30
0.0
  0
VERTEX
  5
9991
  8
0
 10
305.08448099829781
 20
145.07625501177409
 30
0.0
  0
VERTEX
  5
9992
  8
0
 10
311.15863015987497
 20
151.60824607632259
 30
0.0
  0
VERTEX
  5
9993
  8
0
 10
317.2590798709594
 20
158.1685158195267
 30
0.0
  0
VERTEX
  5
9994
  8
0
 10
323.38083079197042
 20
164.75169982335669
 30
0.0
  0
SEQEND
  5
9995
  8
0
  0
POLYLINE
  5
8BE0
  8
0
 66
     1
 10
0.0
 20
0.0
 30
0.0
 70
   128
  0
VERTEX
  5
9996
  8
0
 10
314.18844601251709
 20
173.94408460280991
 30
0.0
  0
VERTEX
  5
9997
  8
0
 10
307.60526200868708
 20
167.82233368179899
 30
0.0
  0
VERTEX
  5
9998
  8
0
 10
301.04499226548302
 20
161.7218839707146
 30
0.0
  0
VERTEX
  5
9999
  8
0
 10
294.51300120093453
 20
155.6477348091374
 30
0.0
  0
VERTEX
  5
999A
  8
0
 10
288.01464205720049
 20
149.60485945961571
 30
0.0
  0
VERTEX
  5
999B
  8
0
 10
281.55524013676268
 20
143.5982051076661
 30
0.0
  0
SEQEND
  5
999C
  8
0
  0
LINE
  5
8BE4
  8
0
 10
206.29821261503329
 20
98.268941673851799
 30
0.0
 11
201.39073496796721
 21
106.7689421357878
 31
0.0
  0
LINE
  5
8BE6
  8
0
 10
201.39073496796721
 20
106.7689421357878
 30
0.0
 11
206.29821261503329
 21
115.26894259772379
 31
0.0
  0
LINE
  5
8BE7
  8
0
 10
206.29821261503329
 20
115.26894259772379
 30
0.0
 11
216.1131641838752
 21
115.26894259772379
 31
0.0
  0
LINE
  5
8BE8
  8
0
 10
216.1131641838752
 20
115.26894259772379
 30
0.0
 11
221.0206418309414
 21
106.7689421357878
 31
0.0
  0
LINE
  5
8BE9
  8
0
 10
221.0206418309414
 20
106.7689421357878
 30
0.0
 11
216.1131641838752
 21
98.268941673851799
 31
0.0
  0
LINE
  5
8BEA
  8
0
 10
216.1131641838752
 20
98.268941673851799
 30
0.0
 11
206.29821261503329
 21
98.268941673851799
 31
0.0
  0
LINE
  5
8BED
  8
0
 10
236.20568877198329
 20
129.26894302985721
 30
0.0
 11
236.2056883249484
 21
84.268942408514192
 31
0.0
  0
ARC
  5
8BEF
  8
0
 10
256.20568832494843
 20
106.7689421357876
 30
0.0
 40
37.749999999999993
 50
79.999999999999204
 51
99.999999999999204
  0
ARC
  5
8BF0
  8
0
 10
250.64894663960661
 20
138.2827902321782
 30
0.0
 40
5.7500000000000231
 50
99.999999999999204
 51
280.00000000000051
  0
ARC
  5
8BF1
  8
0
 10
256.20568832494843
 20
106.7689421357876
 30
0.0
 40
26.249999999999961
 50
79.999999999999204
 51
99.999999999999204
  0
LINE
  5
8BF9
  8
0
 10
236.20568877198329
 20
116.76894191227041
 30
0.0
 11
211.20568653680911
 21
116.76894191227041
 31
0.0
  0
LINE
  5
8BFB
  8
0
 10
211.20568653680911
 20
96.768942359305214
 30
0.0
 11
236.20568877198329
 21
96.768942359305214
 31
0.0
  0
ARC
  5
8BFC
  8
0
 10
211.2056883249484
 20
106.7689421357878
 30
0.0
 40
10.0
 50
89.999999999999204
 51
270.0
  0
ARC
  5
8BFE
  8
0
 10
219.20568832494851
 20
106.7689421357878
 30
0.0
 40
6.0
 50
270.0
 51
89.999999999999204
  0
LINE
  5
8BFF
  8
0
 10
219.2056878481113
 20
112.7689421879418
 30
0.0
 11
217.55654281117549
 21
112.7689421879418
 31
0.0
  0
LINE
  5
8C00
  8
0
 10
217.55654281117549
 20
100.7689420836337
 30
0.0
 11
219.2056878481113
 21
100.7689420836337
 31
0.0
  0
LINE
  5
8C01
  8
0
 10
276.20568787791348
 20
129.26894302985721
 30
0.0
 11
276.20568832494843
 21
84.268943713877832
 31
0.0
  0
ARC
  5
8C02
  8
0
 10
256.20568832494843
 20
129.26296033983479
 30
0.0
 40
20.0
 50
0.0
 51
180.0
  0
LINE
  5
8C03
  8
0
 10
430.56916599097121
 20
287.823514285111
 30
0.0
 11
457.56916622566439
 21
287.823514285111
 31
0.0
  0
LINE
  5
8C04
  8
0
 10
618.42557339873417
 20
287.8235137859221
 30
0.0
 11
645.42557316776617
 21
287.8235137859221
 31
0.0
  0
CIRCLE
  5
8DFF
  8
0
 10
257.10655682220619
 20
428.47526807866439
 30
0.0
 40
8.7992135425104951
  0
LINE
  5
8FFE
  8
1
 10
211.2056883249484
 20
417.8758948456113
 30
0.0
 11
211.2056883249484
 21
440.87589576948341
 31
0.0
  0
LINE
  5
8FFF
  8
1
 10
219.20568832494851
 20
438.37589530754741
 30
0.0
 11
219.20568832494851
 21
420.37589530754752
 31
0.0
  0
ARC
  5
9003
  8
0
 10
93.076910734558965
 20
276.33428072769863
 30
0.0
 40
4.3448986723233833
 50
55.615752531994502
 51
115.6157525321087
  0
ARC
  5
9004
  8
0
 10
100.43812666672621
 20
264.4383687785554
 30
0.0
 40
16.24081062146659
 50
72.412046226029133
 51
107.5879537739708
  0
LINE
  5
9005
  8
0
 10
90.623172090503147
 20
279.91999002146798
 30
0.0
 11
92.188126666726703
 21
280.82351696732019
 31
0.0
  0
LINE
  5
900C
  8
0
 10
110.2530812429502
 20
279.91999002146792
 30
0.0
 11
110.2530812429502
 21
275.727043913172
 31
0.0
  0
LINE
  5
900E
  8
0
 10
110.2530812429502
 20
275.727043913172
 30
0.0
 11
108.6881266667267
 21
274.82351696731968
 31
0.0
  0
ARC
  5
9010
  8
0
 10
107.7993425988944
 20
276.33428072769863
 30
0.0
 40
4.3448986723233833
 50
64.384247467891299
 51
124.3842474680055
  0
LINE
  5
9011
  8
0
 10
92.188126666726703
 20
280.82351696732019
 30
0.0
 11
108.688126666727
 21
280.82351696732002
 31
0.0
  0
LINE
  5
9015
  8
0
 10
90.623172090503147
 20
279.91999002146798
 30
0.0
 11
92.188126666726703
 21
280.82351696732019
 31
0.0
  0
LINE
  5
901C
  8
0
 10
110.2530812429502
 20
279.91999002146792
 30
0.0
 11
110.2530812429502
 21
275.727043913172
 31
0.0
  0
LINE
  5
901E
  8
0
 10
110.2530812429502
 20
275.727043913172
 30
0.0
 11
108.6881266667267
 21
274.82351696731968
 31
0.0
  0
LINE
  5
9025
  8
0
 10
90.623172090503147
 20
279.91999002146798
 30
0.0
 11
92.188126666726703
 21
280.82351696732019
 31
0.0
  0
LINE
  5
902C
  8
0
 10
110.2530812429502
 20
279.91999002146792
 30
0.0
 11
110.2530812429502
 21
275.727043913172
 31
0.0
  0
LINE
  5
902E
  8
0
 10
110.2530812429502
 20
275.727043913172
 30
0.0
 11
108.6881266667267
 21
274.82351696731968
 31
0.0
  0
LINE
  5
9035
  8
0
 10
90.623172090503147
 20
279.91999002146798
 30
0.0
 11
92.188126666726703
 21
280.82351696732019
 31
0.0
  0
ARC
  5
9043
  8
0
 10
93.076910734559164
 20
248.33427986343119
 30
0.0
 40
4.3448986723233833
 50
55.615752531994502
 51
115.6157525321087
  0
ARC
  5
9044
  8
0
 10
100.4381266667264
 20
236.43836791428799
 30
0.0
 40
16.24081062146659
 50
72.412046226029645
 51
107.5879537739703
  0
LINE
  5
9045
  8
0
 10
90.623172090503346
 20
251.9199891572006
 30
0.0
 11
92.188126666726902
 21
252.82351610305281
 31
0.0
  0
LINE
  5
9046
  8
0
 10
90.623172090503346
 20
247.72704304890459
 30
0.0
 11
92.188126666726902
 21
246.82351610305241
 31
0.0
  0
ARC
  5
9047
  8
0
 10
93.076910734559164
 20
251.312752342674
 30
0.0
 40
4.3448986723233833
 50
244.3842474678913
 51
304.38424746800553
  0
ARC
  5
9048
  8
0
 10
100.4381266667264
 20
263.20866429181717
 30
0.0
 40
16.24081062146659
 50
252.4120462260297
 51
287.58795377397041
  0
ARC
  5
904D
  8
0
 10
107.7993425988946
 20
251.312752342674
 30
0.0
 40
4.3448986723233833
 50
235.6157525319945
 51
295.61575253210867
  0
LINE
  5
904E
  8
0
 10
110.2530812429504
 20
247.72704304890459
 30
0.0
 11
108.6881266667269
 21
246.82351610305241
 31
0.0
  0
LINE
  5
904F
  8
0
 10
110.2530812429504
 20
251.9199891572006
 30
0.0
 11
108.6881266667269
 21
252.82351610305281
 31
0.0
  0
ARC
  5
9050
  8
0
 10
107.7993425988946
 20
248.33427986343119
 30
0.0
 40
4.3448986723233833
 50
64.384247467891299
 51
124.3842474680055
  0
LINE
  5
9052
  8
0
 10
108.6881266667272
 20
246.82351610305261
 30
0.0
 11
92.188126666726561
 21
246.82351610305261
 31
0.0
  0
LINE
  5
9055
  8
0
 10
90.623172090503346
 20
251.9199891572006
 30
0.0
 11
92.188126666726902
 21
252.82351610305281
 31
0.0
  0
LINE
  5
9056
  8
0
 10
90.623172090503346
 20
247.72704304890459
 30
0.0
 11
92.188126666726902
 21
246.82351610305241
 31
0.0
  0
LINE
  5
9065
  8
0
 10
90.623172090503346
 20
251.9199891572006
 30
0.0
 11
92.188126666726902
 21
252.82351610305281
 31
0.0
  0
LINE
  5
9066
  8
0
 10
90.623172090503346
 20
247.72704304890459
 30
0.0
 11
92.188126666726902
 21
246.82351610305241
 31
0.0
  0
LINE
  5
9075
  8
0
 10
90.623172090503346
 20
251.9199891572006
 30
0.0
 11
92.188126666726902
 21
252.82351610305281
 31
0.0
  0
LINE
  5
9076
  8
0
 10
90.623172090503346
 20
247.72704304890459
 30
0.0
 11
92.188126666726902
 21
246.82351610305241
 31
0.0
  0
LINE
  5
9083
  8
0
 10
686.11850467827423
 20
274.82351801785182
 30
0.0
 11
686.91850331928833
 21
274.02351937683773
 31
0.0
  0
ARC
  5
9084
  8
0
 10
672.66850221660229
 20
268.4036738121373
 30
0.0
 40
12.275506638416489
 50
69.743841999604243
 51
110.2561580003957
  0
LINE
  5
9085
  8
0
 10
668.41850221660229
 20
280.67918045055382
 30
0.0
 11
668.66850221660331
 21
280.82351801785182
 31
0.0
  0
LINE
  5
9086
  8
0
 10
668.41850221660229
 20
274.96785558514921
 30
0.0
 11
668.66850221660331
 21
274.8235180178512
 31
0.0
  0
ARC
  5
9087
  8
0
 10
672.66850221660229
 20
287.24336222356573
 30
0.0
 40
12.275506638416489
 50
249.74384199960431
 51
290.25615800039583
  0
LINE
  5
9088
  8
0
 10
668.41850221660229
 20
280.67918045055382
 30
0.0
 11
668.41850221660229
 21
274.96785558514921
 31
0.0
  0
LINE
  5
9089
  8
0
 10
676.91850221660229
 20
279.9199910719995
 30
0.0
 11
676.91850221660229
 21
275.72704496370329
 31
0.0
  0
LINE
  5
908A
  8
0
 10
685.41850221660218
 20
280.67918045055382
 30
0.0
 11
685.41850221660218
 21
274.96785558514921
 31
0.0
  0
LINE
  5
908B
  8
0
 10
685.41850221660218
 20
274.96785558514921
 30
0.0
 11
685.16850221660115
 21
274.8235180178512
 31
0.0
  0
ARC
  5
908C
  8
0
 10
681.16850221660229
 20
287.24336222356573
 30
0.0
 40
12.275506638416489
 50
249.74384199960431
 51
290.25615800039583
  0
LINE
  5
908D
  8
0
 10
685.41850221660218
 20
280.67918045055382
 30
0.0
 11
685.16850221660115
 21
280.82351801785182
 31
0.0
  0
ARC
  5
908E
  8
0
 10
681.16850221660229
 20
268.4036738121373
 30
0.0
 40
12.275506638416489
 50
69.743841999604243
 51
110.2561580003957
  0
LINE
  5
908F
  8
0
 10
668.66850221660343
 20
280.82351801785182
 30
0.0
 11
685.16850221660115
 21
280.82351801785182
 31
0.0
  0
LINE
  5
9090
  8
0
 10
685.16850221660229
 20
274.82351801785182
 30
0.0
 11
668.66850221660229
 21
274.82351801785182
 31
0.0
  0
ARC
  5
9091
  8
0
 10
672.66850540545079
 20
240.40367020605629
 30
0.0
 40
12.275506638416489
 50
69.743841999604243
 51
110.2561580003957
  0
LINE
  5
9092
  8
0
 10
668.41850540545067
 20
252.67917684447281
 30
0.0
 11
668.6685054054517
 21
252.82351441177079
 31
0.0
  0
LINE
  5
9093
  8
0
 10
668.41850540545067
 20
246.9678519790682
 30
0.0
 11
668.6685054054517
 21
246.82351441177019
 31
0.0
  0
ARC
  5
9094
  8
0
 10
672.66850540545079
 20
259.24335861748472
 30
0.0
 40
12.275506638416489
 50
249.74384199960431
 51
290.25615800039583
  0
LINE
  5
9095
  8
0
 10
668.41850540545067
 20
252.67917684447281
 30
0.0
 11
668.41850540545067
 21
246.9678519790682
 31
0.0
  0
LINE
  5
9096
  8
0
 10
676.91850540545067
 20
251.9199874659185
 30
0.0
 11
676.91850540545067
 21
247.72704135762231
 31
0.0
  0
LINE
  5
9097
  8
0
 10
685.41850540545067
 20
252.67917684447281
 30
0.0
 11
685.41850540545067
 21
246.9678519790682
 31
0.0
  0
LINE
  5
9098
  8
0
 10
685.41850540545067
 20
246.9678519790682
 30
0.0
 11
685.16850540544965
 21
246.82351441177019
 31
0.0
  0
ARC
  5
9099
  8
0
 10
681.16850540545079
 20
259.24335861748472
 30
0.0
 40
12.275506638416489
 50
249.74384199960431
 51
290.25615800039583
  0
LINE
  5
909A
  8
0
 10
685.41850540545067
 20
252.67917684447281
 30
0.0
 11
685.16850540544965
 21
252.82351441177079
 31
0.0
  0
ARC
  5
909B
  8
0
 10
681.16850540545079
 20
240.40367020605629
 30
0.0
 40
12.275506638416489
 50
69.743841999604243
 51
110.2561580003957
  0
LINE
  5
909C
  8
0
 10
668.66850540545192
 20
252.82351441177079
 30
0.0
 11
685.16850540544965
 21
252.82351441177079
 31
0.0
  0
LINE
  5
909D
  8
0
 10
685.16850540545079
 20
246.82351441177079
 30
0.0
 11
668.66850540545079
 21
246.82351441177079
 31
0.0
  0
LINE
  5
909F
  8
0
 10
424.06209571781022
 20
272.32351190092521
 30
0.0
 11
424.31171624483932
 21
272.32351190092521
 31
0.0
  0
LINE
  5
90A0
  8
0
 10
424.06209571781022
 20
271.82351833822679
 30
0.0
 11
424.31171624483932
 21
271.82351833822679
 31
0.0
  0
LINE
  5
90A1
  8
0
 10
464.06209482374061
 20
272.32351190092521
 30
0.0
 11
463.81247429671151
 21
272.32351190092521
 31
0.0
  0
LINE
  5
90A2
  8
0
 10
463.81247429671151
 20
271.82351833822679
 30
0.0
 11
464.06209482374061
 21
271.82351833822679
 31
0.0
  0
LINE
  5
90A3
  8
0
 10
424.06209571781022
 20
271.82351833822679
 30
0.0
 11
424.06209527077539
 21
215.6235147023435
 31
0.0
  0
LINE
  5
90A4
  8
0
 10
464.06209527077539
 20
215.6235147023435
 30
0.0
 11
464.06209527077539
 21
271.82351833822679
 31
0.0
  0
LINE
  5
90A5
  8
0
 10
424.8620952707754
 20
214.8235147023434
 30
0.0
 11
463.26209527077538
 21
214.8235147023434
 31
0.0
  0
LINE
  5
90A6
  8
0
 10
424.86209435882432
 20
212.8235135996575
 30
0.0
 11
463.26209618272651
 21
212.8235135996575
 31
0.0
  0
LINE
  5
90A7
  8
0
 10
424.86209435882432
 20
212.8235135996575
 30
0.0
 11
424.06209571781022
 21
212.0235149586434
 31
0.0
  0
LINE
  5
90A8
  8
0
 10
402.3620952707754
 20
209.82351437451791
 30
0.0
 11
485.76209527077549
 21
209.82351437451791
 31
0.0
  0
LINE
  5
90A9
  8
0
 10
424.06209571781022
 20
212.0235149586434
 30
0.0
 11
424.06209571781022
 21
209.823514374518
 31
0.0
  0
LINE
  5
90AA
  8
0
 10
464.06209482374049
 20
212.02351495864369
 30
0.0
 11
464.06209482374061
 21
209.8235143745182
 31
0.0
  0
LINE
  5
90AB
  8
0
 10
463.2620961827264
 20
212.82351359965779
 30
0.0
 11
464.06209482374049
 21
212.02351495864369
 31
0.0
  0
LINE
  5
90AC
  8
0
 10
485.76209707679612
 20
194.82351437451791
 30
0.0
 11
402.36209346475471
 21
194.82351437451791
 31
0.0
  0
LINE
  5
90AD
  8
0
 10
401.56209527077539
 20
209.0235143745179
 30
0.0
 11
401.56209482374061
 21
195.62351435430821
 31
0.0
  0
LINE
  5
90AE
  8
0
 10
486.56209527077539
 20
209.0235143745179
 30
0.0
 11
486.56209571781022
 21
195.62351435430821
 31
0.0
  0
LINE
  5
90AF
  8
0
 10
486.56209571781022
 20
195.62351435430821
 30
0.0
 11
485.76209707679612
 21
194.82351437451791
 31
0.0
  0
ARC
  5
90B0
  8
0
 10
485.76209527077538
 20
209.0235143745179
 30
0.0
 40
0.7999999999999972
 50
0.000000000000007
 51
90.0
  0
ARC
  5
90B1
  8
0
 10
215.45568513609999
 20
240.40367020605629
 30
0.0
 40
12.275506638416489
 50
69.743841999607298
 51
110.2561580003927
  0
LINE
  5
90B2
  8
0
 10
219.7056851361001
 20
252.67917684447281
 30
0.0
 11
219.45568513609899
 21
252.82351441177079
 31
0.0
  0
LINE
  5
90B3
  8
0
 10
219.7056851361001
 20
246.9678519790682
 30
0.0
 11
219.45568513609899
 21
246.82351441177019
 31
0.0
  0
ARC
  5
90B4
  8
0
 10
215.45568513609999
 20
259.24335861748472
 30
0.0
 40
12.275506638416489
 50
249.74384199960721
 51
290.2561580003927
  0
LINE
  5
90B5
  8
0
 10
219.7056851361001
 20
252.67917684447281
 30
0.0
 11
219.70568513609999
 21
246.9678519790682
 31
0.0
  0
LINE
  5
90B6
  8
0
 10
211.20568513609999
 20
251.9199874659185
 30
0.0
 11
211.20568513609999
 21
247.72704135762231
 31
0.0
  0
LINE
  5
90B7
  8
0
 10
202.7056851360999
 20
252.67917684447281
 30
0.0
 11
202.70568513609999
 21
246.9678519790682
 31
0.0
  0
LINE
  5
90B8
  8
0
 10
202.7056851360999
 20
246.9678519790682
 30
0.0
 11
202.95568513610101
 21
246.82351441177019
 31
0.0
  0
ARC
  5
90B9
  8
0
 10
206.95568513609999
 20
259.24335861748472
 30
0.0
 40
12.275506638416489
 50
249.74384199960721
 51
290.2561580003927
  0
LINE
  5
90BA
  8
0
 10
202.7056851360999
 20
252.67917684447281
 30
0.0
 11
202.95568513610101
 21
252.82351441177079
 31
0.0
  0
ARC
  5
90BB
  8
0
 10
206.95568513609999
 20
240.40367020605629
 30
0.0
 40
12.275506638416489
 50
69.743841999607298
 51
110.2561580003927
  0
LINE
  5
90BC
  8
0
 10
219.45568513609891
 20
252.82351441177079
 30
0.0
 11
202.95568513610101
 21
252.82351441177079
 31
0.0
  0
LINE
  5
90BD
  8
0
 10
202.9556851360999
 20
246.82351441177079
 30
0.0
 11
219.45568513609999
 21
246.82351441177079
 31
0.0
  0
ARC
  5
90BE
  8
0
 10
215.45568832494851
 20
268.4036738121373
 30
0.0
 40
12.275506638416489
 50
69.743841999607298
 51
110.2561580003927
  0
LINE
  5
90BF
  8
0
 10
219.70568832494851
 20
280.67918045055382
 30
0.0
 11
219.45568832494749
 21
280.82351801785182
 31
0.0
  0
LINE
  5
90C0
  8
0
 10
219.70568832494851
 20
274.96785558514921
 30
0.0
 11
219.45568832494749
 21
274.8235180178512
 31
0.0
  0
ARC
  5
90C1
  8
0
 10
215.45568832494851
 20
287.24336222356573
 30
0.0
 40
12.275506638416489
 50
249.74384199960721
 51
290.2561580003927
  0
LINE
  5
90C2
  8
0
 10
219.70568832494851
 20
280.67918045055382
 30
0.0
 11
219.70568832494851
 21
274.96785558514921
 31
0.0
  0
LINE
  5
90C3
  8
0
 10
211.20568832494851
 20
279.9199910719995
 30
0.0
 11
211.20568832494851
 21
275.72704496370329
 31
0.0
  0
LINE
  5
90C4
  8
0
 10
202.7056883249484
 20
280.67918045055382
 30
0.0
 11
202.70568832494851
 21
274.96785558514921
 31
0.0
  0
LINE
  5
90C5
  8
0
 10
202.7056883249484
 20
274.96785558514921
 30
0.0
 11
202.95568832494951
 21
274.8235180178512
 31
0.0
  0
ARC
  5
90C6
  8
0
 10
206.95568832494851
 20
287.24336222356573
 30
0.0
 40
12.275506638416489
 50
249.74384199960721
 51
290.2561580003927
  0
LINE
  5
90C7
  8
0
 10
202.7056883249484
 20
280.67918045055382
 30
0.0
 11
202.95568832494951
 21
280.82351801785182
 31
0.0
  0
ARC
  5
90C8
  8
0
 10
206.95568832494851
 20
268.4036738121373
 30
0.0
 40
12.275506638416489
 50
69.743841999607298
 51
110.2561580003927
  0
LINE
  5
90C9
  8
0
 10
219.4556883249474
 20
280.82351801785182
 30
0.0
 11
202.95568832494951
 21
280.82351801785182
 31
0.0
  0
LINE
  5
90CA
  8
0
 10
202.9556883249484
 20
274.82351801785182
 30
0.0
 11
219.45568832494851
 21
274.82351801785182
 31
0.0
  0
LINE
  5
90CB
  8
0
 10
81.438127277674297
 20
285.32351589443641
 30
0.0
 11
97.438128256184669
 21
285.32351589443641
 31
0.0
  0
LINE
  5
90CC
  8
0
 10
103.43812507726911
 20
285.32351589443641
 30
0.0
 11
119.43812605577909
 21
285.32351589443641
 31
0.0
  0
LINE
  5
90CD
  8
0
 10
103.9381266667269
 20
284.89422891661491
 30
0.0
 11
103.93812677476021
 21
281.68953991177028
 31
0.0
  0
LINE
  5
90CE
  8
0
 10
103.93812677475989
 20
281.68953991177028
 30
0.0
 11
105.43812655496779
 21
280.8235142255063
 31
0.0
  0
LINE
  5
90CF
  8
0
 10
96.93812655869344
 20
281.68953991177028
 30
0.0
 11
95.438126778485554
 21
280.8235142255063
 31
0.0
  0
LINE
  5
90D0
  8
0
 10
96.938126666726518
 20
284.89422891661491
 30
0.0
 11
96.938126558693156
 21
281.68953991177028
 31
0.0
  0
LINE
  5
90D1
  8
0
 10
90.623172090503147
 20
279.91999002146798
 30
0.0
 11
92.188126666726703
 21
280.82351696732019
 31
0.0
  0
ARC
  5
90D2
  8
0
 10
107.7993425988948
 20
279.31275320693749
 30
0.0
 40
4.3448986723233833
 50
235.61575253197719
 51
295.61575253209139
  0
ARC
  5
90D3
  8
0
 10
100.4381266667302
 20
291.20866515608287
 30
0.0
 40
16.24081062146659
 50
252.4120462260118
 51
287.58795377395359
  0
ARC
  5
90D4
  8
0
 10
93.076910734559405
 20
279.31275320694192
 30
0.0
 40
4.3448986723233833
 50
244.38424746787399
 51
304.3842474679883
  0
LINE
  5
90D5
  8
0
 10
95.530649378613873
 20
279.91999002146798
 30
0.0
 11
95.530649378614484
 21
275.72704391317183
 31
0.0
  0
LINE
  5
90D6
  8
0
 10
90.623172090503147
 20
275.727043913172
 30
0.0
 11
92.188126666726703
 21
274.82351696731968
 31
0.0
  0
LINE
  5
90D7
  8
0
 10
90.623172090503147
 20
279.91999002146792
 30
0.0
 11
90.623172090503147
 21
275.727043913172
 31
0.0
  0
LINE
  5
90D8
  8
0
 10
110.2530812429502
 20
279.91999002146798
 30
0.0
 11
108.6881266667267
 21
280.82351696732019
 31
0.0
  0
LINE
  5
90D9
  8
0
 10
105.3456039548379
 20
279.91999002146758
 30
0.0
 11
105.3456039548376
 21
275.7270439131687
 31
0.0
  0
LINE
  5
90DA
  8
0
 10
81.438127277674297
 20
285.32351589443641
 30
0.0
 11
80.438127113761524
 21
284.32351386787838
 31
0.0
  0
LINE
  5
90DB
  8
0
 10
80.438127113761524
 20
284.32351386787838
 30
0.0
 11
80.438127113761524
 21
272.32351190092521
 31
0.0
  0
LINE
  5
90DD
  8
0
 10
119.43812605577909
 20
285.32351589443641
 30
0.0
 11
120.4381262196918
 21
284.32351386787838
 31
0.0
  0
LINE
  5
90DE
  8
0
 10
120.4381262196918
 20
284.32351386787838
 30
0.0
 11
120.4381262196918
 21
272.32351190092521
 31
0.0
  0
LINE
  5
90DF
  8
0
 10
120.4381262196918
 20
284.32351386787838
 30
0.0
 11
103.9381266859662
 21
284.32351386787838
 31
0.0
  0
LINE
  5
90E0
  8
0
 10
96.938126647487124
 20
284.32351386787838
 30
0.0
 11
80.438127113761524
 21
284.32351386787838
 31
0.0
  0
LINE
  5
90E1
  8
0
 10
120.4381262196918
 20
271.82351833822679
 30
0.0
 11
120.4381266667267
 21
215.62351470870701
 31
0.0
  0
LINE
  5
90E2
  8
0
 10
119.63812666672671
 20
214.8235147023434
 30
0.0
 11
81.238126666726686
 21
214.8235147023434
 31
0.0
  0
LINE
  5
90E3
  8
0
 10
120.1885056926628
 20
271.82351833822679
 30
0.0
 11
120.4381262196918
 21
271.82351834021239
 31
0.0
  0
LINE
  5
90E4
  8
0
 10
120.4381262196918
 20
272.32351190092521
 30
0.0
 11
120.1885056926628
 21
272.32351190092521
 31
0.0
  0
LINE
  5
90E5
  8
0
 10
120.2118464990278
 20
274.82351696732002
 30
0.0
 11
120.2118464990278
 21
272.32351190092521
 31
0.0
  0
LINE
  5
90E6
  8
0
 10
120.1885056926628
 20
271.82351833822679
 30
0.0
 11
120.1885056926628
 21
274.82351696732002
 31
0.0
  0
LINE
  5
90E7
  8
0
 10
80.687747640790576
 20
271.82351833822679
 30
0.0
 11
80.687747640790576
 21
274.82351696732002
 31
0.0
  0
LINE
  5
90E8
  8
0
 10
80.664406834425549
 20
274.82351696732002
 30
0.0
 11
80.664406834425549
 21
272.32351190092521
 31
0.0
  0
LINE
  5
90E9
  8
0
 10
80.438127113761524
 20
272.32351190092521
 30
0.0
 11
80.687747640790576
 21
272.32351190092521
 31
0.0
  0
LINE
  5
90EA
  8
0
 10
80.687747640790576
 20
271.82351833822679
 30
0.0
 11
80.438127113761524
 21
271.82351834021239
 31
0.0
  0
LINE
  5
90EB
  8
0
 10
80.438127113761524
 20
271.82351833822679
 30
0.0
 11
80.438126666726689
 21
215.62351470870701
 31
0.0
  0
ARC
  5
90EC
  8
0
 10
81.238126666726714
 20
215.6235147023435
 30
0.0
 40
0.8000000000000113
 50
180.0
 51
269.9999999999992
  0
LINE
  5
90ED
  8
0
 10
120.2118464990278
 20
274.82351696732002
 30
0.0
 11
80.664406834425549
 21
274.82351696732002
 31
0.0
  0
LINE
  5
90EE
  8
0
 10
110.4381266667268
 20
253.6235147023435
 30
0.0
 11
110.4381266667268
 21
274.82351696732002
 31
0.0
  0
LINE
  5
90EF
  8
0
 10
113.7714603229186
 20
245.82351407649469
 30
0.0
 11
113.7714603229186
 21
274.82351696732002
 31
0.0
  0
LINE
  5
90F1
  8
0
 10
91.238126666726885
 20
252.82351470234349
 30
0.0
 11
109.63812666672681
 21
252.82351470234349
 31
0.0
  0
LINE
  5
90F2
  8
0
 10
113.7714603229186
 20
245.82351407649469
 30
0.0
 11
105.43812655496809
 21
245.82351407649469
 31
0.0
  0
LINE
  5
90F3
  8
0
 10
105.3456039548383
 20
251.91998915720029
 30
0.0
 11
105.34560395483869
 21
247.72704304890459
 31
0.0
  0
LINE
  5
90F4
  8
0
 10
110.2530812429504
 20
251.9199891572006
 30
0.0
 11
110.2530812429504
 21
247.72704304890459
 31
0.0
  0
LINE
  5
90F5
  8
0
 10
90.623172090502948
 20
251.9199891572006
 30
0.0
 11
90.623172090502948
 21
247.72704304890459
 31
0.0
  0
LINE
  5
90F6
  8
0
 10
95.530649378615124
 20
251.91998915720029
 30
0.0
 11
95.530649378614669
 21
247.72704304890459
 31
0.0
  0
LINE
  5
90F9
  8
0
 10
87.10479301053482
 20
245.82351407649469
 30
0.0
 11
87.10479301053482
 21
274.82351696732002
 31
0.0
  0
LINE
  5
90FA
  8
0
 10
90.438126666726532
 20
253.6235147023435
 30
0.0
 11
90.438126666726546
 21
274.82351696732002
 31
0.0
  0
ARC
  5
90FB
  8
0
 10
91.238126666726544
 20
253.6235147023435
 30
0.0
 40
0.8000000000000113
 50
180.0
 51
269.9999999999992
  0
ARC
  5
90FC
  8
0
 10
91.238126666726544
 20
253.6235147023435
 30
0.0
 40
0.8000000000000113
 50
180.0
 51
269.9999999999992
  0
LINE
  5
90FD
  8
0
 10
87.10479301053482
 20
245.82351407649469
 30
0.0
 11
95.438126778485255
 21
245.82351407649469
 31
0.0
  0
LINE
  5
90FE
  8
3
 10
96.250126666726615
 20
236.32351345064589
 30
0.0
 11
96.250126666726672
 21
246.82351610305261
 31
0.0
  0
LINE
  5
90FF
  8
0
 10
95.438126778485284
 20
246.82351610305261
 30
0.0
 11
95.438126778485284
 21
236.323513450646
 31
0.0
  0
LINE
  5
9100
  8
0
 10
114.4381266667267
 20
214.32351437451791
 30
0.0
 11
114.4381266667267
 21
214.8235147023434
 31
0.0
  0
LINE
  5
9101
  8
0
 10
81.238125754775623
 20
212.8235135996575
 30
0.0
 11
119.6381275786777
 21
212.8235135996575
 31
0.0
  0
LINE
  5
9102
  8
0
 10
120.4381262196918
 20
212.0235149586434
 30
0.0
 11
120.43812622853611
 21
209.8235142872818
 31
0.0
  0
LINE
  5
9103
  8
0
 10
119.6381275786777
 20
212.8235135996575
 30
0.0
 11
120.4381262196918
 21
212.0235149586434
 31
0.0
  0
LINE
  5
9104
  8
0
 10
86.438126666726717
 20
214.32351437451791
 30
0.0
 11
86.438126666726717
 21
214.8235147023434
 31
0.0
  0
ARC
  5
9105
  8
0
 10
84.938126666726703
 20
214.32351437451791
 30
0.0
 40
1.5
 50
269.9999999999992
 51
0.000000000000007
  0
LINE
  5
9106
  8
0
 10
81.238125754775623
 20
212.8235135996575
 30
0.0
 11
80.438127113761524
 21
212.0235149586434
 31
0.0
  0
LINE
  5
9107
  8
0
 10
80.438127113761524
 20
212.0235149586434
 30
0.0
 11
80.438127104917314
 21
209.8235142872818
 31
0.0
  0
LINE
  5
9108
  8
1
 10
219.20568832494851
 20
115.7689421357879
 30
0.0
 11
219.20568832494851
 21
97.768942135787881
 31
0.0
  0
LINE
  5
9109
  8
1
 10
211.2056883249484
 20
95.268941673851828
 30
0.0
 11
211.2056883249484
 21
118.26894259772379
 31
0.0
  0
TEXT
  5
97F3
  8
0
 62
     3
 10
0.0
 20
0.0
 30
0.0
 40
10.0
  1
QLSWC-1240KR
  7
STANDARD1
  0
ENDSEC
  0
EOF
