  0
SECTION
  2
HEADER
  9
$ACADVER
  1
AC1009
  9
$INSBASE
 10
0.0
 20
0.0
 30
0.0
  9
$EXTMIN
 10
0.0
 20
-2.960436562073669
 30
0.0
  9
$EXTMAX
 10
410.25588204410661
 20
358.4584252884527
 30
0.0
  9
$LIMMIN
 10
0.0
 20
0.0
  9
$LIMMAX
 10
420.0
 20
297.0
  9
$ORTHOMODE
 70
     1
  9
$REGENMODE
 70
     1
  9
$FILLMODE
 70
     1
  9
$QTEXTMODE
 70
     0
  9
$MIRRTEXT
 70
     1
  9
$DRAGMODE
 70
     2
  9
$LTSCALE
 40
1.0
  9
$OSMODE
 70
    37
  9
$ATTMODE
 70
     1
  9
$TEXTSIZE
 40
2.5
  9
$TRACEWID
 40
1.0
  9
$TEXTSTYLE
  7
STANDARD
  9
$CLAYER
  8
0
  9
$CELTYPE
  6
BYLAYER
  9
$CECOLOR
 62
   256
  9
$DIMSCALE
 40
1.0
  9
$DIMASZ
 40
3.0
  9
$DIMEXO
 40
1.0
  9
$DIMDLI
 40
3.75
  9
$DIMRND
 40
0.0
  9
$DIMDLE
 40
0.0
  9
$DIMEXE
 40
1.0
  9
$DIMTP
 40
0.0
  9
$DIMTM
 40
0.0
  9
$DIMTXT
 40
4.2333333333333316
  9
$DIMCEN
 40
2.5
  9
$DIMTSZ
 40
0.0
  9
$DIMTOL
 70
     0
  9
$DIMLIM
 70
     0
  9
$DIMTIH
 70
     1
  9
$DIMTOH
 70
     1
  9
$DIMSE1
 70
     0
  9
$DIMSE2
 70
     0
  9
$DIMTAD
 70
     1
  9
$DIMZIN
 70
     0
  9
$DIMBLK
  1

  9
$DIMASO
 70
     1
  9
$DIMSHO
 70
     1
  9
$DIMPOST
  1

  9
$DIMAPOST
  1

  9
$DIMALT
 70
     0
  9
$DIMALTD
 70
     3
  9
$DIMALTF
 40
0.0393700787401575
  9
$DIMLFAC
 40
1.0
  9
$DIMTOFL
 70
     1
  9
$DIMTVP
 40
0.0
  9
$DIMTIX
 70
     0
  9
$DIMSOXD
 70
     0
  9
$DIMSAH
 70
     0
  9
$DIMBLK1
  1

  9
$DIMBLK2
  1

  9
$DIMSTYLE
  2
ISO-25
  9
$DIMCLRD
 70
     0
  9
$DIMCLRE
 70
     0
  9
$DIMCLRT
 70
     0
  9
$DIMTFAC
 40
1.0
  9
$DIMGAP
 40
1.524
  9
$LUNITS
 70
     2
  9
$LUPREC
 70
     1
  9
$SKETCHINC
 40
1.0
  9
$FILLETRAD
 40
10.0
  9
$AUNITS
 70
     0
  9
$AUPREC
 70
     0
  9
$MENU
  1
.
  9
$ELEVATION
 40
0.0
  9
$PELEVATION
 40
0.0
  9
$THICKNESS
 40
0.0
  9
$LIMCHECK
 70
     0
  9
$BLIPMODE
 70
     0
  9
$CHAMFERA
 40
10.0
  9
$CHAMFERB
 40
10.0
  9
$SKPOLY
 70
     0
  9
$TDCREATE
 40
2454988.4966681129
  9
$TDUPDATE
 40
2458590.3851525811
  9
$TDINDWG
 40
0.3366120602
  9
$TDUSRTIMER
 40
0.3366120602
  9
$USRTIMER
 70
     1
  9
$ANGBASE
 50
0.0
  9
$ANGDIR
 70
     0
  9
$PDMODE
 70
     0
  9
$PDSIZE
 40
-1.0
  9
$PLINEWID
 40
0.0
  9
$COORDS
 70
     1
  9
$SPLFRAME
 70
     0
  9
$SPLINETYPE
 70
     6
  9
$SPLINESEGS
 70
     8
  9
$ATTDIA
 70
     0
  9
$ATTREQ
 70
     1
  9
$HANDLING
 70
     1
  9
$HANDSEED
  5
A174
  9
$SURFTAB1
 70
     6
  9
$SURFTAB2
 70
     6
  9
$SURFTYPE
 70
     6
  9
$SURFU
 70
     6
  9
$SURFV
 70
     6
  9
$UCSNAME
  2

  9
$UCSORG
 10
0.0
 20
0.0
 30
0.0
  9
$UCSXDIR
 10
1.0
 20
0.0
 30
0.0
  9
$UCSYDIR
 10
0.0
 20
1.0
 30
0.0
  9
$PUCSNAME
  2

  9
$PUCSORG
 10
0.0
 20
0.0
 30
0.0
  9
$PUCSXDIR
 10
1.0
 20
0.0
 30
0.0
  9
$PUCSYDIR
 10
0.0
 20
1.0
 30
0.0
  9
$USERI1
 70
     0
  9
$USERI2
 70
     0
  9
$USERI3
 70
     0
  9
$USERI4
 70
     0
  9
$USERI5
 70
     0
  9
$USERR1
 40
0.0
  9
$USERR2
 40
0.0
  9
$USERR3
 40
0.0
  9
$USERR4
 40
0.0
  9
$USERR5
 40
0.0
  9
$WORLDVIEW
 70
     1
  9
$SHADEDGE
 70
     3
  9
$SHADEDIF
 70
    70
  9
$TILEMODE
 70
     1
  9
$MAXACTVP
 70
    64
  9
$PLIMCHECK
 70
     0
  9
$PEXTMIN
 10
1.0000000000000000E+020
 20
1.0000000000000000E+020
 30
1.0000000000000000E+020
  9
$PEXTMAX
 10
-1.0000000000000000E+020
 20
-1.0000000000000000E+020
 30
-1.0000000000000000E+020
  9
$PLIMMIN
 10
0.0
 20
0.0
  9
$PLIMMAX
 10
420.0
 20
297.0
  9
$UNITMODE
 70
     0
  9
$VISRETAIN
 70
     1
  9
$PLINEGEN
 70
     0
  9
$PSLTSCALE
 70
     1
  0
ENDSEC
  0
SECTION
  2
TABLES
  0
TABLE
  2
VPORT
 70
     1
  0
VPORT
  2
*ACTIVE
 70
     0
 10
0.0
 20
0.0
 11
1.0
 21
1.0
 12
404.24131040924698
 22
177.7489952046833
 13
0.0
 23
0.0
 14
10.0
 24
10.0
 15
10.0
 25
10.0
 16
0.0
 26
0.0
 36
1.0
 17
0.0
 27
0.0
 37
0.0
 40
364.57027973156198
 41
2.4116743471582178
 42
50.0
 43
0.0
 44
0.0
 50
0.0
 51
0.0
 71
     0
 72
  2000
 73
     1
 74
     3
 75
     0
 76
     0
 77
     0
 78
     0
  0
ENDTAB
  0
TABLE
  2
LTYPE
 70
     2
  0
LTYPE
  2
CONTINUOUS
 70
     0
  3
Solid line
 72
    65
 73
     0
 40
0.0
  0
LTYPE
  2
CENTER
 70
     0
  3
Center ____ _ ____ _ ____ _ ____ _ ____ _ ____
 72
    65
 73
     4
 40
10.16
 49
6.3499999999999988
 49
-1.27
 49
1.27
 49
-1.27
  0
ENDTAB
  0
TABLE
  2
LAYER
 70
     4
  0
LAYER
  2
0
 70
     0
 62
     7
  6
CONTINUOUS
  0
LAYER
  2
DEFPOINTS
 70
     0
 62
     7
  6
CONTINUOUS
  0
LAYER
  2
1
 70
     0
 62
     1
  6
CENTER
  0
LAYER
  2
3
 70
     0
 62
     3
  6
CONTINUOUS
  0
ENDTAB
  0
TABLE
  2
STYLE
 70
     2
  0
STYLE
  2
STANDARD
 70
     0
 40
0.0
 41
1.0
 50
0.0
 71
     0
 42
2.5
  3
txt
  4
bigfont
  0
STYLE
  2
STANDARD1
 70
     0
 40
0.0
 41
1.0
 50
0.0
 71
     0
 42
3.0
  3
txt
  4

  0
ENDTAB
  0
TABLE
  2
VIEW
 70
     0
  0
ENDTAB
  0
TABLE
  2
UCS
 70
     0
  0
ENDTAB
  0
TABLE
  2
APPID
 70
     4
  0
APPID
  2
ACAD
 70
     0
  0
APPID
  2
ACAD_MLEADERVER
 70
     0
  0
APPID
  2
ACAD_NAV_VCDISPLAY
 70
     0
  0
APPID
  2
ACAD_EXEMPT_FROM_CAD_STANDARDS
 70
     0
  0
ENDTAB
  0
TABLE
  2
DIMSTYLE
 70
     2
  0
DIMSTYLE
  2
ISO-25
 70
     0
  3

  4

  5

  6

  7

 40
1.0
 41
2.5
 42
0.625
 43
3.75
 44
1.25
 45
0.0
 46
0.0
 47
0.0
 48
0.0
140
2.5
141
2.5
142
0.0
143
0.03937007874016
144
1.0
145
0.0
146
1.0
147
0.625
 71
     0
 72
     0
 73
     0
 74
     0
 75
     0
 76
     0
 77
     1
 78
     8
170
     0
171
     3
172
     1
173
     0
174
     0
175
     0
176
     0
177
     0
178
     0
  0
DIMSTYLE
  2
STANDARD
 70
     0
  3

  4

  5

  6

  7

 40
1.0
 41
0.18
 42
0.0625
 43
0.38
 44
0.18
 45
0.0
 46
0.0
 47
0.0
 48
0.0
140
0.18
141
0.09
142
0.0
143
25.399999999999999
144
1.0
145
0.0
146
1.0
147
0.09
 71
     0
 72
     0
 73
     1
 74
     1
 75
     0
 76
     0
 77
     0
 78
     0
170
     0
171
     2
172
     0
173
     0
174
     0
175
     0
176
     0
177
     0
178
     0
  0
ENDTAB
  0
ENDSEC
  0
SECTION
  2
BLOCKS
  0
BLOCK
  8
0
  2
$MODEL_SPACE
 70
     0
 10
0.0
 20
0.0
 30
0.0
  3
$MODEL_SPACE
  1

  0
ENDBLK
  5
21
  8
0
  0
BLOCK
 67
     1
  8
0
  2
$PAPER_SPACE
 70
     0
 10
0.0
 20
0.0
 30
0.0
  3
$PAPER_SPACE
  1

  0
ENDBLK
  5
1D
 67
     1
  8
0
  0
ENDSEC
  0
SECTION
  2
ENTITIES
  0
ARC
  5
E8
  8
0
 10
145.0867795806916
 20
218.2520388414346
 30
0.0
 40
4.9999905750364606
 50
53.130027648964351
 51
126.8699723510356
  0
ARC
  5
EC
  8
0
 10
167.58677975330491
 20
163.75202515226661
 30
0.0
 40
0.4999988948432896
 50
179.99975516337611
 51
270.00013603396661
  0
ARC
  5
ED
  8
0
 10
196.58678241727421
 20
163.75202356241371
 30
0.0
 40
0.4999973049923934
 50
269.99978850234203
 51
0.0004270221067763
  0
ARC
  5
EF
  8
0
 10
161.08677750077899
 20
189.2520251945171
 30
0.0
 40
6.000003357687703
 50
0.000022672021254
 51
89.999963987765796
  0
ARC
  5
F0
  8
0
 10
137.58677781659131
 20
195.75202903072801
 30
0.0
 40
0.5000004785246989
 50
179.9999387217012
 51
270.0000612782996
  0
ARC
  5
FA
  8
0
 10
171.08677978962601
 20
163.25202773045859
 30
0.0
 40
1.00000095708152
 50
270.00004544517839
 51
0.0000079156429242
  0
ARC
  5
FB
  8
0
 10
193.0867817224154
 20
163.25202773045859
 30
0.0
 40
1.0000009570814981
 50
179.9999920843571
 51
269.9999545548248
  0
LINE
  5
10F
  8
0
 10
141.34512315062599
 20
195.2520285522036
 30
0.0
 11
141.33400315908511
 21
195.2520285522036
 31
0.0
  0
LINE
  5
112
  8
0
 10
137.58122394351079
 20
195.2520285522036
 30
0.0
 11
137.5867783513458
 21
195.2520285522036
 31
0.0
  0
LINE
  5
113
  8
0
 10
141.32844130066951
 20
195.2520285522036
 30
0.0
 11
141.33400315908511
 21
195.2520285522036
 31
0.0
  0
LINE
  5
117
  8
0
 10
141.34512315062599
 20
213.25203150263351
 30
0.0
 11
141.33400315908511
 21
213.25203150263351
 31
0.0
  0
LINE
  5
11B
  8
0
 10
137.58122394351079
 20
213.25203150263351
 30
0.0
 11
137.5867783513458
 21
213.25203150263351
 31
0.0
  0
LINE
  5
11C
  8
0
 10
141.32844130066951
 20
213.25203150263351
 30
0.0
 11
141.33400315908511
 21
213.25203150263351
 31
0.0
  0
LINE
  5
11F
  8
0
 10
187.08678087709259
 20
237.00202715149439
 30
0.0
 11
177.08678063494881
 21
237.00202715149439
 31
0.0
  0
LINE
  5
121
  8
0
 10
185.8367802065404
 20
238.25202595940161
 30
0.0
 11
178.33678083983969
 21
238.25202595940161
 31
0.0
  0
LINE
  5
122
  8
0
 10
141.33400315908511
 20
177.75202568373001
 30
0.0
 11
141.33400315908511
 21
183.25202658525029
 31
0.0
  0
LINE
  5
123
  8
0
 10
137.58122394351079
 20
177.75202568373001
 30
0.0
 11
137.58122394351079
 21
183.25202658525029
 31
0.0
  0
LINE
  5
124
  8
0
 10
141.33400315908511
 20
183.25202658525029
 30
0.0
 11
137.58122394351079
 21
183.25202658525029
 31
0.0
  0
LINE
  5
125
  8
0
 10
141.33400315908511
 20
177.75202568373001
 30
0.0
 11
137.58122394351079
 21
177.75202568373001
 31
0.0
  0
LINE
  5
126
  8
0
 10
148.8395560022982
 20
177.75202568373001
 30
0.0
 11
148.8395560022982
 21
183.25202658525029
 31
0.0
  0
LINE
  5
127
  8
0
 10
148.8395560022982
 20
183.25202658525029
 30
0.0
 11
141.33400315908511
 21
183.25202658525029
 31
0.0
  0
LINE
  5
128
  8
0
 10
148.8395560022982
 20
177.75202568373001
 30
0.0
 11
141.33400315908511
 21
177.75202568373001
 31
0.0
  0
LINE
  5
129
  8
0
 10
152.5923352178724
 20
177.75202568373001
 30
0.0
 11
152.5923352178724
 21
183.25202658525029
 31
0.0
  0
LINE
  5
12A
  8
0
 10
152.5923352178724
 20
183.25202658525029
 30
0.0
 11
148.8395560022982
 21
183.25202658525029
 31
0.0
  0
LINE
  5
12B
  8
0
 10
152.5923352178724
 20
177.75202568373001
 30
0.0
 11
148.8395560022982
 21
177.75202568373001
 31
0.0
  0
LINE
  5
12C
  8
0
 10
148.0867791411074
 20
218.82937967529821
 30
0.0
 11
142.08678002027591
 21
218.82937967529821
 31
0.0
  0
LINE
  5
12D
  8
0
 10
148.0867791411074
 20
222.252027389913
 30
0.0
 11
142.08678002027591
 21
222.252027389913
 31
0.0
  0
LINE
  5
12F
  8
0
 10
179.48678074894269
 20
210.75202643623871
 30
0.0
 11
179.48678074894269
 21
213.25203150263351
 31
0.0
  0
LINE
  5
130
  8
0
 10
179.48678074894269
 20
210.75202643623871
 30
0.0
 11
184.68678029743751
 21
210.75202643623871
 31
0.0
  0
LINE
  5
131
  8
0
 10
184.68678029743751
 20
213.25203150263351
 30
0.0
 11
184.68678029743751
 21
210.75202643623871
 31
0.0
  0
LINE
  5
138
  8
0
 10
196.58678057161879
 20
163.25202625742469
 30
0.0
 11
167.58678094042261
 21
163.2520262574248
 31
0.0
  0
LINE
  5
13E
  8
0
 10
165.56406984595381
 20
213.25203150263351
 30
0.0
 11
169.83115099860149
 21
213.25203150263351
 31
0.0
  0
LINE
  5
13F
  8
0
 10
161.08678127197339
 20
195.2520285522036
 30
0.0
 11
137.5867783513458
 21
195.2520285522036
 31
0.0
  0
LINE
  5
142
  8
0
 10
137.5867783513458
 20
213.25203150263351
 30
0.0
 11
179.5867805790694
 21
213.25203150263351
 31
0.0
  0
LINE
  5
150
  8
0
 10
197.08677972225269
 20
159.25202698013109
 30
0.0
 11
197.08677972225269
 21
147.2520270322851
 31
0.0
  0
LINE
  5
152
  8
0
 10
167.0867808584662
 20
159.25202698013109
 30
0.0
 11
167.0867808584662
 21
147.2520270322851
 31
0.0
  0
LINE
  5
154
  8
0
 10
197.08677972225269
 20
147.25202780714551
 30
0.0
 11
167.0867808584662
 21
147.25202780714551
 31
0.0
  0
LINE
  5
156
  8
0
 10
167.0867808584662
 20
159.25202698013109
 30
0.0
 11
197.08677972225269
 21
159.25202698013109
 31
0.0
  0
LINE
  5
15E
  8
0
 10
167.58678094042261
 20
162.25202677337751
 30
0.0
 11
196.58678057161879
 21
162.25202677337751
 31
0.0
  0
LINE
  5
161
  8
0
 10
171.9528062690587
 20
221.75202637663409
 30
0.0
 11
192.2207552429827
 21
221.75202637663409
 31
0.0
  0
LINE
  5
166
  8
0
 10
192.5671643999012
 20
219.95202570906201
 30
0.0
 11
171.60639618081771
 21
219.95202570906201
 31
0.0
  0
LINE
  5
167
  8
0
 10
172.27182616038041
 20
221.75202637663409
 30
0.0
 11
172.27182616038041
 21
232.84850388517901
 31
0.0
  0
LINE
  5
169
  8
0
 10
177.17930334178519
 20
221.75202637663409
 30
0.0
 11
177.17930334178519
 21
232.84850388517901
 31
0.0
  0
LINE
  5
16B
  8
0
 10
186.9942577045949
 20
221.75202637663409
 30
0.0
 11
186.9942577045949
 21
232.84850388517901
 31
0.0
  0
LINE
  5
16D
  8
0
 10
190.3367809441479
 20
233.75202834358731
 30
0.0
 11
173.83678056789361
 21
233.75202834358731
 31
0.0
  0
LINE
  5
16E
  8
0
 10
191.90173442033841
 20
221.75202637663409
 30
0.0
 11
191.90173442033841
 21
232.84850388517901
 31
0.0
  0
LINE
  5
171
  8
0
 10
168.0867800910564
 20
218.75202774754089
 30
0.0
 11
196.08678142098501
 21
218.75202774754089
 31
0.0
  0
LINE
  5
173
  8
0
 10
184.58678046731069
 20
211.2520274495177
 30
0.0
 11
184.58678046731069
 21
213.25203150263351
 31
0.0
  0
LINE
  5
174
  8
0
 10
184.58678046731069
 20
211.2520274495177
 30
0.0
 11
179.5867805790694
 21
211.2520274495177
 31
0.0
  0
LINE
  5
175
  8
0
 10
179.5867805790694
 20
211.2520274495177
 30
0.0
 11
179.5867805790694
 21
213.25203150263351
 31
0.0
  0
LINE
  5
177
  8
0
 10
197.08677972225269
 20
213.25203150263351
 30
0.0
 11
184.58678046731069
 21
213.25203150263351
 31
0.0
  0
LINE
  5
18C
  8
1
 10
182.08678052691539
 20
142.2520270322851
 30
0.0
 11
182.08678052691539
 21
243.25202595940149
 31
0.0
  0
POLYLINE
  5
39B
  8
0
 10
85.273186691154564
 20
218.75202703228521
 30
0.0
 66
     1
 70
     8
  0
VERTEX
  8
0
  5
9D64
 10
85.2732
 20
218.752
 30
0.000000
  70
    32
  0
VERTEX
  8
0
  5
9D65
 10
85.2916
 20
218.752
 30
0.000000
  70
    32
  0
VERTEX
  8
0
  5
9D66
 10
85.3100
 20
218.753
 30
0.000000
  70
    32
  0
VERTEX
  8
0
  5
9D67
 10
85.3284
 20
218.754
 30
0.000000
  70
    32
  0
VERTEX
  8
0
  5
9D68
 10
85.3467
 20
218.755
 30
0.000000
  70
    32
  0
VERTEX
  8
0
  5
9D69
 10
85.3650
 20
218.757
 30
0.000000
  70
    32
  0
VERTEX
  8
0
  5
9D6A
 10
85.3832
 20
218.759
 30
0.000000
  70
    32
  0
VERTEX
  8
0
  5
9D6B
 10
85.4014
 20
218.761
 30
0.000000
  70
    32
  0
VERTEX
  8
0
  5
9D6C
 10
85.4195
 20
218.764
 30
0.000000
  70
    32
  0
VERTEX
  8
0
  5
9D6D
 10
85.4375
 20
218.767
 30
0.000000
  70
    32
  0
VERTEX
  8
0
  5
9D6E
 10
85.4554
 20
218.770
 30
0.000000
  70
    32
  0
VERTEX
  8
0
  5
9D6F
 10
85.4732
 20
218.774
 30
0.000000
  70
    32
  0
VERTEX
  8
0
  5
9D70
 10
85.4909
 20
218.778
 30
0.000000
  70
    32
  0
VERTEX
  8
0
  5
9D71
 10
85.5084
 20
218.782
 30
0.000000
  70
    32
  0
VERTEX
  8
0
  5
9D72
 10
85.5259
 20
218.787
 30
0.000000
  70
    32
  0
VERTEX
  8
0
  5
9D73
 10
85.5431
 20
218.792
 30
0.000000
  70
    32
  0
VERTEX
  8
0
  5
9D74
 10
85.5602
 20
218.798
 30
0.000000
  70
    32
  0
VERTEX
  8
0
  5
9D75
 10
85.5771
 20
218.804
 30
0.000000
  70
    32
  0
VERTEX
  8
0
  5
9D76
 10
85.5939
 20
218.810
 30
0.000000
  70
    32
  0
VERTEX
  8
0
  5
9D77
 10
85.6104
 20
218.816
 30
0.000000
  70
    32
  0
VERTEX
  8
0
  5
9D78
 10
85.6267
 20
218.823
 30
0.000000
  70
    32
  0
VERTEX
  8
0
  5
9D79
 10
85.6429
 20
218.830
 30
0.000000
  70
    32
  0
VERTEX
  8
0
  5
9D7A
 10
85.6588
 20
218.837
 30
0.000000
  70
    32
  0
VERTEX
  8
0
  5
9D7B
 10
85.6744
 20
218.845
 30
0.000000
  70
    32
  0
VERTEX
  8
0
  5
9D7C
 10
85.6899
 20
218.853
 30
0.000000
  70
    32
  0
VERTEX
  8
0
  5
9D7D
 10
85.7050
 20
218.861
 30
0.000000
  70
    32
  0
VERTEX
  8
0
  5
9D7E
 10
85.7200
 20
218.870
 30
0.000000
  70
    32
  0
VERTEX
  8
0
  5
9D7F
 10
85.7346
 20
218.879
 30
0.000000
  70
    32
  0
VERTEX
  8
0
  5
9D80
 10
85.7490
 20
218.888
 30
0.000000
  70
    32
  0
VERTEX
  8
0
  5
9D81
 10
85.7631
 20
218.898
 30
0.000000
  70
    32
  0
VERTEX
  8
0
  5
9D82
 10
85.7769
 20
218.907
 30
0.000000
  70
    32
  0
VERTEX
  8
0
  5
9D83
 10
85.7903
 20
218.917
 30
0.000000
  70
    32
  0
VERTEX
  8
0
  5
9D84
 10
85.8035
 20
218.928
 30
0.000000
  70
    32
  0
VERTEX
  8
0
  5
9D85
 10
85.8164
 20
218.938
 30
0.000000
  70
    32
  0
VERTEX
  8
0
  5
9D86
 10
85.8289
 20
218.949
 30
0.000000
  70
    32
  0
VERTEX
  8
0
  5
9D87
 10
85.8411
 20
218.960
 30
0.000000
  70
    32
  0
VERTEX
  8
0
  5
9D88
 10
85.8529
 20
218.971
 30
0.000000
  70
    32
  0
VERTEX
  8
0
  5
9D89
 10
85.8644
 20
218.983
 30
0.000000
  70
    32
  0
VERTEX
  8
0
  5
9D8A
 10
85.8756
 20
218.995
 30
0.000000
  70
    32
  0
VERTEX
  8
0
  5
9D8B
 10
85.8864
 20
219.007
 30
0.000000
  70
    32
  0
VERTEX
  8
0
  5
9D8C
 10
85.8968
 20
219.019
 30
0.000000
  70
    32
  0
VERTEX
  8
0
  5
9D8D
 10
85.9068
 20
219.031
 30
0.000000
  70
    32
  0
VERTEX
  8
0
  5
9D8E
 10
85.9165
 20
219.044
 30
0.000000
  70
    32
  0
VERTEX
  8
0
  5
9D8F
 10
85.9258
 20
219.056
 30
0.000000
  70
    32
  0
VERTEX
  8
0
  5
9D90
 10
85.9346
 20
219.069
 30
0.000000
  70
    32
  0
VERTEX
  8
0
  5
9D91
 10
85.9431
 20
219.082
 30
0.000000
  70
    32
  0
VERTEX
  8
0
  5
9D92
 10
85.9512
 20
219.095
 30
0.000000
  70
    32
  0
VERTEX
  8
0
  5
9D93
 10
85.9588
 20
219.109
 30
0.000000
  70
    32
  0
VERTEX
  8
0
  5
9D94
 10
85.9661
 20
219.122
 30
0.000000
  70
    32
  0
VERTEX
  8
0
  5
9D95
 10
85.9729
 20
219.136
 30
0.000000
  70
    32
  0
VERTEX
  8
0
  5
9D96
 10
85.9793
 20
219.150
 30
0.000000
  70
    32
  0
VERTEX
  8
0
  5
9D97
 10
85.9853
 20
219.164
 30
0.000000
  70
    32
  0
VERTEX
  8
0
  5
9D98
 10
85.9909
 20
219.178
 30
0.000000
  70
    32
  0
VERTEX
  8
0
  5
9D99
 10
85.9960
 20
219.192
 30
0.000000
  70
    32
  0
VERTEX
  8
0
  5
9D9A
 10
86.0007
 20
219.206
 30
0.000000
  70
    32
  0
VERTEX
  8
0
  5
9D9B
 10
86.0050
 20
219.221
 30
0.000000
  70
    32
  0
VERTEX
  8
0
  5
9D9C
 10
86.0088
 20
219.235
 30
0.000000
  70
    32
  0
VERTEX
  8
0
  5
9D9D
 10
86.0121
 20
219.249
 30
0.000000
  70
    32
  0
VERTEX
  8
0
  5
9D9E
 10
86.0151
 20
219.264
 30
0.000000
  70
    32
  0
VERTEX
  8
0
  5
9D9F
 10
86.0175
 20
219.279
 30
0.000000
  70
    32
  0
VERTEX
  8
0
  5
9DA0
 10
86.0196
 20
219.293
 30
0.000000
  70
    32
  0
VERTEX
  8
0
  5
9DA1
 10
86.0212
 20
219.308
 30
0.000000
  70
    32
  0
VERTEX
  8
0
  5
9DA2
 10
86.0223
 20
219.323
 30
0.000000
  70
    32
  0
VERTEX
  8
0
  5
9DA3
 10
86.0230
 20
219.337
 30
0.000000
  70
    32
  0
VERTEX
  8
0
  5
9DA4
 10
86.0232
 20
219.352
 30
0.000000
  70
    32
  0
VERTEX
  8
0
  5
9DA5
 10
86.0230
 20
219.367
 30
0.000000
  70
    32
  0
VERTEX
  8
0
  5
9DA6
 10
86.0223
 20
219.381
 30
0.000000
  70
    32
  0
VERTEX
  8
0
  5
9DA7
 10
86.0212
 20
219.396
 30
0.000000
  70
    32
  0
VERTEX
  8
0
  5
9DA8
 10
86.0196
 20
219.411
 30
0.000000
  70
    32
  0
VERTEX
  8
0
  5
9DA9
 10
86.0175
 20
219.425
 30
0.000000
  70
    32
  0
VERTEX
  8
0
  5
9DAA
 10
86.0151
 20
219.440
 30
0.000000
  70
    32
  0
VERTEX
  8
0
  5
9DAB
 10
86.0121
 20
219.455
 30
0.000000
  70
    32
  0
VERTEX
  8
0
  5
9DAC
 10
86.0088
 20
219.469
 30
0.000000
  70
    32
  0
VERTEX
  8
0
  5
9DAD
 10
86.0050
 20
219.483
 30
0.000000
  70
    32
  0
VERTEX
  8
0
  5
9DAE
 10
86.0007
 20
219.498
 30
0.000000
  70
    32
  0
VERTEX
  8
0
  5
9DAF
 10
85.9960
 20
219.512
 30
0.000000
  70
    32
  0
VERTEX
  8
0
  5
9DB0
 10
85.9909
 20
219.526
 30
0.000000
  70
    32
  0
VERTEX
  8
0
  5
9DB1
 10
85.9853
 20
219.540
 30
0.000000
  70
    32
  0
VERTEX
  8
0
  5
9DB2
 10
85.9793
 20
219.554
 30
0.000000
  70
    32
  0
VERTEX
  8
0
  5
9DB3
 10
85.9729
 20
219.568
 30
0.000000
  70
    32
  0
VERTEX
  8
0
  5
9DB4
 10
85.9661
 20
219.582
 30
0.000000
  70
    32
  0
VERTEX
  8
0
  5
9DB5
 10
85.9588
 20
219.595
 30
0.000000
  70
    32
  0
VERTEX
  8
0
  5
9DB6
 10
85.9512
 20
219.609
 30
0.000000
  70
    32
  0
VERTEX
  8
0
  5
9DB7
 10
85.9431
 20
219.622
 30
0.000000
  70
    32
  0
VERTEX
  8
0
  5
9DB8
 10
85.9346
 20
219.635
 30
0.000000
  70
    32
  0
VERTEX
  8
0
  5
9DB9
 10
85.9258
 20
219.648
 30
0.000000
  70
    32
  0
VERTEX
  8
0
  5
9DBA
 10
85.9165
 20
219.660
 30
0.000000
  70
    32
  0
VERTEX
  8
0
  5
9DBB
 10
85.9068
 20
219.673
 30
0.000000
  70
    32
  0
VERTEX
  8
0
  5
9DBC
 10
85.8968
 20
219.685
 30
0.000000
  70
    32
  0
VERTEX
  8
0
  5
9DBD
 10
85.8864
 20
219.698
 30
0.000000
  70
    32
  0
VERTEX
  8
0
  5
9DBE
 10
85.8756
 20
219.709
 30
0.000000
  70
    32
  0
VERTEX
  8
0
  5
9DBF
 10
85.8644
 20
219.721
 30
0.000000
  70
    32
  0
VERTEX
  8
0
  5
9DC0
 10
85.8529
 20
219.733
 30
0.000000
  70
    32
  0
VERTEX
  8
0
  5
9DC1
 10
85.8411
 20
219.744
 30
0.000000
  70
    32
  0
VERTEX
  8
0
  5
9DC2
 10
85.8289
 20
219.755
 30
0.000000
  70
    32
  0
VERTEX
  8
0
  5
9DC3
 10
85.8164
 20
219.766
 30
0.000000
  70
    32
  0
VERTEX
  8
0
  5
9DC4
 10
85.8035
 20
219.776
 30
0.000000
  70
    32
  0
VERTEX
  8
0
  5
9DC5
 10
85.7903
 20
219.787
 30
0.000000
  70
    32
  0
VERTEX
  8
0
  5
9DC6
 10
85.7769
 20
219.797
 30
0.000000
  70
    32
  0
VERTEX
  8
0
  5
9DC7
 10
85.7631
 20
219.806
 30
0.000000
  70
    32
  0
VERTEX
  8
0
  5
9DC8
 10
85.7490
 20
219.816
 30
0.000000
  70
    32
  0
VERTEX
  8
0
  5
9DC9
 10
85.7346
 20
219.825
 30
0.000000
  70
    32
  0
VERTEX
  8
0
  5
9DCA
 10
85.7200
 20
219.834
 30
0.000000
  70
    32
  0
VERTEX
  8
0
  5
9DCB
 10
85.7050
 20
219.843
 30
0.000000
  70
    32
  0
VERTEX
  8
0
  5
9DCC
 10
85.6899
 20
219.851
 30
0.000000
  70
    32
  0
VERTEX
  8
0
  5
9DCD
 10
85.6744
 20
219.859
 30
0.000000
  70
    32
  0
VERTEX
  8
0
  5
9DCE
 10
85.6588
 20
219.867
 30
0.000000
  70
    32
  0
VERTEX
  8
0
  5
9DCF
 10
85.6429
 20
219.874
 30
0.000000
  70
    32
  0
VERTEX
  8
0
  5
9DD0
 10
85.6267
 20
219.881
 30
0.000000
  70
    32
  0
VERTEX
  8
0
  5
9DD1
 10
85.6104
 20
219.888
 30
0.000000
  70
    32
  0
VERTEX
  8
0
  5
9DD2
 10
85.5939
 20
219.894
 30
0.000000
  70
    32
  0
VERTEX
  8
0
  5
9DD3
 10
85.5771
 20
219.901
 30
0.000000
  70
    32
  0
VERTEX
  8
0
  5
9DD4
 10
85.5602
 20
219.906
 30
0.000000
  70
    32
  0
VERTEX
  8
0
  5
9DD5
 10
85.5431
 20
219.912
 30
0.000000
  70
    32
  0
VERTEX
  8
0
  5
9DD6
 10
85.5259
 20
219.917
 30
0.000000
  70
    32
  0
VERTEX
  8
0
  5
9DD7
 10
85.5084
 20
219.922
 30
0.000000
  70
    32
  0
VERTEX
  8
0
  5
9DD8
 10
85.4909
 20
219.926
 30
0.000000
  70
    32
  0
VERTEX
  8
0
  5
9DD9
 10
85.4732
 20
219.930
 30
0.000000
  70
    32
  0
VERTEX
  8
0
  5
9DDA
 10
85.4554
 20
219.934
 30
0.000000
  70
    32
  0
VERTEX
  8
0
  5
9DDB
 10
85.4375
 20
219.937
 30
0.000000
  70
    32
  0
VERTEX
  8
0
  5
9DDC
 10
85.4195
 20
219.940
 30
0.000000
  70
    32
  0
VERTEX
  8
0
  5
9DDD
 10
85.4014
 20
219.943
 30
0.000000
  70
    32
  0
VERTEX
  8
0
  5
9DDE
 10
85.3832
 20
219.946
 30
0.000000
  70
    32
  0
VERTEX
  8
0
  5
9DDF
 10
85.3650
 20
219.948
 30
0.000000
  70
    32
  0
VERTEX
  8
0
  5
9DE0
 10
85.3467
 20
219.949
 30
0.000000
  70
    32
  0
VERTEX
  8
0
  5
9DE1
 10
85.3284
 20
219.950
 30
0.000000
  70
    32
  0
VERTEX
  8
0
  5
9DE2
 10
85.3100
 20
219.951
 30
0.000000
  70
    32
  0
VERTEX
  8
0
  5
9DE3
 10
85.2916
 20
219.952
 30
0.000000
  70
    32
  0
VERTEX
  8
0
  5
9DE4
 10
85.2732
 20
219.952
 30
0.000000
  70
    32
  0
SEQEND
  8
0
  5
9DE5
  0
POLYLINE
  5
39C
  8
0
 10
64.773186691154592
 20
219.9520270322852
 30
0.0
 66
     1
 70
     8
  0
VERTEX
  8
0
  5
9DE6
 10
64.7732
 20
219.952
 30
0.000000
  70
    32
  0
VERTEX
  8
0
  5
9DE7
 10
64.7548
 20
219.952
 30
0.000000
  70
    32
  0
VERTEX
  8
0
  5
9DE8
 10
64.7364
 20
219.951
 30
0.000000
  70
    32
  0
VERTEX
  8
0
  5
9DE9
 10
64.7180
 20
219.950
 30
0.000000
  70
    32
  0
VERTEX
  8
0
  5
9DEA
 10
64.6997
 20
219.949
 30
0.000000
  70
    32
  0
VERTEX
  8
0
  5
9DEB
 10
64.6814
 20
219.948
 30
0.000000
  70
    32
  0
VERTEX
  8
0
  5
9DEC
 10
64.6631
 20
219.946
 30
0.000000
  70
    32
  0
VERTEX
  8
0
  5
9DED
 10
64.6450
 20
219.943
 30
0.000000
  70
    32
  0
VERTEX
  8
0
  5
9DEE
 10
64.6269
 20
219.940
 30
0.000000
  70
    32
  0
VERTEX
  8
0
  5
9DEF
 10
64.6089
 20
219.937
 30
0.000000
  70
    32
  0
VERTEX
  8
0
  5
9DF0
 10
64.5910
 20
219.934
 30
0.000000
  70
    32
  0
VERTEX
  8
0
  5
9DF1
 10
64.5732
 20
219.930
 30
0.000000
  70
    32
  0
VERTEX
  8
0
  5
9DF2
 10
64.5555
 20
219.926
 30
0.000000
  70
    32
  0
VERTEX
  8
0
  5
9DF3
 10
64.5379
 20
219.922
 30
0.000000
  70
    32
  0
VERTEX
  8
0
  5
9DF4
 10
64.5205
 20
219.917
 30
0.000000
  70
    32
  0
VERTEX
  8
0
  5
9DF5
 10
64.5033
 20
219.912
 30
0.000000
  70
    32
  0
VERTEX
  8
0
  5
9DF6
 10
64.4862
 20
219.906
 30
0.000000
  70
    32
  0
VERTEX
  8
0
  5
9DF7
 10
64.4693
 20
219.901
 30
0.000000
  70
    32
  0
VERTEX
  8
0
  5
9DF8
 10
64.4525
 20
219.894
 30
0.000000
  70
    32
  0
VERTEX
  8
0
  5
9DF9
 10
64.4360
 20
219.888
 30
0.000000
  70
    32
  0
VERTEX
  8
0
  5
9DFA
 10
64.4196
 20
219.881
 30
0.000000
  70
    32
  0
VERTEX
  8
0
  5
9DFB
 10
64.4035
 20
219.874
 30
0.000000
  70
    32
  0
VERTEX
  8
0
  5
9DFC
 10
64.3876
 20
219.867
 30
0.000000
  70
    32
  0
VERTEX
  8
0
  5
9DFD
 10
64.3719
 20
219.859
 30
0.000000
  70
    32
  0
VERTEX
  8
0
  5
9DFE
 10
64.3565
 20
219.851
 30
0.000000
  70
    32
  0
VERTEX
  8
0
  5
9DFF
 10
64.3413
 20
219.843
 30
0.000000
  70
    32
  0
VERTEX
  8
0
  5
9E00
 10
64.3264
 20
219.834
 30
0.000000
  70
    32
  0
VERTEX
  8
0
  5
9E01
 10
64.3118
 20
219.825
 30
0.000000
  70
    32
  0
VERTEX
  8
0
  5
9E02
 10
64.2974
 20
219.816
 30
0.000000
  70
    32
  0
VERTEX
  8
0
  5
9E03
 10
64.2833
 20
219.806
 30
0.000000
  70
    32
  0
VERTEX
  8
0
  5
9E04
 10
64.2695
 20
219.797
 30
0.000000
  70
    32
  0
VERTEX
  8
0
  5
9E05
 10
64.2560
 20
219.787
 30
0.000000
  70
    32
  0
VERTEX
  8
0
  5
9E06
 10
64.2429
 20
219.776
 30
0.000000
  70
    32
  0
VERTEX
  8
0
  5
9E07
 10
64.2300
 20
219.766
 30
0.000000
  70
    32
  0
VERTEX
  8
0
  5
9E08
 10
64.2175
 20
219.755
 30
0.000000
  70
    32
  0
VERTEX
  8
0
  5
9E09
 10
64.2053
 20
219.744
 30
0.000000
  70
    32
  0
VERTEX
  8
0
  5
9E0A
 10
64.1934
 20
219.733
 30
0.000000
  70
    32
  0
VERTEX
  8
0
  5
9E0B
 10
64.1819
 20
219.721
 30
0.000000
  70
    32
  0
VERTEX
  8
0
  5
9E0C
 10
64.1708
 20
219.709
 30
0.000000
  70
    32
  0
VERTEX
  8
0
  5
9E0D
 10
64.1600
 20
219.698
 30
0.000000
  70
    32
  0
VERTEX
  8
0
  5
9E0E
 10
64.1496
 20
219.685
 30
0.000000
  70
    32
  0
VERTEX
  8
0
  5
9E0F
 10
64.1395
 20
219.673
 30
0.000000
  70
    32
  0
VERTEX
  8
0
  5
9E10
 10
64.1299
 20
219.660
 30
0.000000
  70
    32
  0
VERTEX
  8
0
  5
9E11
 10
64.1206
 20
219.648
 30
0.000000
  70
    32
  0
VERTEX
  8
0
  5
9E12
 10
64.1117
 20
219.635
 30
0.000000
  70
    32
  0
VERTEX
  8
0
  5
9E13
 10
64.1033
 20
219.622
 30
0.000000
  70
    32
  0
VERTEX
  8
0
  5
9E14
 10
64.0952
 20
219.609
 30
0.000000
  70
    32
  0
VERTEX
  8
0
  5
9E15
 10
64.0875
 20
219.595
 30
0.000000
  70
    32
  0
VERTEX
  8
0
  5
9E16
 10
64.0803
 20
219.582
 30
0.000000
  70
    32
  0
VERTEX
  8
0
  5
9E17
 10
64.0734
 20
219.568
 30
0.000000
  70
    32
  0
VERTEX
  8
0
  5
9E18
 10
64.0670
 20
219.554
 30
0.000000
  70
    32
  0
VERTEX
  8
0
  5
9E19
 10
64.0610
 20
219.540
 30
0.000000
  70
    32
  0
VERTEX
  8
0
  5
9E1A
 10
64.0555
 20
219.526
 30
0.000000
  70
    32
  0
VERTEX
  8
0
  5
9E1B
 10
64.0504
 20
219.512
 30
0.000000
  70
    32
  0
VERTEX
  8
0
  5
9E1C
 10
64.0457
 20
219.498
 30
0.000000
  70
    32
  0
VERTEX
  8
0
  5
9E1D
 10
64.0414
 20
219.483
 30
0.000000
  70
    32
  0
VERTEX
  8
0
  5
9E1E
 10
64.0376
 20
219.469
 30
0.000000
  70
    32
  0
VERTEX
  8
0
  5
9E1F
 10
64.0342
 20
219.455
 30
0.000000
  70
    32
  0
VERTEX
  8
0
  5
9E20
 10
64.0313
 20
219.440
 30
0.000000
  70
    32
  0
VERTEX
  8
0
  5
9E21
 10
64.0288
 20
219.425
 30
0.000000
  70
    32
  0
VERTEX
  8
0
  5
9E22
 10
64.0268
 20
219.411
 30
0.000000
  70
    32
  0
VERTEX
  8
0
  5
9E23
 10
64.0252
 20
219.396
 30
0.000000
  70
    32
  0
VERTEX
  8
0
  5
9E24
 10
64.0241
 20
219.381
 30
0.000000
  70
    32
  0
VERTEX
  8
0
  5
9E25
 10
64.0234
 20
219.367
 30
0.000000
  70
    32
  0
VERTEX
  8
0
  5
9E26
 10
64.0232
 20
219.352
 30
0.000000
  70
    32
  0
VERTEX
  8
0
  5
9E27
 10
64.0234
 20
219.337
 30
0.000000
  70
    32
  0
VERTEX
  8
0
  5
9E28
 10
64.0241
 20
219.323
 30
0.000000
  70
    32
  0
VERTEX
  8
0
  5
9E29
 10
64.0252
 20
219.308
 30
0.000000
  70
    32
  0
VERTEX
  8
0
  5
9E2A
 10
64.0268
 20
219.293
 30
0.000000
  70
    32
  0
VERTEX
  8
0
  5
9E2B
 10
64.0288
 20
219.279
 30
0.000000
  70
    32
  0
VERTEX
  8
0
  5
9E2C
 10
64.0313
 20
219.264
 30
0.000000
  70
    32
  0
VERTEX
  8
0
  5
9E2D
 10
64.0342
 20
219.249
 30
0.000000
  70
    32
  0
VERTEX
  8
0
  5
9E2E
 10
64.0376
 20
219.235
 30
0.000000
  70
    32
  0
VERTEX
  8
0
  5
9E2F
 10
64.0414
 20
219.221
 30
0.000000
  70
    32
  0
VERTEX
  8
0
  5
9E30
 10
64.0457
 20
219.206
 30
0.000000
  70
    32
  0
VERTEX
  8
0
  5
9E31
 10
64.0504
 20
219.192
 30
0.000000
  70
    32
  0
VERTEX
  8
0
  5
9E32
 10
64.0555
 20
219.178
 30
0.000000
  70
    32
  0
VERTEX
  8
0
  5
9E33
 10
64.0610
 20
219.164
 30
0.000000
  70
    32
  0
VERTEX
  8
0
  5
9E34
 10
64.0670
 20
219.150
 30
0.000000
  70
    32
  0
VERTEX
  8
0
  5
9E35
 10
64.0734
 20
219.136
 30
0.000000
  70
    32
  0
VERTEX
  8
0
  5
9E36
 10
64.0803
 20
219.122
 30
0.000000
  70
    32
  0
VERTEX
  8
0
  5
9E37
 10
64.0875
 20
219.109
 30
0.000000
  70
    32
  0
VERTEX
  8
0
  5
9E38
 10
64.0952
 20
219.095
 30
0.000000
  70
    32
  0
VERTEX
  8
0
  5
9E39
 10
64.1033
 20
219.082
 30
0.000000
  70
    32
  0
VERTEX
  8
0
  5
9E3A
 10
64.1117
 20
219.069
 30
0.000000
  70
    32
  0
VERTEX
  8
0
  5
9E3B
 10
64.1206
 20
219.056
 30
0.000000
  70
    32
  0
VERTEX
  8
0
  5
9E3C
 10
64.1299
 20
219.044
 30
0.000000
  70
    32
  0
VERTEX
  8
0
  5
9E3D
 10
64.1395
 20
219.031
 30
0.000000
  70
    32
  0
VERTEX
  8
0
  5
9E3E
 10
64.1496
 20
219.019
 30
0.000000
  70
    32
  0
VERTEX
  8
0
  5
9E3F
 10
64.1600
 20
219.007
 30
0.000000
  70
    32
  0
VERTEX
  8
0
  5
9E40
 10
64.1708
 20
218.995
 30
0.000000
  70
    32
  0
VERTEX
  8
0
  5
9E41
 10
64.1819
 20
218.983
 30
0.000000
  70
    32
  0
VERTEX
  8
0
  5
9E42
 10
64.1934
 20
218.971
 30
0.000000
  70
    32
  0
VERTEX
  8
0
  5
9E43
 10
64.2053
 20
218.960
 30
0.000000
  70
    32
  0
VERTEX
  8
0
  5
9E44
 10
64.2175
 20
218.949
 30
0.000000
  70
    32
  0
VERTEX
  8
0
  5
9E45
 10
64.2300
 20
218.938
 30
0.000000
  70
    32
  0
VERTEX
  8
0
  5
9E46
 10
64.2429
 20
218.928
 30
0.000000
  70
    32
  0
VERTEX
  8
0
  5
9E47
 10
64.2560
 20
218.917
 30
0.000000
  70
    32
  0
VERTEX
  8
0
  5
9E48
 10
64.2695
 20
218.907
 30
0.000000
  70
    32
  0
VERTEX
  8
0
  5
9E49
 10
64.2833
 20
218.898
 30
0.000000
  70
    32
  0
VERTEX
  8
0
  5
9E4A
 10
64.2974
 20
218.888
 30
0.000000
  70
    32
  0
VERTEX
  8
0
  5
9E4B
 10
64.3118
 20
218.879
 30
0.000000
  70
    32
  0
VERTEX
  8
0
  5
9E4C
 10
64.3264
 20
218.870
 30
0.000000
  70
    32
  0
VERTEX
  8
0
  5
9E4D
 10
64.3413
 20
218.861
 30
0.000000
  70
    32
  0
VERTEX
  8
0
  5
9E4E
 10
64.3565
 20
218.853
 30
0.000000
  70
    32
  0
VERTEX
  8
0
  5
9E4F
 10
64.3719
 20
218.845
 30
0.000000
  70
    32
  0
VERTEX
  8
0
  5
9E50
 10
64.3876
 20
218.837
 30
0.000000
  70
    32
  0
VERTEX
  8
0
  5
9E51
 10
64.4035
 20
218.830
 30
0.000000
  70
    32
  0
VERTEX
  8
0
  5
9E52
 10
64.4196
 20
218.823
 30
0.000000
  70
    32
  0
VERTEX
  8
0
  5
9E53
 10
64.4360
 20
218.816
 30
0.000000
  70
    32
  0
VERTEX
  8
0
  5
9E54
 10
64.4525
 20
218.810
 30
0.000000
  70
    32
  0
VERTEX
  8
0
  5
9E55
 10
64.4693
 20
218.804
 30
0.000000
  70
    32
  0
VERTEX
  8
0
  5
9E56
 10
64.4862
 20
218.798
 30
0.000000
  70
    32
  0
VERTEX
  8
0
  5
9E57
 10
64.5033
 20
218.792
 30
0.000000
  70
    32
  0
VERTEX
  8
0
  5
9E58
 10
64.5205
 20
218.787
 30
0.000000
  70
    32
  0
VERTEX
  8
0
  5
9E59
 10
64.5379
 20
218.782
 30
0.000000
  70
    32
  0
VERTEX
  8
0
  5
9E5A
 10
64.5555
 20
218.778
 30
0.000000
  70
    32
  0
VERTEX
  8
0
  5
9E5B
 10
64.5732
 20
218.774
 30
0.000000
  70
    32
  0
VERTEX
  8
0
  5
9E5C
 10
64.5910
 20
218.770
 30
0.000000
  70
    32
  0
VERTEX
  8
0
  5
9E5D
 10
64.6089
 20
218.767
 30
0.000000
  70
    32
  0
VERTEX
  8
0
  5
9E5E
 10
64.6269
 20
218.764
 30
0.000000
  70
    32
  0
VERTEX
  8
0
  5
9E5F
 10
64.6450
 20
218.761
 30
0.000000
  70
    32
  0
VERTEX
  8
0
  5
9E60
 10
64.6631
 20
218.759
 30
0.000000
  70
    32
  0
VERTEX
  8
0
  5
9E61
 10
64.6814
 20
218.757
 30
0.000000
  70
    32
  0
VERTEX
  8
0
  5
9E62
 10
64.6997
 20
218.755
 30
0.000000
  70
    32
  0
VERTEX
  8
0
  5
9E63
 10
64.7180
 20
218.754
 30
0.000000
  70
    32
  0
VERTEX
  8
0
  5
9E64
 10
64.7364
 20
218.753
 30
0.000000
  70
    32
  0
VERTEX
  8
0
  5
9E65
 10
64.7548
 20
218.752
 30
0.000000
  70
    32
  0
VERTEX
  8
0
  5
9E66
 10
64.7732
 20
218.752
 30
0.000000
  70
    32
  0
SEQEND
  8
0
  5
9E67
  0
ARC
  5
3A1
  8
0
 10
75.023186691154706
 20
218.25202703228521
 30
0.0
 40
5.0
 50
53.130102354155973
 51
126.86989764584401
  0
ARC
  5
3A4
  8
0
 10
60.523186691154592
 20
163.7520270322851
 30
0.0
 40
0.5
 50
180.0
 51
270.0000000000008
  0
ARC
  5
3A5
  8
0
 10
89.523186691154578
 20
163.7520270322851
 30
0.0
 40
0.5
 50
270.0000000000008
 51
0.0
  0
ARC
  5
3A8
  8
0
 10
43.023186691154592
 20
158.7520270322851
 30
0.0
 40
0.5
 50
90.0
 51
180.0
  0
ARC
  5
3B1
  8
0
 10
107.02318669115461
 20
158.7520270322851
 30
0.0
 40
0.5
 50
0.0
 51
90.0
  0
ARC
  5
3B2
  8
0
 10
64.023186691154592
 20
163.2520270322851
 30
0.0
 40
1.0
 50
270.0000000000008
 51
0.0
  0
ARC
  5
3B3
  8
0
 10
86.023186691154578
 20
163.2520270322851
 30
0.0
 40
1.0
 50
180.0
 51
270.0000000000008
  0
LINE
  5
3C4
  8
0
 10
75.023186691154734
 20
195.25202777734319
 30
0.0
 11
75.013557040378402
 21
195.25202777734319
 31
0.0
  0
LINE
  5
3C5
  8
0
 10
68.532816432465779
 20
195.25202777734319
 30
0.0
 11
68.523186557044255
 21
195.25202777734319
 31
0.0
  0
LINE
  5
3C6
  8
0
 10
75.023186691154734
 20
195.25202777734319
 30
0.0
 11
75.023186691154734
 21
190.2520288204245
 31
0.0
  0
LINE
  5
3C8
  8
0
 10
75.023186691154734
 20
195.25202777734319
 30
0.0
 11
75.032816341931067
 21
195.25202777734319
 31
0.0
  0
LINE
  5
3C9
  8
0
 10
81.513556949843647
 20
195.25202777734319
 30
0.0
 11
81.523186825265185
 21
195.25202777734319
 31
0.0
  0
LINE
  5
3CB
  8
0
 10
75.023186691154734
 20
213.25203072777319
 30
0.0
 11
75.013557040378402
 21
213.25203072777319
 31
0.0
  0
LINE
  5
3CC
  8
0
 10
68.532816432465779
 20
213.25203072777319
 30
0.0
 11
68.523186557044255
 21
213.25203072777319
 31
0.0
  0
LINE
  5
3CF
  8
0
 10
75.023186691154734
 20
218.25202595940161
 30
0.0
 11
75.023186691154734
 21
213.25203072777319
 31
0.0
  0
LINE
  5
3D2
  8
0
 10
75.023186691154734
 20
213.25203072777319
 30
0.0
 11
75.032816341931067
 21
213.25203072777319
 31
0.0
  0
LINE
  5
3D3
  8
0
 10
81.513556949843647
 20
213.25203072777319
 30
0.0
 11
81.523186825265185
 21
213.25203072777319
 31
0.0
  0
LINE
  5
3D8
  8
0
 10
75.023186691154734
 20
177.7520258401922
 30
0.0
 11
75.023186691154734
 21
183.25202581038991
 31
0.0
  0
LINE
  5
3D9
  8
0
 10
68.523186557044255
 20
177.7520258401922
 30
0.0
 11
68.523186557044255
 21
183.25202581038991
 31
0.0
  0
LINE
  5
3DA
  8
0
 10
75.023186691154734
 20
183.25202581038991
 30
0.0
 11
68.523186557044255
 21
183.25202581038991
 31
0.0
  0
LINE
  5
3DB
  8
0
 10
75.023186691154734
 20
177.7520258401922
 30
0.0
 11
68.523186557044255
 21
177.7520258401922
 31
0.0
  0
LINE
  5
3DC
  8
0
 10
81.523186825265185
 20
177.7520258401922
 30
0.0
 11
81.523186825265185
 21
183.25202581038991
 31
0.0
  0
LINE
  5
3DD
  8
0
 10
81.523186825265185
 20
183.25202581038991
 30
0.0
 11
75.023186691154734
 21
183.25202581038991
 31
0.0
  0
LINE
  5
3DE
  8
0
 10
81.523186825265185
 20
177.7520258401922
 30
0.0
 11
75.023186691154734
 21
177.7520258401922
 31
0.0
  0
LINE
  5
3DF
  8
0
 10
75.02318669115472
 20
218.8293789004378
 30
0.0
 11
72.023186665077674
 21
218.8293789004378
 31
0.0
  0
LINE
  5
3E0
  8
0
 10
78.023186717231738
 20
218.8293789004378
 30
0.0
 11
75.02318669115472
 21
218.8293789004378
 31
0.0
  0
LINE
  5
3E1
  8
0
 10
75.02318669115472
 20
222.2520266150527
 30
0.0
 11
72.023186665077674
 21
222.2520266150527
 31
0.0
  0
LINE
  5
3E2
  8
0
 10
78.023186717231738
 20
222.2520266150527
 30
0.0
 11
75.02318669115472
 21
222.2520266150527
 31
0.0
  0
LINE
  5
43A
  8
0
 10
82.523186523516642
 20
195.25202777734319
 30
0.0
 11
67.523186858792769
 21
195.25202777734319
 31
0.0
  0
ARC
  5
43B
  8
0
 10
67.523186691154706
 20
195.7520270322851
 30
0.0
 40
0.5
 50
180.0
 51
270.0000000000008
  0
ARC
  5
43C
  8
0
 10
82.523186691154706
 20
195.7520270322851
 30
0.0
 40
0.5000000000000142
 50
270.0000000000008
 51
0.0
  0
LINE
  5
43D
  8
0
 10
67.023186311175067
 20
213.2520307277731
 30
0.0
 11
67.023186311175095
 21
195.75202879062221
 31
0.0
  0
LINE
  5
43F
  8
0
 10
83.023187071134316
 20
213.2520307277731
 30
0.0
 11
83.023187071134316
 21
195.75202879062221
 31
0.0
  0
LINE
  5
449
  8
0
 10
89.523186273922065
 20
163.2520262574248
 30
0.0
 11
60.523187108387113
 21
163.2520262574248
 31
0.0
  0
LINE
  5
44B
  8
0
 10
89.796134568800085
 20
210.75202566137841
 30
0.0
 11
89.796134568800085
 21
213.25203072777319
 31
0.0
  0
LINE
  5
44C
  8
0
 10
89.796134568800085
 20
210.75202566137841
 30
0.0
 11
90.023186355878465
 21
210.75202566137841
 31
0.0
  0
LINE
  5
44D
  8
0
 10
60.023187026430719
 20
210.75202566137841
 30
0.0
 11
60.2502388135091
 21
210.75202566137841
 31
0.0
  0
LINE
  5
44E
  8
0
 10
60.250238813509128
 20
213.25203072777319
 30
0.0
 11
60.2502388135091
 21
210.75202566137841
 31
0.0
  0
LINE
  5
452
  8
0
 10
43.02318517123615
 20
159.2520271365932
 30
0.0
 11
107.02318669115461
 21
159.2520270322851
 31
0.0
  0
LINE
  5
453
  8
0
 10
107.52318669115451
 20
147.2520270322851
 30
0.0
 11
42.523187883247488
 21
147.2520270322851
 31
0.0
  0
LINE
  5
45D
  8
0
 10
60.523187108387113
 20
162.252026697009
 30
0.0
 11
89.523186273922065
 21
162.252026697009
 31
0.0
  0
LINE
  5
464
  8
0
 10
85.503571033526995
 20
219.95202493420169
 30
0.0
 11
78.023186717231624
 21
219.95202493420169
 31
0.0
  0
LINE
  5
465
  8
0
 10
72.023186665077574
 20
219.95202493420169
 30
0.0
 11
64.542802348782175
 21
219.95202493420169
 31
0.0
  0
LINE
  5
468
  8
0
 10
64.889212437023275
 20
221.75202560177379
 30
0.0
 11
72.023186665077574
 21
221.75202560177379
 31
0.0
  0
LINE
  5
469
  8
0
 10
78.023186717231624
 20
221.75202560177379
 30
0.0
 11
85.157160945285895
 21
221.75202560177379
 31
0.0
  0
LINE
  5
474
  8
0
 10
90.023186355878465
 20
211.25202667465729
 30
0.0
 11
89.813386388172248
 21
211.25202667465729
 31
0.0
  0
LINE
  5
475
  8
0
 10
89.813386388172248
 20
211.25202667465729
 30
0.0
 11
89.813386388172248
 21
213.25203072777319
 31
0.0
  0
LINE
  5
476
  8
0
 10
60.232986994136922
 20
211.25202667465729
 30
0.0
 11
60.232986994136922
 21
213.25203072777319
 31
0.0
  0
LINE
  5
477
  8
0
 10
60.232986994136922
 20
211.25202667465729
 30
0.0
 11
60.023187026430719
 21
211.25202667465729
 31
0.0
  0
LINE
  5
47A
  8
0
 10
89.813386388172248
 20
213.25203072777319
 30
0.0
 11
60.023187026430719
 21
213.25203072777319
 31
0.0
  0
LINE
  5
47C
  8
0
 10
61.023186259020918
 20
218.7520269726806
 30
0.0
 11
71.889212187428853
 21
218.7520269726806
 31
0.0
  0
LINE
  5
47D
  8
0
 10
78.157161194880388
 20
218.7520269726806
 30
0.0
 11
89.023187123288267
 21
218.7520269726806
 31
0.0
  0
LINE
  5
47E
  8
0
 10
60.2502388135091
 20
211.25202667465729
 30
0.0
 11
60.232986994136922
 21
211.25202667465729
 31
0.0
  0
LINE
  5
47F
  8
0
 10
89.813386388172248
 20
211.25202667465729
 30
0.0
 11
89.796134568800085
 21
211.25202667465729
 31
0.0
  0
LINE
  5
483
  8
0
 10
85.457969754983566
 20
189.25202679386661
 30
0.0
 11
79.02318688114444
 21
189.25202679386661
 31
0.0
  0
LINE
  5
484
  8
0
 10
71.02318650116483
 20
189.25202679386661
 30
0.0
 11
64.588403627325675
 21
189.25202679386661
 31
0.0
  0
LINE
  5
48C
  8
0
 10
64.588403627325675
 20
189.25202679386661
 30
0.0
 11
64.588403627325675
 21
213.25203072777319
 31
0.0
  0
LINE
  5
48E
  8
0
 10
85.457969754983566
 20
213.25203072777319
 30
0.0
 11
85.457969754983566
 21
189.25202679386661
 31
0.0
  0
LINE
  5
493
  8
1
 10
57.523186616648808
 20
161.25202713659331
 30
0.0
 11
57.523186616648808
 21
145.2520270322851
 31
0.0
  0
LINE
  5
498
  8
1
 10
92.523186765660427
 20
161.25202713659331
 30
0.0
 11
92.523186765660441
 21
145.2520270322851
 31
0.0
  0
LINE
  5
4C4
  8
1
 10
75.023186691154564
 20
243.25202595940149
 30
0.0
 11
75.023186691154635
 21
142.2520270322851
 31
0.0
  0
POLYLINE
  5
B48
  8
0
 10
283.92132969108701
 20
218.75202703228518
 30
0.0
 66
     1
 70
     8
  0
VERTEX
  8
0
  5
9E68
 10
283.921
 20
218.752
 30
0.000000
  70
    32
  0
VERTEX
  8
0
  5
9E69
 10
283.940
 20
218.752
 30
0.000000
  70
    32
  0
VERTEX
  8
0
  5
9E6A
 10
283.958
 20
218.753
 30
0.000000
  70
    32
  0
VERTEX
  8
0
  5
9E6B
 10
283.977
 20
218.754
 30
0.000000
  70
    32
  0
VERTEX
  8
0
  5
9E6C
 10
283.995
 20
218.755
 30
0.000000
  70
    32
  0
VERTEX
  8
0
  5
9E6D
 10
284.013
 20
218.757
 30
0.000000
  70
    32
  0
VERTEX
  8
0
  5
9E6E
 10
284.031
 20
218.759
 30
0.000000
  70
    32
  0
VERTEX
  8
0
  5
9E6F
 10
284.050
 20
218.761
 30
0.000000
  70
    32
  0
VERTEX
  8
0
  5
9E70
 10
284.068
 20
218.764
 30
0.000000
  70
    32
  0
VERTEX
  8
0
  5
9E71
 10
284.086
 20
218.767
 30
0.000000
  70
    32
  0
VERTEX
  8
0
  5
9E72
 10
284.104
 20
218.770
 30
0.000000
  70
    32
  0
VERTEX
  8
0
  5
9E73
 10
284.121
 20
218.774
 30
0.000000
  70
    32
  0
VERTEX
  8
0
  5
9E74
 10
284.139
 20
218.778
 30
0.000000
  70
    32
  0
VERTEX
  8
0
  5
9E75
 10
284.157
 20
218.782
 30
0.000000
  70
    32
  0
VERTEX
  8
0
  5
9E76
 10
284.174
 20
218.787
 30
0.000000
  70
    32
  0
VERTEX
  8
0
  5
9E77
 10
284.191
 20
218.792
 30
0.000000
  70
    32
  0
VERTEX
  8
0
  5
9E78
 10
284.208
 20
218.798
 30
0.000000
  70
    32
  0
VERTEX
  8
0
  5
9E79
 10
284.225
 20
218.804
 30
0.000000
  70
    32
  0
VERTEX
  8
0
  5
9E7A
 10
284.242
 20
218.810
 30
0.000000
  70
    32
  0
VERTEX
  8
0
  5
9E7B
 10
284.259
 20
218.816
 30
0.000000
  70
    32
  0
VERTEX
  8
0
  5
9E7C
 10
284.275
 20
218.823
 30
0.000000
  70
    32
  0
VERTEX
  8
0
  5
9E7D
 10
284.291
 20
218.830
 30
0.000000
  70
    32
  0
VERTEX
  8
0
  5
9E7E
 10
284.307
 20
218.837
 30
0.000000
  70
    32
  0
VERTEX
  8
0
  5
9E7F
 10
284.323
 20
218.845
 30
0.000000
  70
    32
  0
VERTEX
  8
0
  5
9E80
 10
284.338
 20
218.853
 30
0.000000
  70
    32
  0
VERTEX
  8
0
  5
9E81
 10
284.353
 20
218.861
 30
0.000000
  70
    32
  0
VERTEX
  8
0
  5
9E82
 10
284.368
 20
218.870
 30
0.000000
  70
    32
  0
VERTEX
  8
0
  5
9E83
 10
284.383
 20
218.879
 30
0.000000
  70
    32
  0
VERTEX
  8
0
  5
9E84
 10
284.397
 20
218.888
 30
0.000000
  70
    32
  0
VERTEX
  8
0
  5
9E85
 10
284.411
 20
218.898
 30
0.000000
  70
    32
  0
VERTEX
  8
0
  5
9E86
 10
284.425
 20
218.907
 30
0.000000
  70
    32
  0
VERTEX
  8
0
  5
9E87
 10
284.438
 20
218.917
 30
0.000000
  70
    32
  0
VERTEX
  8
0
  5
9E88
 10
284.452
 20
218.928
 30
0.000000
  70
    32
  0
VERTEX
  8
0
  5
9E89
 10
284.465
 20
218.938
 30
0.000000
  70
    32
  0
VERTEX
  8
0
  5
9E8A
 10
284.477
 20
218.949
 30
0.000000
  70
    32
  0
VERTEX
  8
0
  5
9E8B
 10
284.489
 20
218.960
 30
0.000000
  70
    32
  0
VERTEX
  8
0
  5
9E8C
 10
284.501
 20
218.971
 30
0.000000
  70
    32
  0
VERTEX
  8
0
  5
9E8D
 10
284.513
 20
218.983
 30
0.000000
  70
    32
  0
VERTEX
  8
0
  5
9E8E
 10
284.524
 20
218.995
 30
0.000000
  70
    32
  0
VERTEX
  8
0
  5
9E8F
 10
284.535
 20
219.007
 30
0.000000
  70
    32
  0
VERTEX
  8
0
  5
9E90
 10
284.545
 20
219.019
 30
0.000000
  70
    32
  0
VERTEX
  8
0
  5
9E91
 10
284.555
 20
219.031
 30
0.000000
  70
    32
  0
VERTEX
  8
0
  5
9E92
 10
284.565
 20
219.044
 30
0.000000
  70
    32
  0
VERTEX
  8
0
  5
9E93
 10
284.574
 20
219.056
 30
0.000000
  70
    32
  0
VERTEX
  8
0
  5
9E94
 10
284.583
 20
219.069
 30
0.000000
  70
    32
  0
VERTEX
  8
0
  5
9E95
 10
284.591
 20
219.082
 30
0.000000
  70
    32
  0
VERTEX
  8
0
  5
9E96
 10
284.599
 20
219.095
 30
0.000000
  70
    32
  0
VERTEX
  8
0
  5
9E97
 10
284.607
 20
219.109
 30
0.000000
  70
    32
  0
VERTEX
  8
0
  5
9E98
 10
284.614
 20
219.122
 30
0.000000
  70
    32
  0
VERTEX
  8
0
  5
9E99
 10
284.621
 20
219.136
 30
0.000000
  70
    32
  0
VERTEX
  8
0
  5
9E9A
 10
284.627
 20
219.150
 30
0.000000
  70
    32
  0
VERTEX
  8
0
  5
9E9B
 10
284.633
 20
219.164
 30
0.000000
  70
    32
  0
VERTEX
  8
0
  5
9E9C
 10
284.639
 20
219.178
 30
0.000000
  70
    32
  0
VERTEX
  8
0
  5
9E9D
 10
284.644
 20
219.192
 30
0.000000
  70
    32
  0
VERTEX
  8
0
  5
9E9E
 10
284.649
 20
219.206
 30
0.000000
  70
    32
  0
VERTEX
  8
0
  5
9E9F
 10
284.653
 20
219.221
 30
0.000000
  70
    32
  0
VERTEX
  8
0
  5
9EA0
 10
284.657
 20
219.235
 30
0.000000
  70
    32
  0
VERTEX
  8
0
  5
9EA1
 10
284.660
 20
219.249
 30
0.000000
  70
    32
  0
VERTEX
  8
0
  5
9EA2
 10
284.663
 20
219.264
 30
0.000000
  70
    32
  0
VERTEX
  8
0
  5
9EA3
 10
284.666
 20
219.279
 30
0.000000
  70
    32
  0
VERTEX
  8
0
  5
9EA4
 10
284.668
 20
219.293
 30
0.000000
  70
    32
  0
VERTEX
  8
0
  5
9EA5
 10
284.669
 20
219.308
 30
0.000000
  70
    32
  0
VERTEX
  8
0
  5
9EA6
 10
284.670
 20
219.323
 30
0.000000
  70
    32
  0
VERTEX
  8
0
  5
9EA7
 10
284.671
 20
219.337
 30
0.000000
  70
    32
  0
VERTEX
  8
0
  5
9EA8
 10
284.671
 20
219.352
 30
0.000000
  70
    32
  0
VERTEX
  8
0
  5
9EA9
 10
284.671
 20
219.367
 30
0.000000
  70
    32
  0
VERTEX
  8
0
  5
9EAA
 10
284.670
 20
219.381
 30
0.000000
  70
    32
  0
VERTEX
  8
0
  5
9EAB
 10
284.669
 20
219.396
 30
0.000000
  70
    32
  0
VERTEX
  8
0
  5
9EAC
 10
284.668
 20
219.411
 30
0.000000
  70
    32
  0
VERTEX
  8
0
  5
9EAD
 10
284.666
 20
219.425
 30
0.000000
  70
    32
  0
VERTEX
  8
0
  5
9EAE
 10
284.663
 20
219.440
 30
0.000000
  70
    32
  0
VERTEX
  8
0
  5
9EAF
 10
284.660
 20
219.455
 30
0.000000
  70
    32
  0
VERTEX
  8
0
  5
9EB0
 10
284.657
 20
219.469
 30
0.000000
  70
    32
  0
VERTEX
  8
0
  5
9EB1
 10
284.653
 20
219.483
 30
0.000000
  70
    32
  0
VERTEX
  8
0
  5
9EB2
 10
284.649
 20
219.498
 30
0.000000
  70
    32
  0
VERTEX
  8
0
  5
9EB3
 10
284.644
 20
219.512
 30
0.000000
  70
    32
  0
VERTEX
  8
0
  5
9EB4
 10
284.639
 20
219.526
 30
0.000000
  70
    32
  0
VERTEX
  8
0
  5
9EB5
 10
284.633
 20
219.540
 30
0.000000
  70
    32
  0
VERTEX
  8
0
  5
9EB6
 10
284.627
 20
219.554
 30
0.000000
  70
    32
  0
VERTEX
  8
0
  5
9EB7
 10
284.621
 20
219.568
 30
0.000000
  70
    32
  0
VERTEX
  8
0
  5
9EB8
 10
284.614
 20
219.582
 30
0.000000
  70
    32
  0
VERTEX
  8
0
  5
9EB9
 10
284.607
 20
219.595
 30
0.000000
  70
    32
  0
VERTEX
  8
0
  5
9EBA
 10
284.599
 20
219.609
 30
0.000000
  70
    32
  0
VERTEX
  8
0
  5
9EBB
 10
284.591
 20
219.622
 30
0.000000
  70
    32
  0
VERTEX
  8
0
  5
9EBC
 10
284.583
 20
219.635
 30
0.000000
  70
    32
  0
VERTEX
  8
0
  5
9EBD
 10
284.574
 20
219.648
 30
0.000000
  70
    32
  0
VERTEX
  8
0
  5
9EBE
 10
284.565
 20
219.660
 30
0.000000
  70
    32
  0
VERTEX
  8
0
  5
9EBF
 10
284.555
 20
219.673
 30
0.000000
  70
    32
  0
VERTEX
  8
0
  5
9EC0
 10
284.545
 20
219.685
 30
0.000000
  70
    32
  0
VERTEX
  8
0
  5
9EC1
 10
284.535
 20
219.698
 30
0.000000
  70
    32
  0
VERTEX
  8
0
  5
9EC2
 10
284.524
 20
219.709
 30
0.000000
  70
    32
  0
VERTEX
  8
0
  5
9EC3
 10
284.513
 20
219.721
 30
0.000000
  70
    32
  0
VERTEX
  8
0
  5
9EC4
 10
284.501
 20
219.733
 30
0.000000
  70
    32
  0
VERTEX
  8
0
  5
9EC5
 10
284.489
 20
219.744
 30
0.000000
  70
    32
  0
VERTEX
  8
0
  5
9EC6
 10
284.477
 20
219.755
 30
0.000000
  70
    32
  0
VERTEX
  8
0
  5
9EC7
 10
284.465
 20
219.766
 30
0.000000
  70
    32
  0
VERTEX
  8
0
  5
9EC8
 10
284.452
 20
219.776
 30
0.000000
  70
    32
  0
VERTEX
  8
0
  5
9EC9
 10
284.438
 20
219.787
 30
0.000000
  70
    32
  0
VERTEX
  8
0
  5
9ECA
 10
284.425
 20
219.797
 30
0.000000
  70
    32
  0
VERTEX
  8
0
  5
9ECB
 10
284.411
 20
219.806
 30
0.000000
  70
    32
  0
VERTEX
  8
0
  5
9ECC
 10
284.397
 20
219.816
 30
0.000000
  70
    32
  0
VERTEX
  8
0
  5
9ECD
 10
284.383
 20
219.825
 30
0.000000
  70
    32
  0
VERTEX
  8
0
  5
9ECE
 10
284.368
 20
219.834
 30
0.000000
  70
    32
  0
VERTEX
  8
0
  5
9ECF
 10
284.353
 20
219.843
 30
0.000000
  70
    32
  0
VERTEX
  8
0
  5
9ED0
 10
284.338
 20
219.851
 30
0.000000
  70
    32
  0
VERTEX
  8
0
  5
9ED1
 10
284.323
 20
219.859
 30
0.000000
  70
    32
  0
VERTEX
  8
0
  5
9ED2
 10
284.307
 20
219.867
 30
0.000000
  70
    32
  0
VERTEX
  8
0
  5
9ED3
 10
284.291
 20
219.874
 30
0.000000
  70
    32
  0
VERTEX
  8
0
  5
9ED4
 10
284.275
 20
219.881
 30
0.000000
  70
    32
  0
VERTEX
  8
0
  5
9ED5
 10
284.259
 20
219.888
 30
0.000000
  70
    32
  0
VERTEX
  8
0
  5
9ED6
 10
284.242
 20
219.894
 30
0.000000
  70
    32
  0
VERTEX
  8
0
  5
9ED7
 10
284.225
 20
219.901
 30
0.000000
  70
    32
  0
VERTEX
  8
0
  5
9ED8
 10
284.208
 20
219.906
 30
0.000000
  70
    32
  0
VERTEX
  8
0
  5
9ED9
 10
284.191
 20
219.912
 30
0.000000
  70
    32
  0
VERTEX
  8
0
  5
9EDA
 10
284.174
 20
219.917
 30
0.000000
  70
    32
  0
VERTEX
  8
0
  5
9EDB
 10
284.157
 20
219.922
 30
0.000000
  70
    32
  0
VERTEX
  8
0
  5
9EDC
 10
284.139
 20
219.926
 30
0.000000
  70
    32
  0
VERTEX
  8
0
  5
9EDD
 10
284.121
 20
219.930
 30
0.000000
  70
    32
  0
VERTEX
  8
0
  5
9EDE
 10
284.104
 20
219.934
 30
0.000000
  70
    32
  0
VERTEX
  8
0
  5
9EDF
 10
284.086
 20
219.937
 30
0.000000
  70
    32
  0
VERTEX
  8
0
  5
9EE0
 10
284.068
 20
219.940
 30
0.000000
  70
    32
  0
VERTEX
  8
0
  5
9EE1
 10
284.050
 20
219.943
 30
0.000000
  70
    32
  0
VERTEX
  8
0
  5
9EE2
 10
284.031
 20
219.946
 30
0.000000
  70
    32
  0
VERTEX
  8
0
  5
9EE3
 10
284.013
 20
219.948
 30
0.000000
  70
    32
  0
VERTEX
  8
0
  5
9EE4
 10
283.995
 20
219.949
 30
0.000000
  70
    32
  0
VERTEX
  8
0
  5
9EE5
 10
283.977
 20
219.950
 30
0.000000
  70
    32
  0
VERTEX
  8
0
  5
9EE6
 10
283.958
 20
219.951
 30
0.000000
  70
    32
  0
VERTEX
  8
0
  5
9EE7
 10
283.940
 20
219.952
 30
0.000000
  70
    32
  0
VERTEX
  8
0
  5
9EE8
 10
283.921
 20
219.952
 30
0.000000
  70
    32
  0
SEQEND
  8
0
  5
9EE9
  0
POLYLINE
  5
B49
  8
0
 10
263.42132969108701
 20
219.9520270322852
 30
0.0
 66
     1
 70
     8
  0
VERTEX
  8
0
  5
9EEA
 10
263.421
 20
219.952
 30
0.000000
  70
    32
  0
VERTEX
  8
0
  5
9EEB
 10
263.403
 20
219.952
 30
0.000000
  70
    32
  0
VERTEX
  8
0
  5
9EEC
 10
263.385
 20
219.951
 30
0.000000
  70
    32
  0
VERTEX
  8
0
  5
9EED
 10
263.366
 20
219.950
 30
0.000000
  70
    32
  0
VERTEX
  8
0
  5
9EEE
 10
263.348
 20
219.949
 30
0.000000
  70
    32
  0
VERTEX
  8
0
  5
9EEF
 10
263.330
 20
219.948
 30
0.000000
  70
    32
  0
VERTEX
  8
0
  5
9EF0
 10
263.311
 20
219.946
 30
0.000000
  70
    32
  0
VERTEX
  8
0
  5
9EF1
 10
263.293
 20
219.943
 30
0.000000
  70
    32
  0
VERTEX
  8
0
  5
9EF2
 10
263.275
 20
219.940
 30
0.000000
  70
    32
  0
VERTEX
  8
0
  5
9EF3
 10
263.257
 20
219.937
 30
0.000000
  70
    32
  0
VERTEX
  8
0
  5
9EF4
 10
263.239
 20
219.934
 30
0.000000
  70
    32
  0
VERTEX
  8
0
  5
9EF5
 10
263.221
 20
219.930
 30
0.000000
  70
    32
  0
VERTEX
  8
0
  5
9EF6
 10
263.204
 20
219.926
 30
0.000000
  70
    32
  0
VERTEX
  8
0
  5
9EF7
 10
263.186
 20
219.922
 30
0.000000
  70
    32
  0
VERTEX
  8
0
  5
9EF8
 10
263.169
 20
219.917
 30
0.000000
  70
    32
  0
VERTEX
  8
0
  5
9EF9
 10
263.151
 20
219.912
 30
0.000000
  70
    32
  0
VERTEX
  8
0
  5
9EFA
 10
263.134
 20
219.906
 30
0.000000
  70
    32
  0
VERTEX
  8
0
  5
9EFB
 10
263.117
 20
219.901
 30
0.000000
  70
    32
  0
VERTEX
  8
0
  5
9EFC
 10
263.101
 20
219.894
 30
0.000000
  70
    32
  0
VERTEX
  8
0
  5
9EFD
 10
263.084
 20
219.888
 30
0.000000
  70
    32
  0
VERTEX
  8
0
  5
9EFE
 10
263.068
 20
219.881
 30
0.000000
  70
    32
  0
VERTEX
  8
0
  5
9EFF
 10
263.052
 20
219.874
 30
0.000000
  70
    32
  0
VERTEX
  8
0
  5
9F00
 10
263.036
 20
219.867
 30
0.000000
  70
    32
  0
VERTEX
  8
0
  5
9F01
 10
263.020
 20
219.859
 30
0.000000
  70
    32
  0
VERTEX
  8
0
  5
9F02
 10
263.005
 20
219.851
 30
0.000000
  70
    32
  0
VERTEX
  8
0
  5
9F03
 10
262.989
 20
219.843
 30
0.000000
  70
    32
  0
VERTEX
  8
0
  5
9F04
 10
262.975
 20
219.834
 30
0.000000
  70
    32
  0
VERTEX
  8
0
  5
9F05
 10
262.960
 20
219.825
 30
0.000000
  70
    32
  0
VERTEX
  8
0
  5
9F06
 10
262.946
 20
219.816
 30
0.000000
  70
    32
  0
VERTEX
  8
0
  5
9F07
 10
262.931
 20
219.806
 30
0.000000
  70
    32
  0
VERTEX
  8
0
  5
9F08
 10
262.918
 20
219.797
 30
0.000000
  70
    32
  0
VERTEX
  8
0
  5
9F09
 10
262.904
 20
219.787
 30
0.000000
  70
    32
  0
VERTEX
  8
0
  5
9F0A
 10
262.891
 20
219.776
 30
0.000000
  70
    32
  0
VERTEX
  8
0
  5
9F0B
 10
262.878
 20
219.766
 30
0.000000
  70
    32
  0
VERTEX
  8
0
  5
9F0C
 10
262.866
 20
219.755
 30
0.000000
  70
    32
  0
VERTEX
  8
0
  5
9F0D
 10
262.853
 20
219.744
 30
0.000000
  70
    32
  0
VERTEX
  8
0
  5
9F0E
 10
262.842
 20
219.733
 30
0.000000
  70
    32
  0
VERTEX
  8
0
  5
9F0F
 10
262.830
 20
219.721
 30
0.000000
  70
    32
  0
VERTEX
  8
0
  5
9F10
 10
262.819
 20
219.709
 30
0.000000
  70
    32
  0
VERTEX
  8
0
  5
9F11
 10
262.808
 20
219.698
 30
0.000000
  70
    32
  0
VERTEX
  8
0
  5
9F12
 10
262.798
 20
219.685
 30
0.000000
  70
    32
  0
VERTEX
  8
0
  5
9F13
 10
262.788
 20
219.673
 30
0.000000
  70
    32
  0
VERTEX
  8
0
  5
9F14
 10
262.778
 20
219.660
 30
0.000000
  70
    32
  0
VERTEX
  8
0
  5
9F15
 10
262.769
 20
219.648
 30
0.000000
  70
    32
  0
VERTEX
  8
0
  5
9F16
 10
262.760
 20
219.635
 30
0.000000
  70
    32
  0
VERTEX
  8
0
  5
9F17
 10
262.751
 20
219.622
 30
0.000000
  70
    32
  0
VERTEX
  8
0
  5
9F18
 10
262.743
 20
219.609
 30
0.000000
  70
    32
  0
VERTEX
  8
0
  5
9F19
 10
262.736
 20
219.595
 30
0.000000
  70
    32
  0
VERTEX
  8
0
  5
9F1A
 10
262.728
 20
219.582
 30
0.000000
  70
    32
  0
VERTEX
  8
0
  5
9F1B
 10
262.722
 20
219.568
 30
0.000000
  70
    32
  0
VERTEX
  8
0
  5
9F1C
 10
262.715
 20
219.554
 30
0.000000
  70
    32
  0
VERTEX
  8
0
  5
9F1D
 10
262.709
 20
219.540
 30
0.000000
  70
    32
  0
VERTEX
  8
0
  5
9F1E
 10
262.704
 20
219.526
 30
0.000000
  70
    32
  0
VERTEX
  8
0
  5
9F1F
 10
262.698
 20
219.512
 30
0.000000
  70
    32
  0
VERTEX
  8
0
  5
9F20
 10
262.694
 20
219.498
 30
0.000000
  70
    32
  0
VERTEX
  8
0
  5
9F21
 10
262.690
 20
219.483
 30
0.000000
  70
    32
  0
VERTEX
  8
0
  5
9F22
 10
262.686
 20
219.469
 30
0.000000
  70
    32
  0
VERTEX
  8
0
  5
9F23
 10
262.682
 20
219.455
 30
0.000000
  70
    32
  0
VERTEX
  8
0
  5
9F24
 10
262.679
 20
219.440
 30
0.000000
  70
    32
  0
VERTEX
  8
0
  5
9F25
 10
262.677
 20
219.425
 30
0.000000
  70
    32
  0
VERTEX
  8
0
  5
9F26
 10
262.675
 20
219.411
 30
0.000000
  70
    32
  0
VERTEX
  8
0
  5
9F27
 10
262.673
 20
219.396
 30
0.000000
  70
    32
  0
VERTEX
  8
0
  5
9F28
 10
262.672
 20
219.381
 30
0.000000
  70
    32
  0
VERTEX
  8
0
  5
9F29
 10
262.672
 20
219.367
 30
0.000000
  70
    32
  0
VERTEX
  8
0
  5
9F2A
 10
262.671
 20
219.352
 30
0.000000
  70
    32
  0
VERTEX
  8
0
  5
9F2B
 10
262.672
 20
219.337
 30
0.000000
  70
    32
  0
VERTEX
  8
0
  5
9F2C
 10
262.672
 20
219.323
 30
0.000000
  70
    32
  0
VERTEX
  8
0
  5
9F2D
 10
262.673
 20
219.308
 30
0.000000
  70
    32
  0
VERTEX
  8
0
  5
9F2E
 10
262.675
 20
219.293
 30
0.000000
  70
    32
  0
VERTEX
  8
0
  5
9F2F
 10
262.677
 20
219.279
 30
0.000000
  70
    32
  0
VERTEX
  8
0
  5
9F30
 10
262.679
 20
219.264
 30
0.000000
  70
    32
  0
VERTEX
  8
0
  5
9F31
 10
262.682
 20
219.249
 30
0.000000
  70
    32
  0
VERTEX
  8
0
  5
9F32
 10
262.686
 20
219.235
 30
0.000000
  70
    32
  0
VERTEX
  8
0
  5
9F33
 10
262.690
 20
219.221
 30
0.000000
  70
    32
  0
VERTEX
  8
0
  5
9F34
 10
262.694
 20
219.206
 30
0.000000
  70
    32
  0
VERTEX
  8
0
  5
9F35
 10
262.698
 20
219.192
 30
0.000000
  70
    32
  0
VERTEX
  8
0
  5
9F36
 10
262.704
 20
219.178
 30
0.000000
  70
    32
  0
VERTEX
  8
0
  5
9F37
 10
262.709
 20
219.164
 30
0.000000
  70
    32
  0
VERTEX
  8
0
  5
9F38
 10
262.715
 20
219.150
 30
0.000000
  70
    32
  0
VERTEX
  8
0
  5
9F39
 10
262.722
 20
219.136
 30
0.000000
  70
    32
  0
VERTEX
  8
0
  5
9F3A
 10
262.728
 20
219.122
 30
0.000000
  70
    32
  0
VERTEX
  8
0
  5
9F3B
 10
262.736
 20
219.109
 30
0.000000
  70
    32
  0
VERTEX
  8
0
  5
9F3C
 10
262.743
 20
219.095
 30
0.000000
  70
    32
  0
VERTEX
  8
0
  5
9F3D
 10
262.751
 20
219.082
 30
0.000000
  70
    32
  0
VERTEX
  8
0
  5
9F3E
 10
262.760
 20
219.069
 30
0.000000
  70
    32
  0
VERTEX
  8
0
  5
9F3F
 10
262.769
 20
219.056
 30
0.000000
  70
    32
  0
VERTEX
  8
0
  5
9F40
 10
262.778
 20
219.044
 30
0.000000
  70
    32
  0
VERTEX
  8
0
  5
9F41
 10
262.788
 20
219.031
 30
0.000000
  70
    32
  0
VERTEX
  8
0
  5
9F42
 10
262.798
 20
219.019
 30
0.000000
  70
    32
  0
VERTEX
  8
0
  5
9F43
 10
262.808
 20
219.007
 30
0.000000
  70
    32
  0
VERTEX
  8
0
  5
9F44
 10
262.819
 20
218.995
 30
0.000000
  70
    32
  0
VERTEX
  8
0
  5
9F45
 10
262.830
 20
218.983
 30
0.000000
  70
    32
  0
VERTEX
  8
0
  5
9F46
 10
262.842
 20
218.971
 30
0.000000
  70
    32
  0
VERTEX
  8
0
  5
9F47
 10
262.853
 20
218.960
 30
0.000000
  70
    32
  0
VERTEX
  8
0
  5
9F48
 10
262.866
 20
218.949
 30
0.000000
  70
    32
  0
VERTEX
  8
0
  5
9F49
 10
262.878
 20
218.938
 30
0.000000
  70
    32
  0
VERTEX
  8
0
  5
9F4A
 10
262.891
 20
218.928
 30
0.000000
  70
    32
  0
VERTEX
  8
0
  5
9F4B
 10
262.904
 20
218.917
 30
0.000000
  70
    32
  0
VERTEX
  8
0
  5
9F4C
 10
262.918
 20
218.907
 30
0.000000
  70
    32
  0
VERTEX
  8
0
  5
9F4D
 10
262.931
 20
218.898
 30
0.000000
  70
    32
  0
VERTEX
  8
0
  5
9F4E
 10
262.946
 20
218.888
 30
0.000000
  70
    32
  0
VERTEX
  8
0
  5
9F4F
 10
262.960
 20
218.879
 30
0.000000
  70
    32
  0
VERTEX
  8
0
  5
9F50
 10
262.975
 20
218.870
 30
0.000000
  70
    32
  0
VERTEX
  8
0
  5
9F51
 10
262.989
 20
218.861
 30
0.000000
  70
    32
  0
VERTEX
  8
0
  5
9F52
 10
263.005
 20
218.853
 30
0.000000
  70
    32
  0
VERTEX
  8
0
  5
9F53
 10
263.020
 20
218.845
 30
0.000000
  70
    32
  0
VERTEX
  8
0
  5
9F54
 10
263.036
 20
218.837
 30
0.000000
  70
    32
  0
VERTEX
  8
0
  5
9F55
 10
263.052
 20
218.830
 30
0.000000
  70
    32
  0
VERTEX
  8
0
  5
9F56
 10
263.068
 20
218.823
 30
0.000000
  70
    32
  0
VERTEX
  8
0
  5
9F57
 10
263.084
 20
218.816
 30
0.000000
  70
    32
  0
VERTEX
  8
0
  5
9F58
 10
263.101
 20
218.810
 30
0.000000
  70
    32
  0
VERTEX
  8
0
  5
9F59
 10
263.117
 20
218.804
 30
0.000000
  70
    32
  0
VERTEX
  8
0
  5
9F5A
 10
263.134
 20
218.798
 30
0.000000
  70
    32
  0
VERTEX
  8
0
  5
9F5B
 10
263.151
 20
218.792
 30
0.000000
  70
    32
  0
VERTEX
  8
0
  5
9F5C
 10
263.169
 20
218.787
 30
0.000000
  70
    32
  0
VERTEX
  8
0
  5
9F5D
 10
263.186
 20
218.782
 30
0.000000
  70
    32
  0
VERTEX
  8
0
  5
9F5E
 10
263.204
 20
218.778
 30
0.000000
  70
    32
  0
VERTEX
  8
0
  5
9F5F
 10
263.221
 20
218.774
 30
0.000000
  70
    32
  0
VERTEX
  8
0
  5
9F60
 10
263.239
 20
218.770
 30
0.000000
  70
    32
  0
VERTEX
  8
0
  5
9F61
 10
263.257
 20
218.767
 30
0.000000
  70
    32
  0
VERTEX
  8
0
  5
9F62
 10
263.275
 20
218.764
 30
0.000000
  70
    32
  0
VERTEX
  8
0
  5
9F63
 10
263.293
 20
218.761
 30
0.000000
  70
    32
  0
VERTEX
  8
0
  5
9F64
 10
263.311
 20
218.759
 30
0.000000
  70
    32
  0
VERTEX
  8
0
  5
9F65
 10
263.330
 20
218.757
 30
0.000000
  70
    32
  0
VERTEX
  8
0
  5
9F66
 10
263.348
 20
218.755
 30
0.000000
  70
    32
  0
VERTEX
  8
0
  5
9F67
 10
263.366
 20
218.754
 30
0.000000
  70
    32
  0
VERTEX
  8
0
  5
9F68
 10
263.385
 20
218.753
 30
0.000000
  70
    32
  0
VERTEX
  8
0
  5
9F69
 10
263.403
 20
218.752
 30
0.000000
  70
    32
  0
VERTEX
  8
0
  5
9F6A
 10
263.421
 20
218.752
 30
0.000000
  70
    32
  0
SEQEND
  8
0
  5
9F6B
  0
ARC
  5
B4C
  8
0
 10
259.17132969108701
 20
163.7520270322851
 30
0.0
 40
0.5
 50
180.0
 51
270.0000000000008
  0
ARC
  5
B4D
  8
0
 10
288.17132969108701
 20
163.7520270322851
 30
0.0
 40
0.5
 50
270.0000000000008
 51
0.0
  0
ARC
  5
B50
  8
0
 10
305.6713296910869
 20
158.7520270322851
 30
0.0
 40
0.5000000000000018
 50
0.0
 51
90.0
  0
ARC
  5
B57
  8
0
 10
241.6713296910869
 20
158.7520270322851
 30
0.0
 40
0.5
 50
90.0
 51
180.0
  0
ARC
  5
B58
  8
0
 10
262.67132969108701
 20
163.2520270322851
 30
0.0
 40
1.0
 50
270.0000000000008
 51
0.0
  0
ARC
  5
B59
  8
0
 10
284.67132969108701
 20
163.2520270322851
 30
0.0
 40
1.0
 50
180.0
 51
270.0000000000008
  0
LINE
  5
B68
  8
0
 10
278.67132957932819
 20
237.00202637663409
 30
0.0
 11
268.67132980284572
 21
237.00202637663409
 31
0.0
  0
LINE
  5
B69
  8
0
 10
277.42132960726792
 20
238.2520251845412
 30
0.0
 11
269.92132977490598
 21
238.2520251845412
 31
0.0
  0
LINE
  5
BC1
  8
0
 10
258.67133002636308
 20
210.7520256613783
 30
0.0
 11
258.89838181344152
 21
210.7520256613783
 31
0.0
  0
LINE
  5
BC2
  8
0
 10
258.89838181344152
 20
212.7520297144942
 30
0.0
 11
258.89838181344152
 21
210.7520256613783
 31
0.0
  0
LINE
  5
BC3
  8
0
 10
288.44427756873239
 20
212.7520297144942
 30
0.0
 11
258.89838181344152
 21
212.7520297144942
 31
0.0
  0
LINE
  5
BC4
  8
0
 10
288.44427756873239
 20
210.7520256613783
 30
0.0
 11
288.44427756873239
 21
212.7520297144942
 31
0.0
  0
LINE
  5
BC5
  8
0
 10
288.44427756873239
 20
210.7520256613783
 30
0.0
 11
288.67132935581083
 21
210.7520256613783
 31
0.0
  0
LINE
  5
BD5
  8
0
 10
288.17132927385438
 20
163.2520262574248
 30
0.0
 11
259.17133010831952
 21
163.2520262574248
 31
0.0
  0
LINE
  5
BE3
  8
0
 10
259.17133010831952
 20
162.252026697009
 30
0.0
 11
288.17132927385438
 21
162.252026697009
 31
0.0
  0
LINE
  5
BE8
  8
0
 10
306.17132844480739
 20
147.25202161368119
 30
0.0
 11
241.17133088317979
 21
147.2520270322851
 31
0.0
  0
LINE
  5
BE9
  8
0
 10
241.67132817116851
 20
159.2520271365932
 30
0.0
 11
305.67132969214049
 21
159.2520270322851
 31
0.0
  0
LINE
  5
BEA
  8
0
 10
263.53735543695558
 20
221.75202560177371
 30
0.0
 11
283.80530394521833
 21
221.75202560177371
 31
0.0
  0
LINE
  5
BED
  8
0
 10
284.15171403345943
 20
219.9520249342016
 30
0.0
 11
263.19094534871448
 21
219.9520249342016
 31
0.0
  0
LINE
  5
BEE
  8
0
 10
273.67132969108678
 20
221.75202560177371
 30
0.0
 11
273.67132969108678
 21
232.8485031103186
 31
0.0
  0
LINE
  5
BF0
  8
0
 10
282.17133015302301
 20
221.75202560177371
 30
0.0
 11
282.17133015302301
 21
232.8485031103186
 31
0.0
  0
LINE
  5
BF4
  8
0
 10
281.92132964638353
 20
233.7520275687269
 30
0.0
 11
265.42132973579038
 21
233.7520275687269
 31
0.0
  0
LINE
  5
BF5
  8
0
 10
265.17132922915101
 20
221.75202560177371
 30
0.0
 11
265.17132922915101
 21
232.8485031103186
 31
0.0
  0
LINE
  5
BF6
  8
0
 10
258.88112999406928
 20
211.25202667465729
 30
0.0
 11
258.88112999406928
 21
213.2520307277731
 31
0.0
  0
LINE
  5
BF7
  8
0
 10
258.88112999406928
 20
211.25202667465729
 30
0.0
 11
258.67133002636308
 21
211.25202667465729
 31
0.0
  0
LINE
  5
BF8
  8
0
 10
288.67132935581083
 20
211.25202667465729
 30
0.0
 11
288.46152938810462
 21
211.25202667465729
 31
0.0
  0
LINE
  5
BF9
  8
0
 10
288.46152938810462
 20
211.25202667465729
 30
0.0
 11
288.46152938810462
 21
213.2520307277731
 31
0.0
  0
LINE
  5
BFA
  8
0
 10
288.46152938810462
 20
213.2520307277731
 30
0.0
 11
258.88112999406928
 21
213.2520307277731
 31
0.0
  0
LINE
  5
BFC
  8
0
 10
259.67132925895328
 20
218.75202697268051
 30
0.0
 11
287.67133012322063
 21
218.75202697268051
 31
0.0
  0
LINE
  5
BFD
  8
0
 10
288.46152938810462
 20
211.25202667465729
 30
0.0
 11
288.44427756873239
 21
211.25202667465729
 31
0.0
  0
LINE
  5
BFE
  8
0
 10
258.89838181344152
 20
211.25202667465729
 30
0.0
 11
258.88112999406928
 21
211.25202667465729
 31
0.0
  0
LINE
  5
C02
  8
1
 10
291.17132976559259
 20
161.25202713659331
 30
0.0
 11
291.17132976559259
 21
145.2520270322851
 31
0.0
  0
LINE
  5
C0A
  8
1
 10
256.1713296165812
 20
161.25202713659331
 30
0.0
 11
256.17132961658098
 21
145.2520270322851
 31
0.0
  0
LINE
  5
1395
  8
0
 10
306.17132969108701
 20
158.7520270322851
 30
0.0
 11
306.17132849899411
 21
147.7520270560338
 31
0.0
  0
LINE
  5
1396
  8
0
 10
306.17132849899411
 20
147.7520270560338
 30
0.0
 11
306.17132849899411
 21
147.2520270322851
 31
0.0
  0
LINE
  5
1397
  8
0
 10
241.17133088317979
 20
158.7520270546369
 30
0.0
 11
241.17133088317979
 21
147.2520270322851
 31
0.0
  0
LINE
  5
1398
  8
0
 10
259.67132925895328
 20
218.75202697268051
 30
0.0
 11
258.67133002636308
 21
217.75202494612259
 31
0.0
  0
LINE
  5
1399
  8
0
 10
258.67133002636308
 20
217.75202494612259
 30
0.0
 11
258.67133002636308
 21
211.25202667465729
 31
0.0
  0
LINE
  5
139A
  8
0
 10
258.67133002636308
 20
210.7520256613783
 30
0.0
 11
258.67133002636308
 21
163.75202727070371
 31
0.0
  0
LINE
  5
139C
  8
0
 10
259.17133010831952
 20
162.252026697009
 30
0.0
 11
258.67133002636308
 21
161.75202661505261
 31
0.0
  0
LINE
  5
139D
  8
0
 10
258.67133002636308
 20
161.75202661505261
 30
0.0
 11
258.67133002636308
 21
159.2520271365932
 31
0.0
  0
LINE
  5
139E
  8
0
 10
287.67133012322063
 20
218.75202697268051
 30
0.0
 11
288.67132935581083
 21
217.75202494612259
 31
0.0
  0
LINE
  5
139F
  8
0
 10
288.67132935581083
 20
217.75202494612259
 30
0.0
 11
288.67132935581083
 21
211.25202667465729
 31
0.0
  0
LINE
  5
13A0
  8
0
 10
288.67132935581083
 20
211.25202667465729
 30
0.0
 11
288.56642937195772
 21
211.25202667465729
 31
0.0
  0
LINE
  5
13A1
  8
0
 10
288.67132935581083
 20
210.7520256613783
 30
0.0
 11
288.6713296910869
 21
163.7520270322851
 31
0.0
  0
LINE
  5
13A3
  8
0
 10
288.17132927385438
 20
162.252026697009
 30
0.0
 11
288.67132935581083
 21
161.75202661505261
 31
0.0
  0
LINE
  5
13A4
  8
0
 10
288.67132935581083
 20
161.75202661505261
 30
0.0
 11
288.67132935581083
 21
159.2520271365932
 31
0.0
  0
LINE
  5
13A7
  8
0
 10
269.92132977490598
 20
238.2520251845412
 30
0.0
 11
268.67132980284572
 21
237.00202637663409
 31
0.0
  0
LINE
  5
13A8
  8
0
 10
268.67132980284572
 20
237.00202637663409
 30
0.0
 11
268.67132980284572
 21
233.7520275687269
 31
0.0
  0
LINE
  5
13A9
  8
0
 10
277.42132960726792
 20
238.2520251845412
 30
0.0
 11
278.67132957932819
 21
237.00202637663409
 31
0.0
  0
LINE
  5
13AA
  8
0
 10
278.67132957932819
 20
237.00202637663409
 30
0.0
 11
278.67132957932819
 21
233.7520275687269
 31
0.0
  0
LINE
  5
13AB
  8
0
 10
281.92132964638353
 20
233.7520275687269
 30
0.0
 11
282.17133015302301
 21
233.6076874708227
 31
0.0
  0
LINE
  5
13AC
  8
0
 10
282.17133015302301
 20
233.6076874708227
 30
0.0
 11
282.17133015302301
 21
232.8485031103186
 31
0.0
  0
LINE
  5
13AD
  8
0
 10
265.42132973579038
 20
233.7520275687269
 30
0.0
 11
265.17132922915101
 21
233.6076874708227
 31
0.0
  0
LINE
  5
13AE
  8
0
 10
265.17132922915101
 20
233.6076874708227
 30
0.0
 11
265.17132922915101
 21
232.8485031102941
 31
0.0
  0
LINE
  5
13AF
  8
0
 10
283.80530394521833
 20
221.75202560177371
 30
0.0
 11
284.67132963148231
 21
221.25202458849469
 31
0.0
  0
LINE
  5
13B0
  8
0
 10
284.67132963148231
 20
221.25202458849469
 30
0.0
 11
284.67132963148231
 21
220.25203001251739
 31
0.0
  0
LINE
  5
13B1
  8
0
 10
284.67132963148231
 20
220.25203001251739
 30
0.0
 11
284.15171403345943
 21
219.9520249342016
 31
0.0
  0
LINE
  5
13B2
  8
0
 10
263.53735543695558
 20
221.75202560177371
 30
0.0
 11
262.6713297506916
 21
221.25202458849469
 31
0.0
  0
LINE
  5
13B3
  8
0
 10
262.6713297506916
 20
221.25202458849469
 30
0.0
 11
262.6713297506916
 21
220.25203001251739
 31
0.0
  0
LINE
  5
13B5
  8
0
 10
262.6713297506916
 20
220.25203001251739
 30
0.0
 11
263.19094534871448
 21
219.9520249342016
 31
0.0
  0
ARC
  5
13C6
  8
0
 10
277.92132992202232
 20
221.3326359963211
 30
0.0
 40
12.27508441315994
 50
69.743113541763165
 51
110.2568864579127
  0
ARC
  5
13C7
  8
0
 10
269.4213294601484
 20
221.3326359963221
 30
0.0
 40
12.27508441315994
 50
69.743113542072876
 51
110.2568864582224
  0
LINE
  5
13C8
  8
0
 10
178.33678083983969
 20
238.25202595940161
 30
0.0
 11
177.08678063494881
 21
237.00202715149439
 31
0.0
  0
LINE
  5
13C9
  8
0
 10
177.08678063494881
 20
237.00202715149439
 30
0.0
 11
177.08678063494881
 21
233.75202834358731
 31
0.0
  0
LINE
  5
13CA
  8
0
 10
185.8367802065404
 20
238.25202595940161
 30
0.0
 11
187.08678087709259
 21
237.00202715149439
 31
0.0
  0
LINE
  5
13CB
  8
0
 10
187.08678087709259
 20
237.00202715149439
 30
0.0
 11
187.08678087709259
 21
233.75202834358731
 31
0.0
  0
LINE
  5
13CC
  8
0
 10
190.3367809441479
 20
233.75202834358731
 30
0.0
 11
191.90173442033841
 21
232.84850388517901
 31
0.0
  0
LINE
  5
13CD
  8
0
 10
173.83678056789361
 20
233.75202834358731
 30
0.0
 11
172.27182616038189
 21
232.84850388517981
 31
0.0
  0
ARC
  5
13CE
  8
0
 10
174.7255647510828
 20
229.2608504485317
 30
0.0
 40
4.3465032213250874
 50
55.630226142331558
 51
124.36977385766809
  0
ARC
  5
13D0
  8
0
 10
189.44799629529581
 20
229.2608504485317
 30
0.0
 40
4.3465032213250874
 50
55.630226142331558
 51
124.36977385766809
  0
ARC
  5
13D1
  8
0
 10
182.08678052318999
 20
217.32806077494519
 30
0.0
 40
16.27782192506146
 50
72.453337393261776
 51
107.546662606738
  0
LINE
  5
13D2
  8
0
 10
171.95280626905881
 20
221.75202637663409
 30
0.0
 11
171.08678058279469
 21
221.2520253633551
 31
0.0
  0
LINE
  5
13D3
  8
0
 10
171.08678058279469
 20
221.2520253633551
 30
0.0
 11
171.08678058279469
 21
220.25203078737781
 31
0.0
  0
LINE
  5
13D4
  8
0
 10
171.08678058279469
 20
220.25203078737781
 30
0.0
 11
171.60639618081771
 21
219.95202570906201
 31
0.0
  0
LINE
  5
13D5
  8
0
 10
192.2207552429827
 20
221.75202637663409
 30
0.0
 11
193.08678092924669
 21
221.2520253633551
 31
0.0
  0
LINE
  5
13D6
  8
0
 10
193.08678092924669
 20
221.2520253633551
 30
0.0
 11
193.08678092924669
 21
220.25203078737781
 31
0.0
  0
LINE
  5
13D7
  8
0
 10
193.08678092924669
 20
220.25203078737781
 30
0.0
 11
192.5671643999012
 21
219.95202570906201
 31
0.0
  0
ARC
  5
13DD
  8
0
 10
70.773186460216294
 20
221.33263599632221
 30
0.0
 40
12.27508441315994
 50
69.743113542072876
 51
110.2568864582224
  0
ARC
  5
13DE
  8
0
 10
79.273186922090161
 20
221.3326359963211
 30
0.0
 40
12.27508441315994
 50
69.743113541763165
 51
110.2568864579127
  0
LINE
  5
13DF
  8
0
 10
66.523186229218794
 20
233.60768747082281
 30
0.0
 11
66.523186229218794
 21
232.84850311029419
 31
0.0
  0
LINE
  5
13E0
  8
0
 10
66.773186735858275
 20
233.75202756872699
 30
0.0
 11
66.523186229218794
 21
233.60768747082281
 31
0.0
  0
LINE
  5
13E1
  8
0
 10
83.523187153090788
 20
233.60768747082281
 30
0.0
 11
83.523187153090788
 21
232.84850311031869
 31
0.0
  0
LINE
  5
13E2
  8
0
 10
83.273186646451308
 20
233.75202756872699
 30
0.0
 11
83.523187153090788
 21
233.60768747082281
 31
0.0
  0
LINE
  5
13E3
  8
0
 10
80.023186579396096
 20
237.00202637663409
 30
0.0
 11
80.023186579396068
 21
233.75202756872699
 31
0.0
  0
LINE
  5
13E4
  8
0
 10
78.773186607335759
 20
238.2520251845412
 30
0.0
 11
80.023186579396096
 21
237.00202637663409
 31
0.0
  0
LINE
  5
13E5
  8
0
 10
70.0231868029135
 20
237.00202637663409
 30
0.0
 11
70.0231868029135
 21
233.75202756872699
 31
0.0
  0
LINE
  5
13E6
  8
0
 10
71.273186774973823
 20
238.2520251845412
 30
0.0
 11
70.0231868029135
 21
237.00202637663409
 31
0.0
  0
LINE
  5
13E7
  8
0
 10
66.523186229218794
 20
221.75202560177379
 30
0.0
 11
66.523186229218794
 21
232.84850311031869
 31
0.0
  0
LINE
  5
13E8
  8
0
 10
83.273186646451308
 20
233.75202756872699
 30
0.0
 11
66.773186735858275
 21
233.75202756872699
 31
0.0
  0
LINE
  5
13EC
  8
0
 10
83.523187153090788
 20
221.75202560177379
 30
0.0
 11
83.523187153090788
 21
232.84850311031869
 31
0.0
  0
LINE
  5
13EE
  8
0
 10
75.023186691154706
 20
223.25202703228521
 30
0.0
 11
75.023186691154663
 21
232.84850311031869
 31
0.0
  0
LINE
  5
13EF
  8
0
 10
78.773186607335759
 20
238.2520251845412
 30
0.0
 11
71.273186774973823
 21
238.2520251845412
 31
0.0
  0
LINE
  5
13F0
  8
0
 10
80.023186579396096
 20
237.00202637663409
 30
0.0
 11
70.0231868029135
 21
237.00202637663409
 31
0.0
  0
POLYLINE
  5
13F7
  8
0
 10
171.83678052691519
 20
219.9520270322852
 30
0.0
 66
     1
 70
     8
  0
VERTEX
  8
0
  5
9F6C
 10
171.837
 20
219.952
 30
0.000000
  70
    32
  0
VERTEX
  8
0
  5
9F6D
 10
171.818
 20
219.952
 30
0.000000
  70
    32
  0
VERTEX
  8
0
  5
9F6E
 10
171.800
 20
219.951
 30
0.000000
  70
    32
  0
VERTEX
  8
0
  5
9F6F
 10
171.782
 20
219.950
 30
0.000000
  70
    32
  0
VERTEX
  8
0
  5
9F70
 10
171.763
 20
219.949
 30
0.000000
  70
    32
  0
VERTEX
  8
0
  5
9F71
 10
171.745
 20
219.948
 30
0.000000
  70
    32
  0
VERTEX
  8
0
  5
9F72
 10
171.727
 20
219.946
 30
0.000000
  70
    32
  0
VERTEX
  8
0
  5
9F73
 10
171.709
 20
219.943
 30
0.000000
  70
    32
  0
VERTEX
  8
0
  5
9F74
 10
171.690
 20
219.940
 30
0.000000
  70
    32
  0
VERTEX
  8
0
  5
9F75
 10
171.672
 20
219.937
 30
0.000000
  70
    32
  0
VERTEX
  8
0
  5
9F76
 10
171.655
 20
219.934
 30
0.000000
  70
    32
  0
VERTEX
  8
0
  5
9F77
 10
171.637
 20
219.930
 30
0.000000
  70
    32
  0
VERTEX
  8
0
  5
9F78
 10
171.619
 20
219.926
 30
0.000000
  70
    32
  0
VERTEX
  8
0
  5
9F79
 10
171.602
 20
219.922
 30
0.000000
  70
    32
  0
VERTEX
  8
0
  5
9F7A
 10
171.584
 20
219.917
 30
0.000000
  70
    32
  0
VERTEX
  8
0
  5
9F7B
 10
171.567
 20
219.912
 30
0.000000
  70
    32
  0
VERTEX
  8
0
  5
9F7C
 10
171.550
 20
219.906
 30
0.000000
  70
    32
  0
VERTEX
  8
0
  5
9F7D
 10
171.533
 20
219.901
 30
0.000000
  70
    32
  0
VERTEX
  8
0
  5
9F7E
 10
171.516
 20
219.894
 30
0.000000
  70
    32
  0
VERTEX
  8
0
  5
9F7F
 10
171.500
 20
219.888
 30
0.000000
  70
    32
  0
VERTEX
  8
0
  5
9F80
 10
171.483
 20
219.881
 30
0.000000
  70
    32
  0
VERTEX
  8
0
  5
9F81
 10
171.467
 20
219.874
 30
0.000000
  70
    32
  0
VERTEX
  8
0
  5
9F82
 10
171.451
 20
219.867
 30
0.000000
  70
    32
  0
VERTEX
  8
0
  5
9F83
 10
171.436
 20
219.859
 30
0.000000
  70
    32
  0
VERTEX
  8
0
  5
9F84
 10
171.420
 20
219.851
 30
0.000000
  70
    32
  0
VERTEX
  8
0
  5
9F85
 10
171.405
 20
219.843
 30
0.000000
  70
    32
  0
VERTEX
  8
0
  5
9F86
 10
171.390
 20
219.834
 30
0.000000
  70
    32
  0
VERTEX
  8
0
  5
9F87
 10
171.375
 20
219.825
 30
0.000000
  70
    32
  0
VERTEX
  8
0
  5
9F88
 10
171.361
 20
219.816
 30
0.000000
  70
    32
  0
VERTEX
  8
0
  5
9F89
 10
171.347
 20
219.806
 30
0.000000
  70
    32
  0
VERTEX
  8
0
  5
9F8A
 10
171.333
 20
219.797
 30
0.000000
  70
    32
  0
VERTEX
  8
0
  5
9F8B
 10
171.320
 20
219.787
 30
0.000000
  70
    32
  0
VERTEX
  8
0
  5
9F8C
 10
171.306
 20
219.776
 30
0.000000
  70
    32
  0
VERTEX
  8
0
  5
9F8D
 10
171.294
 20
219.766
 30
0.000000
  70
    32
  0
VERTEX
  8
0
  5
9F8E
 10
171.281
 20
219.755
 30
0.000000
  70
    32
  0
VERTEX
  8
0
  5
9F8F
 10
171.269
 20
219.744
 30
0.000000
  70
    32
  0
VERTEX
  8
0
  5
9F90
 10
171.257
 20
219.733
 30
0.000000
  70
    32
  0
VERTEX
  8
0
  5
9F91
 10
171.246
 20
219.721
 30
0.000000
  70
    32
  0
VERTEX
  8
0
  5
9F92
 10
171.234
 20
219.709
 30
0.000000
  70
    32
  0
VERTEX
  8
0
  5
9F93
 10
171.224
 20
219.698
 30
0.000000
  70
    32
  0
VERTEX
  8
0
  5
9F94
 10
171.213
 20
219.685
 30
0.000000
  70
    32
  0
VERTEX
  8
0
  5
9F95
 10
171.203
 20
219.673
 30
0.000000
  70
    32
  0
VERTEX
  8
0
  5
9F96
 10
171.193
 20
219.660
 30
0.000000
  70
    32
  0
VERTEX
  8
0
  5
9F97
 10
171.184
 20
219.648
 30
0.000000
  70
    32
  0
VERTEX
  8
0
  5
9F98
 10
171.175
 20
219.635
 30
0.000000
  70
    32
  0
VERTEX
  8
0
  5
9F99
 10
171.167
 20
219.622
 30
0.000000
  70
    32
  0
VERTEX
  8
0
  5
9F9A
 10
171.159
 20
219.609
 30
0.000000
  70
    32
  0
VERTEX
  8
0
  5
9F9B
 10
171.151
 20
219.595
 30
0.000000
  70
    32
  0
VERTEX
  8
0
  5
9F9C
 10
171.144
 20
219.582
 30
0.000000
  70
    32
  0
VERTEX
  8
0
  5
9F9D
 10
171.137
 20
219.568
 30
0.000000
  70
    32
  0
VERTEX
  8
0
  5
9F9E
 10
171.131
 20
219.554
 30
0.000000
  70
    32
  0
VERTEX
  8
0
  5
9F9F
 10
171.125
 20
219.540
 30
0.000000
  70
    32
  0
VERTEX
  8
0
  5
9FA0
 10
171.119
 20
219.526
 30
0.000000
  70
    32
  0
VERTEX
  8
0
  5
9FA1
 10
171.114
 20
219.512
 30
0.000000
  70
    32
  0
VERTEX
  8
0
  5
9FA2
 10
171.109
 20
219.498
 30
0.000000
  70
    32
  0
VERTEX
  8
0
  5
9FA3
 10
171.105
 20
219.483
 30
0.000000
  70
    32
  0
VERTEX
  8
0
  5
9FA4
 10
171.101
 20
219.469
 30
0.000000
  70
    32
  0
VERTEX
  8
0
  5
9FA5
 10
171.098
 20
219.455
 30
0.000000
  70
    32
  0
VERTEX
  8
0
  5
9FA6
 10
171.095
 20
219.440
 30
0.000000
  70
    32
  0
VERTEX
  8
0
  5
9FA7
 10
171.092
 20
219.425
 30
0.000000
  70
    32
  0
VERTEX
  8
0
  5
9FA8
 10
171.090
 20
219.411
 30
0.000000
  70
    32
  0
VERTEX
  8
0
  5
9FA9
 10
171.089
 20
219.396
 30
0.000000
  70
    32
  0
VERTEX
  8
0
  5
9FAA
 10
171.088
 20
219.381
 30
0.000000
  70
    32
  0
VERTEX
  8
0
  5
9FAB
 10
171.087
 20
219.367
 30
0.000000
  70
    32
  0
VERTEX
  8
0
  5
9FAC
 10
171.087
 20
219.352
 30
0.000000
  70
    32
  0
VERTEX
  8
0
  5
9FAD
 10
171.087
 20
219.337
 30
0.000000
  70
    32
  0
VERTEX
  8
0
  5
9FAE
 10
171.088
 20
219.323
 30
0.000000
  70
    32
  0
VERTEX
  8
0
  5
9FAF
 10
171.089
 20
219.308
 30
0.000000
  70
    32
  0
VERTEX
  8
0
  5
9FB0
 10
171.090
 20
219.293
 30
0.000000
  70
    32
  0
VERTEX
  8
0
  5
9FB1
 10
171.092
 20
219.279
 30
0.000000
  70
    32
  0
VERTEX
  8
0
  5
9FB2
 10
171.095
 20
219.264
 30
0.000000
  70
    32
  0
VERTEX
  8
0
  5
9FB3
 10
171.098
 20
219.249
 30
0.000000
  70
    32
  0
VERTEX
  8
0
  5
9FB4
 10
171.101
 20
219.235
 30
0.000000
  70
    32
  0
VERTEX
  8
0
  5
9FB5
 10
171.105
 20
219.221
 30
0.000000
  70
    32
  0
VERTEX
  8
0
  5
9FB6
 10
171.109
 20
219.206
 30
0.000000
  70
    32
  0
VERTEX
  8
0
  5
9FB7
 10
171.114
 20
219.192
 30
0.000000
  70
    32
  0
VERTEX
  8
0
  5
9FB8
 10
171.119
 20
219.178
 30
0.000000
  70
    32
  0
VERTEX
  8
0
  5
9FB9
 10
171.125
 20
219.164
 30
0.000000
  70
    32
  0
VERTEX
  8
0
  5
9FBA
 10
171.131
 20
219.150
 30
0.000000
  70
    32
  0
VERTEX
  8
0
  5
9FBB
 10
171.137
 20
219.136
 30
0.000000
  70
    32
  0
VERTEX
  8
0
  5
9FBC
 10
171.144
 20
219.122
 30
0.000000
  70
    32
  0
VERTEX
  8
0
  5
9FBD
 10
171.151
 20
219.109
 30
0.000000
  70
    32
  0
VERTEX
  8
0
  5
9FBE
 10
171.159
 20
219.095
 30
0.000000
  70
    32
  0
VERTEX
  8
0
  5
9FBF
 10
171.167
 20
219.082
 30
0.000000
  70
    32
  0
VERTEX
  8
0
  5
9FC0
 10
171.175
 20
219.069
 30
0.000000
  70
    32
  0
VERTEX
  8
0
  5
9FC1
 10
171.184
 20
219.056
 30
0.000000
  70
    32
  0
VERTEX
  8
0
  5
9FC2
 10
171.193
 20
219.044
 30
0.000000
  70
    32
  0
VERTEX
  8
0
  5
9FC3
 10
171.203
 20
219.031
 30
0.000000
  70
    32
  0
VERTEX
  8
0
  5
9FC4
 10
171.213
 20
219.019
 30
0.000000
  70
    32
  0
VERTEX
  8
0
  5
9FC5
 10
171.224
 20
219.007
 30
0.000000
  70
    32
  0
VERTEX
  8
0
  5
9FC6
 10
171.234
 20
218.995
 30
0.000000
  70
    32
  0
VERTEX
  8
0
  5
9FC7
 10
171.246
 20
218.983
 30
0.000000
  70
    32
  0
VERTEX
  8
0
  5
9FC8
 10
171.257
 20
218.971
 30
0.000000
  70
    32
  0
VERTEX
  8
0
  5
9FC9
 10
171.269
 20
218.960
 30
0.000000
  70
    32
  0
VERTEX
  8
0
  5
9FCA
 10
171.281
 20
218.949
 30
0.000000
  70
    32
  0
VERTEX
  8
0
  5
9FCB
 10
171.294
 20
218.938
 30
0.000000
  70
    32
  0
VERTEX
  8
0
  5
9FCC
 10
171.306
 20
218.928
 30
0.000000
  70
    32
  0
VERTEX
  8
0
  5
9FCD
 10
171.320
 20
218.917
 30
0.000000
  70
    32
  0
VERTEX
  8
0
  5
9FCE
 10
171.333
 20
218.907
 30
0.000000
  70
    32
  0
VERTEX
  8
0
  5
9FCF
 10
171.347
 20
218.898
 30
0.000000
  70
    32
  0
VERTEX
  8
0
  5
9FD0
 10
171.361
 20
218.888
 30
0.000000
  70
    32
  0
VERTEX
  8
0
  5
9FD1
 10
171.375
 20
218.879
 30
0.000000
  70
    32
  0
VERTEX
  8
0
  5
9FD2
 10
171.390
 20
218.870
 30
0.000000
  70
    32
  0
VERTEX
  8
0
  5
9FD3
 10
171.405
 20
218.861
 30
0.000000
  70
    32
  0
VERTEX
  8
0
  5
9FD4
 10
171.420
 20
218.853
 30
0.000000
  70
    32
  0
VERTEX
  8
0
  5
9FD5
 10
171.436
 20
218.845
 30
0.000000
  70
    32
  0
VERTEX
  8
0
  5
9FD6
 10
171.451
 20
218.837
 30
0.000000
  70
    32
  0
VERTEX
  8
0
  5
9FD7
 10
171.467
 20
218.830
 30
0.000000
  70
    32
  0
VERTEX
  8
0
  5
9FD8
 10
171.483
 20
218.823
 30
0.000000
  70
    32
  0
VERTEX
  8
0
  5
9FD9
 10
171.500
 20
218.816
 30
0.000000
  70
    32
  0
VERTEX
  8
0
  5
9FDA
 10
171.516
 20
218.810
 30
0.000000
  70
    32
  0
VERTEX
  8
0
  5
9FDB
 10
171.533
 20
218.804
 30
0.000000
  70
    32
  0
VERTEX
  8
0
  5
9FDC
 10
171.550
 20
218.798
 30
0.000000
  70
    32
  0
VERTEX
  8
0
  5
9FDD
 10
171.567
 20
218.792
 30
0.000000
  70
    32
  0
VERTEX
  8
0
  5
9FDE
 10
171.584
 20
218.787
 30
0.000000
  70
    32
  0
VERTEX
  8
0
  5
9FDF
 10
171.602
 20
218.782
 30
0.000000
  70
    32
  0
VERTEX
  8
0
  5
9FE0
 10
171.619
 20
218.778
 30
0.000000
  70
    32
  0
VERTEX
  8
0
  5
9FE1
 10
171.637
 20
218.774
 30
0.000000
  70
    32
  0
VERTEX
  8
0
  5
9FE2
 10
171.655
 20
218.770
 30
0.000000
  70
    32
  0
VERTEX
  8
0
  5
9FE3
 10
171.672
 20
218.767
 30
0.000000
  70
    32
  0
VERTEX
  8
0
  5
9FE4
 10
171.690
 20
218.764
 30
0.000000
  70
    32
  0
VERTEX
  8
0
  5
9FE5
 10
171.709
 20
218.761
 30
0.000000
  70
    32
  0
VERTEX
  8
0
  5
9FE6
 10
171.727
 20
218.759
 30
0.000000
  70
    32
  0
VERTEX
  8
0
  5
9FE7
 10
171.745
 20
218.757
 30
0.000000
  70
    32
  0
VERTEX
  8
0
  5
9FE8
 10
171.763
 20
218.755
 30
0.000000
  70
    32
  0
VERTEX
  8
0
  5
9FE9
 10
171.782
 20
218.754
 30
0.000000
  70
    32
  0
VERTEX
  8
0
  5
9FEA
 10
171.800
 20
218.753
 30
0.000000
  70
    32
  0
VERTEX
  8
0
  5
9FEB
 10
171.818
 20
218.752
 30
0.000000
  70
    32
  0
VERTEX
  8
0
  5
9FEC
 10
171.837
 20
218.752
 30
0.000000
  70
    32
  0
SEQEND
  8
0
  5
9FED
  0
POLYLINE
  5
13F8
  8
0
 10
192.33678052691519
 20
218.75202703228521
 30
0.0
 66
     1
 70
     8
  0
VERTEX
  8
0
  5
9FEE
 10
192.337
 20
218.752
 30
0.000000
  70
    32
  0
VERTEX
  8
0
  5
9FEF
 10
192.355
 20
218.752
 30
0.000000
  70
    32
  0
VERTEX
  8
0
  5
9FF0
 10
192.374
 20
218.753
 30
0.000000
  70
    32
  0
VERTEX
  8
0
  5
9FF1
 10
192.392
 20
218.754
 30
0.000000
  70
    32
  0
VERTEX
  8
0
  5
9FF2
 10
192.410
 20
218.755
 30
0.000000
  70
    32
  0
VERTEX
  8
0
  5
9FF3
 10
192.429
 20
218.757
 30
0.000000
  70
    32
  0
VERTEX
  8
0
  5
9FF4
 10
192.447
 20
218.759
 30
0.000000
  70
    32
  0
VERTEX
  8
0
  5
9FF5
 10
192.465
 20
218.761
 30
0.000000
  70
    32
  0
VERTEX
  8
0
  5
9FF6
 10
192.483
 20
218.764
 30
0.000000
  70
    32
  0
VERTEX
  8
0
  5
9FF7
 10
192.501
 20
218.767
 30
0.000000
  70
    32
  0
VERTEX
  8
0
  5
9FF8
 10
192.519
 20
218.770
 30
0.000000
  70
    32
  0
VERTEX
  8
0
  5
9FF9
 10
192.537
 20
218.774
 30
0.000000
  70
    32
  0
VERTEX
  8
0
  5
9FFA
 10
192.554
 20
218.778
 30
0.000000
  70
    32
  0
VERTEX
  8
0
  5
9FFB
 10
192.572
 20
218.782
 30
0.000000
  70
    32
  0
VERTEX
  8
0
  5
9FFC
 10
192.589
 20
218.787
 30
0.000000
  70
    32
  0
VERTEX
  8
0
  5
9FFD
 10
192.607
 20
218.792
 30
0.000000
  70
    32
  0
VERTEX
  8
0
  5
9FFE
 10
192.624
 20
218.798
 30
0.000000
  70
    32
  0
VERTEX
  8
0
  5
9FFF
 10
192.641
 20
218.804
 30
0.000000
  70
    32
  0
VERTEX
  8
0
  5
A000
 10
192.657
 20
218.810
 30
0.000000
  70
    32
  0
VERTEX
  8
0
  5
A001
 10
192.674
 20
218.816
 30
0.000000
  70
    32
  0
VERTEX
  8
0
  5
A002
 10
192.690
 20
218.823
 30
0.000000
  70
    32
  0
VERTEX
  8
0
  5
A003
 10
192.706
 20
218.830
 30
0.000000
  70
    32
  0
VERTEX
  8
0
  5
A004
 10
192.722
 20
218.837
 30
0.000000
  70
    32
  0
VERTEX
  8
0
  5
A005
 10
192.738
 20
218.845
 30
0.000000
  70
    32
  0
VERTEX
  8
0
  5
A006
 10
192.753
 20
218.853
 30
0.000000
  70
    32
  0
VERTEX
  8
0
  5
A007
 10
192.769
 20
218.861
 30
0.000000
  70
    32
  0
VERTEX
  8
0
  5
A008
 10
192.784
 20
218.870
 30
0.000000
  70
    32
  0
VERTEX
  8
0
  5
A009
 10
192.798
 20
218.879
 30
0.000000
  70
    32
  0
VERTEX
  8
0
  5
A00A
 10
192.813
 20
218.888
 30
0.000000
  70
    32
  0
VERTEX
  8
0
  5
A00B
 10
192.827
 20
218.898
 30
0.000000
  70
    32
  0
VERTEX
  8
0
  5
A00C
 10
192.840
 20
218.907
 30
0.000000
  70
    32
  0
VERTEX
  8
0
  5
A00D
 10
192.854
 20
218.917
 30
0.000000
  70
    32
  0
VERTEX
  8
0
  5
A00E
 10
192.867
 20
218.928
 30
0.000000
  70
    32
  0
VERTEX
  8
0
  5
A00F
 10
192.880
 20
218.938
 30
0.000000
  70
    32
  0
VERTEX
  8
0
  5
A010
 10
192.892
 20
218.949
 30
0.000000
  70
    32
  0
VERTEX
  8
0
  5
A011
 10
192.905
 20
218.960
 30
0.000000
  70
    32
  0
VERTEX
  8
0
  5
A012
 10
192.917
 20
218.971
 30
0.000000
  70
    32
  0
VERTEX
  8
0
  5
A013
 10
192.928
 20
218.983
 30
0.000000
  70
    32
  0
VERTEX
  8
0
  5
A014
 10
192.939
 20
218.995
 30
0.000000
  70
    32
  0
VERTEX
  8
0
  5
A015
 10
192.950
 20
219.007
 30
0.000000
  70
    32
  0
VERTEX
  8
0
  5
A016
 10
192.960
 20
219.019
 30
0.000000
  70
    32
  0
VERTEX
  8
0
  5
A017
 10
192.970
 20
219.031
 30
0.000000
  70
    32
  0
VERTEX
  8
0
  5
A018
 10
192.980
 20
219.044
 30
0.000000
  70
    32
  0
VERTEX
  8
0
  5
A019
 10
192.989
 20
219.056
 30
0.000000
  70
    32
  0
VERTEX
  8
0
  5
A01A
 10
192.998
 20
219.069
 30
0.000000
  70
    32
  0
VERTEX
  8
0
  5
A01B
 10
193.007
 20
219.082
 30
0.000000
  70
    32
  0
VERTEX
  8
0
  5
A01C
 10
193.015
 20
219.095
 30
0.000000
  70
    32
  0
VERTEX
  8
0
  5
A01D
 10
193.022
 20
219.109
 30
0.000000
  70
    32
  0
VERTEX
  8
0
  5
A01E
 10
193.030
 20
219.122
 30
0.000000
  70
    32
  0
VERTEX
  8
0
  5
A01F
 10
193.037
 20
219.136
 30
0.000000
  70
    32
  0
VERTEX
  8
0
  5
A020
 10
193.043
 20
219.150
 30
0.000000
  70
    32
  0
VERTEX
  8
0
  5
A021
 10
193.049
 20
219.164
 30
0.000000
  70
    32
  0
VERTEX
  8
0
  5
A022
 10
193.054
 20
219.178
 30
0.000000
  70
    32
  0
VERTEX
  8
0
  5
A023
 10
193.060
 20
219.192
 30
0.000000
  70
    32
  0
VERTEX
  8
0
  5
A024
 10
193.064
 20
219.206
 30
0.000000
  70
    32
  0
VERTEX
  8
0
  5
A025
 10
193.069
 20
219.221
 30
0.000000
  70
    32
  0
VERTEX
  8
0
  5
A026
 10
193.072
 20
219.235
 30
0.000000
  70
    32
  0
VERTEX
  8
0
  5
A027
 10
193.076
 20
219.249
 30
0.000000
  70
    32
  0
VERTEX
  8
0
  5
A028
 10
193.079
 20
219.264
 30
0.000000
  70
    32
  0
VERTEX
  8
0
  5
A029
 10
193.081
 20
219.279
 30
0.000000
  70
    32
  0
VERTEX
  8
0
  5
A02A
 10
193.083
 20
219.293
 30
0.000000
  70
    32
  0
VERTEX
  8
0
  5
A02B
 10
193.085
 20
219.308
 30
0.000000
  70
    32
  0
VERTEX
  8
0
  5
A02C
 10
193.086
 20
219.323
 30
0.000000
  70
    32
  0
VERTEX
  8
0
  5
A02D
 10
193.087
 20
219.337
 30
0.000000
  70
    32
  0
VERTEX
  8
0
  5
A02E
 10
193.087
 20
219.352
 30
0.000000
  70
    32
  0
VERTEX
  8
0
  5
A02F
 10
193.087
 20
219.367
 30
0.000000
  70
    32
  0
VERTEX
  8
0
  5
A030
 10
193.086
 20
219.381
 30
0.000000
  70
    32
  0
VERTEX
  8
0
  5
A031
 10
193.085
 20
219.396
 30
0.000000
  70
    32
  0
VERTEX
  8
0
  5
A032
 10
193.083
 20
219.411
 30
0.000000
  70
    32
  0
VERTEX
  8
0
  5
A033
 10
193.081
 20
219.425
 30
0.000000
  70
    32
  0
VERTEX
  8
0
  5
A034
 10
193.079
 20
219.440
 30
0.000000
  70
    32
  0
VERTEX
  8
0
  5
A035
 10
193.076
 20
219.455
 30
0.000000
  70
    32
  0
VERTEX
  8
0
  5
A036
 10
193.072
 20
219.469
 30
0.000000
  70
    32
  0
VERTEX
  8
0
  5
A037
 10
193.069
 20
219.483
 30
0.000000
  70
    32
  0
VERTEX
  8
0
  5
A038
 10
193.064
 20
219.498
 30
0.000000
  70
    32
  0
VERTEX
  8
0
  5
A039
 10
193.060
 20
219.512
 30
0.000000
  70
    32
  0
VERTEX
  8
0
  5
A03A
 10
193.054
 20
219.526
 30
0.000000
  70
    32
  0
VERTEX
  8
0
  5
A03B
 10
193.049
 20
219.540
 30
0.000000
  70
    32
  0
VERTEX
  8
0
  5
A03C
 10
193.043
 20
219.554
 30
0.000000
  70
    32
  0
VERTEX
  8
0
  5
A03D
 10
193.037
 20
219.568
 30
0.000000
  70
    32
  0
VERTEX
  8
0
  5
A03E
 10
193.030
 20
219.582
 30
0.000000
  70
    32
  0
VERTEX
  8
0
  5
A03F
 10
193.022
 20
219.595
 30
0.000000
  70
    32
  0
VERTEX
  8
0
  5
A040
 10
193.015
 20
219.609
 30
0.000000
  70
    32
  0
VERTEX
  8
0
  5
A041
 10
193.007
 20
219.622
 30
0.000000
  70
    32
  0
VERTEX
  8
0
  5
A042
 10
192.998
 20
219.635
 30
0.000000
  70
    32
  0
VERTEX
  8
0
  5
A043
 10
192.989
 20
219.648
 30
0.000000
  70
    32
  0
VERTEX
  8
0
  5
A044
 10
192.980
 20
219.660
 30
0.000000
  70
    32
  0
VERTEX
  8
0
  5
A045
 10
192.970
 20
219.673
 30
0.000000
  70
    32
  0
VERTEX
  8
0
  5
A046
 10
192.960
 20
219.685
 30
0.000000
  70
    32
  0
VERTEX
  8
0
  5
A047
 10
192.950
 20
219.698
 30
0.000000
  70
    32
  0
VERTEX
  8
0
  5
A048
 10
192.939
 20
219.709
 30
0.000000
  70
    32
  0
VERTEX
  8
0
  5
A049
 10
192.928
 20
219.721
 30
0.000000
  70
    32
  0
VERTEX
  8
0
  5
A04A
 10
192.917
 20
219.733
 30
0.000000
  70
    32
  0
VERTEX
  8
0
  5
A04B
 10
192.905
 20
219.744
 30
0.000000
  70
    32
  0
VERTEX
  8
0
  5
A04C
 10
192.892
 20
219.755
 30
0.000000
  70
    32
  0
VERTEX
  8
0
  5
A04D
 10
192.880
 20
219.766
 30
0.000000
  70
    32
  0
VERTEX
  8
0
  5
A04E
 10
192.867
 20
219.776
 30
0.000000
  70
    32
  0
VERTEX
  8
0
  5
A04F
 10
192.854
 20
219.787
 30
0.000000
  70
    32
  0
VERTEX
  8
0
  5
A050
 10
192.840
 20
219.797
 30
0.000000
  70
    32
  0
VERTEX
  8
0
  5
A051
 10
192.827
 20
219.806
 30
0.000000
  70
    32
  0
VERTEX
  8
0
  5
A052
 10
192.813
 20
219.816
 30
0.000000
  70
    32
  0
VERTEX
  8
0
  5
A053
 10
192.798
 20
219.825
 30
0.000000
  70
    32
  0
VERTEX
  8
0
  5
A054
 10
192.784
 20
219.834
 30
0.000000
  70
    32
  0
VERTEX
  8
0
  5
A055
 10
192.769
 20
219.843
 30
0.000000
  70
    32
  0
VERTEX
  8
0
  5
A056
 10
192.753
 20
219.851
 30
0.000000
  70
    32
  0
VERTEX
  8
0
  5
A057
 10
192.738
 20
219.859
 30
0.000000
  70
    32
  0
VERTEX
  8
0
  5
A058
 10
192.722
 20
219.867
 30
0.000000
  70
    32
  0
VERTEX
  8
0
  5
A059
 10
192.706
 20
219.874
 30
0.000000
  70
    32
  0
VERTEX
  8
0
  5
A05A
 10
192.690
 20
219.881
 30
0.000000
  70
    32
  0
VERTEX
  8
0
  5
A05B
 10
192.674
 20
219.888
 30
0.000000
  70
    32
  0
VERTEX
  8
0
  5
A05C
 10
192.657
 20
219.894
 30
0.000000
  70
    32
  0
VERTEX
  8
0
  5
A05D
 10
192.641
 20
219.901
 30
0.000000
  70
    32
  0
VERTEX
  8
0
  5
A05E
 10
192.624
 20
219.906
 30
0.000000
  70
    32
  0
VERTEX
  8
0
  5
A05F
 10
192.607
 20
219.912
 30
0.000000
  70
    32
  0
VERTEX
  8
0
  5
A060
 10
192.589
 20
219.917
 30
0.000000
  70
    32
  0
VERTEX
  8
0
  5
A061
 10
192.572
 20
219.922
 30
0.000000
  70
    32
  0
VERTEX
  8
0
  5
A062
 10
192.554
 20
219.926
 30
0.000000
  70
    32
  0
VERTEX
  8
0
  5
A063
 10
192.537
 20
219.930
 30
0.000000
  70
    32
  0
VERTEX
  8
0
  5
A064
 10
192.519
 20
219.934
 30
0.000000
  70
    32
  0
VERTEX
  8
0
  5
A065
 10
192.501
 20
219.937
 30
0.000000
  70
    32
  0
VERTEX
  8
0
  5
A066
 10
192.483
 20
219.940
 30
0.000000
  70
    32
  0
VERTEX
  8
0
  5
A067
 10
192.465
 20
219.943
 30
0.000000
  70
    32
  0
VERTEX
  8
0
  5
A068
 10
192.447
 20
219.946
 30
0.000000
  70
    32
  0
VERTEX
  8
0
  5
A069
 10
192.429
 20
219.948
 30
0.000000
  70
    32
  0
VERTEX
  8
0
  5
A06A
 10
192.410
 20
219.949
 30
0.000000
  70
    32
  0
VERTEX
  8
0
  5
A06B
 10
192.392
 20
219.950
 30
0.000000
  70
    32
  0
VERTEX
  8
0
  5
A06C
 10
192.374
 20
219.951
 30
0.000000
  70
    32
  0
VERTEX
  8
0
  5
A06D
 10
192.355
 20
219.952
 30
0.000000
  70
    32
  0
VERTEX
  8
0
  5
A06E
 10
192.337
 20
219.952
 30
0.000000
  70
    32
  0
SEQEND
  8
0
  5
A06F
  0
LINE
  5
1405
  8
0
 10
64.023186750759209
 20
220.25203001251751
 30
0.0
 11
64.542802348782146
 21
219.95202493420169
 31
0.0
  0
LINE
  5
1406
  8
0
 10
64.023186750759209
 20
221.25202458849481
 30
0.0
 11
64.023186750759209
 21
220.25203001251751
 31
0.0
  0
LINE
  5
1407
  8
0
 10
64.889212437023247
 20
221.75202560177379
 30
0.0
 11
64.023186750759209
 21
221.25202458849481
 31
0.0
  0
LINE
  5
1408
  8
0
 10
86.023186631549919
 20
220.25203001251751
 30
0.0
 11
85.503571033526981
 21
219.95202493420169
 31
0.0
  0
LINE
  5
1409
  8
0
 10
86.023186631549919
 20
221.25202458849481
 30
0.0
 11
86.023186631549919
 21
220.25203001251751
 31
0.0
  0
LINE
  5
140A
  8
0
 10
85.157160945285881
 20
221.75202560177379
 30
0.0
 11
86.023186631549919
 21
221.25202458849481
 31
0.0
  0
LINE
  5
1410
  8
0
 10
149.08678116766529
 20
190.25202959528491
 30
0.0
 11
149.08678116766529
 21
183.25202658525029
 31
0.0
  0
LINE
  5
1412
  8
0
 10
141.08677799371799
 20
190.25202959528491
 30
0.0
 11
141.08677799371799
 21
183.25202658525029
 31
0.0
  0
LINE
  5
1413
  8
0
 10
137.5867783513458
 20
213.25203150263351
 30
0.0
 11
137.0867773380669
 21
212.75203048935461
 31
0.0
  0
LINE
  5
1414
  8
0
 10
137.0867773380669
 20
212.75203048935461
 30
0.0
 11
137.0867773380669
 21
195.7520295654825
 31
0.0
  0
LINE
  5
1415
  8
0
 10
142.08678002027591
 20
222.252027389913
 30
0.0
 11
142.08678002027591
 21
218.82937967529821
 31
0.0
  0
LINE
  5
1417
  8
0
 10
142.08678002027591
 20
218.82937967529821
 30
0.0
 11
141.08677799371799
 21
218.2520267342619
 31
0.0
  0
LINE
  5
1418
  8
0
 10
148.0867791411074
 20
222.252027389913
 30
0.0
 11
148.0867791411074
 21
218.82937967529821
 31
0.0
  0
LINE
  5
1419
  8
0
 10
148.0867791411074
 20
218.82937967529821
 30
0.0
 11
149.08678116766529
 21
218.2520267342619
 31
0.0
  0
LINE
  5
141A
  8
0
 10
168.0867800910564
 20
218.75202774754089
 30
0.0
 11
167.0867808584662
 21
217.752025720983
 31
0.0
  0
LINE
  5
141B
  8
0
 10
167.0867808584662
 20
217.752025720983
 30
0.0
 11
167.0867808584662
 21
213.25203150263351
 31
0.0
  0
LINE
  5
141C
  8
0
 10
196.08678142098501
 20
218.75202774754089
 30
0.0
 11
197.08677972225269
 21
217.752025720983
 31
0.0
  0
LINE
  5
141D
  8
0
 10
197.08677972225269
 20
217.752025720983
 30
0.0
 11
197.08677972225269
 21
213.25203150263351
 31
0.0
  0
LINE
  5
141E
  8
0
 10
196.58678057161879
 20
213.25203150263351
 30
0.0
 11
197.08677972225269
 21
212.75203048935461
 31
0.0
  0
LINE
  5
1421
  8
0
 10
197.08677972225269
 20
205.50202697268051
 30
0.0
 11
197.08677972225269
 21
203.0020293568663
 31
0.0
  0
LINE
  5
1424
  8
0
 10
197.08677972225269
 20
212.75203048935461
 30
0.0
 11
197.08677972225269
 21
163.7520272888645
 31
0.0
  0
LINE
  5
1426
  8
0
 10
196.58678057161879
 20
162.25202677337751
 30
0.0
 11
197.08677972225269
 21
161.75202669142109
 31
0.0
  0
LINE
  5
1429
  8
0
 10
167.58678094042261
 20
162.25202677337751
 30
0.0
 11
167.0867808584662
 21
161.75202669142109
 31
0.0
  0
LINE
  5
142C
  8
0
 10
167.0867808584662
 20
189.2520275687269
 30
0.0
 11
167.08678085846159
 21
163.75202515226201
 31
0.0
  0
LINE
  5
143A
  8
0
 10
107.52318669115451
 20
158.7520270322851
 30
0.0
 11
107.52318669115451
 21
147.2520270322851
 31
0.0
  0
LINE
  5
143B
  8
0
 10
42.523187883247488
 20
158.7520270546369
 30
0.0
 11
42.523187883247488
 21
147.2520270322851
 31
0.0
  0
LINE
  5
143D
  8
0
 10
89.523186273922065
 20
162.252026697009
 30
0.0
 11
90.023186355878465
 21
161.75202661505261
 31
0.0
  0
LINE
  5
143E
  8
0
 10
90.023186355878465
 20
161.75202661505261
 30
0.0
 11
90.023186355878465
 21
159.2520271365932
 31
0.0
  0
LINE
  5
143F
  8
0
 10
60.523187108387113
 20
162.252026697009
 30
0.0
 11
60.023187026430719
 21
161.75202661505261
 31
0.0
  0
LINE
  5
1440
  8
0
 10
60.023187026430719
 20
161.75202661505261
 30
0.0
 11
60.023187026430719
 21
159.2520271365932
 31
0.0
  0
LINE
  5
1442
  8
0
 10
60.023187026430719
 20
210.75202566137841
 30
0.0
 11
60.023187026430719
 21
163.75202727070371
 31
0.0
  0
LINE
  5
1443
  8
0
 10
90.023186355878465
 20
163.75202727070371
 30
0.0
 11
90.023186355878465
 21
210.75202566137841
 31
0.0
  0
LINE
  5
1444
  8
0
 10
89.023187123288267
 20
218.7520269726806
 30
0.0
 11
90.023186355878465
 21
217.7520249461227
 31
0.0
  0
LINE
  5
1445
  8
0
 10
90.023186355878465
 20
217.7520249461227
 30
0.0
 11
90.023186355878465
 21
211.25202667465729
 31
0.0
  0
LINE
  5
1446
  8
0
 10
61.023186259020918
 20
218.7520269726806
 30
0.0
 11
60.023187026430719
 21
217.7520249461227
 31
0.0
  0
LINE
  5
1448
  8
0
 10
60.023187026430719
 20
211.25202667465729
 30
0.0
 11
60.023187026430719
 21
217.7520249461227
 31
0.0
  0
LINE
  5
1449
  8
0
 10
78.023186717231738
 20
222.2520266150527
 30
0.0
 11
78.023186717231738
 21
218.8293789004378
 31
0.0
  0
LINE
  5
144A
  8
0
 10
78.023186717231738
 20
218.8293789004378
 30
0.0
 11
79.023186881144511
 21
218.25202595940161
 31
0.0
  0
LINE
  5
144B
  8
0
 10
72.023186665077674
 20
222.2520266150527
 30
0.0
 11
72.023186665077674
 21
218.8293789004378
 31
0.0
  0
LINE
  5
144C
  8
0
 10
72.023186665077674
 20
218.8293789004378
 30
0.0
 11
71.023186501164901
 21
218.25202595940161
 31
0.0
  0
LINE
  5
144D
  8
0
 10
71.023186501164901
 20
190.2520288204245
 30
0.0
 11
71.023186501164901
 21
183.25202581038991
 31
0.0
  0
LINE
  5
144E
  8
0
 10
79.023186881144511
 20
190.2520288204245
 30
0.0
 11
79.023186881144511
 21
183.25202581038991
 31
0.0
  0
LINE
  5
144F
  8
1
 10
273.67132969108678
 20
243.25202595940149
 30
0.0
 11
273.67132969108678
 21
142.2520270322851
 31
0.0
  0
LINE
  5
14AE
  8
3
 10
141.76327958069149
 20
183.25202658525029
 30
0.0
 11
141.76327958069149
 21
190.25202959528491
 31
0.0
  0
LINE
  5
14AF
  8
3
 10
148.41027958069171
 20
183.25202658525029
 30
0.0
 11
148.41027958069171
 21
190.25202959528491
 31
0.0
  0
LINE
  5
14B0
  8
3
 10
78.346686691154829
 20
183.25202581038991
 30
0.0
 11
78.346686691154829
 21
190.2520288204245
 31
0.0
  0
LINE
  5
14B1
  8
3
 10
71.699686691154625
 20
183.25202581038991
 30
0.0
 11
71.699686691154653
 21
190.2520288204245
 31
0.0
  0
LINE
  5
14DA
  8
3
 10
79.211186691154893
 20
233.75202756872699
 30
0.0
 11
79.211186691154865
 21
237.81402637663399
 31
0.0
  0
LINE
  5
14DB
  8
3
 10
70.835186691154689
 20
233.75202756872699
 30
0.0
 11
70.835186691154689
 21
237.8140263766341
 31
0.0
  0
LINE
  5
14E3
  8
3
 10
186.27478052691569
 20
233.75202834358731
 30
0.0
 11
186.27478052691569
 21
237.81402637663399
 31
0.0
  0
LINE
  5
14E4
  8
3
 10
177.8987805269154
 20
233.7520283435874
 30
0.0
 11
177.89878052691549
 21
237.8140263766341
 31
0.0
  0
LINE
  5
14E5
  8
3
 10
277.85932969108728
 20
233.75202756872699
 30
0.0
 11
277.859329691087
 21
237.81402560177361
 31
0.0
  0
LINE
  5
14E6
  8
3
 10
269.48332969108679
 20
233.75202756872699
 30
0.0
 11
269.48332969108679
 21
237.81402560177369
 31
0.0
  0
LINE
  5
14E7
  8
3
 10
369.44387885525799
 20
233.75202834358751
 30
0.0
 11
369.44387885525799
 21
237.81402637663419
 31
0.0
  0
LINE
  5
14E8
  8
3
 10
361.0678788552579
 20
233.75202834358751
 30
0.0
 11
361.06787885525779
 21
237.8140263766341
 31
0.0
  0
LINE
  5
14E9
  8
3
 10
398.932379801482
 20
183.25202658525041
 30
0.0
 11
398.93237980148177
 21
190.25202959528499
 31
0.0
  0
LINE
  5
14EA
  8
3
 10
405.57937980148199
 20
183.25202658525049
 30
0.0
 11
405.57937980148188
 21
190.25202959528499
 31
0.0
  0
LINE
  5
14F6
  8
0
 10
380.25587852370728
 20
189.2520275687271
 30
0.0
 11
380.255878523712
 21
163.75202515226209
 31
0.0
  0
LINE
  5
14F9
  8
0
 10
379.75587844175112
 20
162.25202677337759
 30
0.0
 11
380.25587852370751
 21
161.75202669142121
 31
0.0
  0
LINE
  5
14FB
  8
0
 10
350.7558788105548
 20
162.25202677337759
 30
0.0
 11
350.25587965992099
 21
161.75202669142121
 31
0.0
  0
LINE
  5
14FD
  8
0
 10
350.25587965992088
 20
212.75203048935461
 30
0.0
 11
350.25587965992088
 21
163.75202728886461
 31
0.0
  0
LINE
  5
1502
  8
0
 10
350.75587881055469
 20
213.2520315026336
 30
0.0
 11
350.25587965992088
 21
212.75203048935461
 31
0.0
  0
LINE
  5
1503
  8
0
 10
350.25587965992088
 20
217.75202572098311
 30
0.0
 11
350.25587965992088
 21
213.2520315026336
 31
0.0
  0
LINE
  5
1504
  8
0
 10
351.2558779611885
 20
218.75202774754101
 30
0.0
 11
350.25587965992088
 21
217.75202572098311
 31
0.0
  0
LINE
  5
1505
  8
0
 10
380.25587852370728
 20
217.75202572098311
 30
0.0
 11
380.25587852370728
 21
213.2520315026336
 31
0.0
  0
LINE
  5
1506
  8
0
 10
379.25587929111708
 20
218.75202774754101
 30
0.0
 11
380.25587852370728
 21
217.75202572098311
 31
0.0
  0
LINE
  5
1507
  8
0
 10
399.25588024106622
 20
218.8293796752983
 30
0.0
 11
398.25587821450819
 21
218.2520267342621
 31
0.0
  0
LINE
  5
1508
  8
0
 10
399.25588024106622
 20
222.2520273899132
 30
0.0
 11
399.25588024106622
 21
218.8293796752983
 31
0.0
  0
LINE
  5
1509
  8
0
 10
405.2558793618976
 20
218.8293796752983
 30
0.0
 11
406.25588138845552
 21
218.2520267342621
 31
0.0
  0
LINE
  5
150A
  8
0
 10
405.2558793618976
 20
222.2520273899132
 30
0.0
 11
405.2558793618976
 21
218.8293796752983
 31
0.0
  0
LINE
  5
150B
  8
0
 10
410.25588204410661
 20
212.75203048935469
 30
0.0
 11
410.25588204410661
 21
195.7520295654827
 31
0.0
  0
LINE
  5
150C
  8
0
 10
409.7558810308276
 20
213.25203150263371
 30
0.0
 11
410.25588204410661
 21
212.75203048935469
 31
0.0
  0
LINE
  5
150D
  8
0
 10
406.25588138845552
 20
190.25202959528499
 30
0.0
 11
406.25588138845552
 21
183.25202658525049
 31
0.0
  0
LINE
  5
150E
  8
0
 10
398.25587821450819
 20
190.25202959528499
 30
0.0
 11
398.25587821450819
 21
183.25202658525041
 31
0.0
  0
POLYLINE
  5
150F
  8
0
 10
355.00587885525829
 20
218.7520270322853
 30
0.0
 66
     1
 70
     8
  0
VERTEX
  8
0
  5
A070
 10
355.006
 20
218.752
 30
0.000000
  70
    32
  0
VERTEX
  8
0
  5
A071
 10
354.987
 20
218.752
 30
0.000000
  70
    32
  0
VERTEX
  8
0
  5
A072
 10
354.969
 20
218.753
 30
0.000000
  70
    32
  0
VERTEX
  8
0
  5
A073
 10
354.951
 20
218.754
 30
0.000000
  70
    32
  0
VERTEX
  8
0
  5
A074
 10
354.932
 20
218.755
 30
0.000000
  70
    32
  0
VERTEX
  8
0
  5
A075
 10
354.914
 20
218.757
 30
0.000000
  70
    32
  0
VERTEX
  8
0
  5
A076
 10
354.896
 20
218.759
 30
0.000000
  70
    32
  0
VERTEX
  8
0
  5
A077
 10
354.878
 20
218.761
 30
0.000000
  70
    32
  0
VERTEX
  8
0
  5
A078
 10
354.860
 20
218.764
 30
0.000000
  70
    32
  0
VERTEX
  8
0
  5
A079
 10
354.842
 20
218.767
 30
0.000000
  70
    32
  0
VERTEX
  8
0
  5
A07A
 10
354.824
 20
218.770
 30
0.000000
  70
    32
  0
VERTEX
  8
0
  5
A07B
 10
354.806
 20
218.774
 30
0.000000
  70
    32
  0
VERTEX
  8
0
  5
A07C
 10
354.788
 20
218.778
 30
0.000000
  70
    32
  0
VERTEX
  8
0
  5
A07D
 10
354.771
 20
218.782
 30
0.000000
  70
    32
  0
VERTEX
  8
0
  5
A07E
 10
354.753
 20
218.787
 30
0.000000
  70
    32
  0
VERTEX
  8
0
  5
A07F
 10
354.736
 20
218.792
 30
0.000000
  70
    32
  0
VERTEX
  8
0
  5
A080
 10
354.719
 20
218.798
 30
0.000000
  70
    32
  0
VERTEX
  8
0
  5
A081
 10
354.702
 20
218.804
 30
0.000000
  70
    32
  0
VERTEX
  8
0
  5
A082
 10
354.685
 20
218.810
 30
0.000000
  70
    32
  0
VERTEX
  8
0
  5
A083
 10
354.669
 20
218.816
 30
0.000000
  70
    32
  0
VERTEX
  8
0
  5
A084
 10
354.652
 20
218.823
 30
0.000000
  70
    32
  0
VERTEX
  8
0
  5
A085
 10
354.636
 20
218.830
 30
0.000000
  70
    32
  0
VERTEX
  8
0
  5
A086
 10
354.620
 20
218.837
 30
0.000000
  70
    32
  0
VERTEX
  8
0
  5
A087
 10
354.605
 20
218.845
 30
0.000000
  70
    32
  0
VERTEX
  8
0
  5
A088
 10
354.589
 20
218.853
 30
0.000000
  70
    32
  0
VERTEX
  8
0
  5
A089
 10
354.574
 20
218.861
 30
0.000000
  70
    32
  0
VERTEX
  8
0
  5
A08A
 10
354.559
 20
218.870
 30
0.000000
  70
    32
  0
VERTEX
  8
0
  5
A08B
 10
354.544
 20
218.879
 30
0.000000
  70
    32
  0
VERTEX
  8
0
  5
A08C
 10
354.530
 20
218.888
 30
0.000000
  70
    32
  0
VERTEX
  8
0
  5
A08D
 10
354.516
 20
218.898
 30
0.000000
  70
    32
  0
VERTEX
  8
0
  5
A08E
 10
354.502
 20
218.907
 30
0.000000
  70
    32
  0
VERTEX
  8
0
  5
A08F
 10
354.489
 20
218.917
 30
0.000000
  70
    32
  0
VERTEX
  8
0
  5
A090
 10
354.476
 20
218.928
 30
0.000000
  70
    32
  0
VERTEX
  8
0
  5
A091
 10
354.463
 20
218.938
 30
0.000000
  70
    32
  0
VERTEX
  8
0
  5
A092
 10
354.450
 20
218.949
 30
0.000000
  70
    32
  0
VERTEX
  8
0
  5
A093
 10
354.438
 20
218.960
 30
0.000000
  70
    32
  0
VERTEX
  8
0
  5
A094
 10
354.426
 20
218.971
 30
0.000000
  70
    32
  0
VERTEX
  8
0
  5
A095
 10
354.415
 20
218.983
 30
0.000000
  70
    32
  0
VERTEX
  8
0
  5
A096
 10
354.403
 20
218.995
 30
0.000000
  70
    32
  0
VERTEX
  8
0
  5
A097
 10
354.393
 20
219.007
 30
0.000000
  70
    32
  0
VERTEX
  8
0
  5
A098
 10
354.382
 20
219.019
 30
0.000000
  70
    32
  0
VERTEX
  8
0
  5
A099
 10
354.372
 20
219.031
 30
0.000000
  70
    32
  0
VERTEX
  8
0
  5
A09A
 10
354.363
 20
219.044
 30
0.000000
  70
    32
  0
VERTEX
  8
0
  5
A09B
 10
354.353
 20
219.056
 30
0.000000
  70
    32
  0
VERTEX
  8
0
  5
A09C
 10
354.344
 20
219.069
 30
0.000000
  70
    32
  0
VERTEX
  8
0
  5
A09D
 10
354.336
 20
219.082
 30
0.000000
  70
    32
  0
VERTEX
  8
0
  5
A09E
 10
354.328
 20
219.095
 30
0.000000
  70
    32
  0
VERTEX
  8
0
  5
A09F
 10
354.320
 20
219.109
 30
0.000000
  70
    32
  0
VERTEX
  8
0
  5
A0A0
 10
354.313
 20
219.122
 30
0.000000
  70
    32
  0
VERTEX
  8
0
  5
A0A1
 10
354.306
 20
219.136
 30
0.000000
  70
    32
  0
VERTEX
  8
0
  5
A0A2
 10
354.300
 20
219.150
 30
0.000000
  70
    32
  0
VERTEX
  8
0
  5
A0A3
 10
354.294
 20
219.164
 30
0.000000
  70
    32
  0
VERTEX
  8
0
  5
A0A4
 10
354.288
 20
219.178
 30
0.000000
  70
    32
  0
VERTEX
  8
0
  5
A0A5
 10
354.283
 20
219.192
 30
0.000000
  70
    32
  0
VERTEX
  8
0
  5
A0A6
 10
354.278
 20
219.206
 30
0.000000
  70
    32
  0
VERTEX
  8
0
  5
A0A7
 10
354.274
 20
219.221
 30
0.000000
  70
    32
  0
VERTEX
  8
0
  5
A0A8
 10
354.270
 20
219.235
 30
0.000000
  70
    32
  0
VERTEX
  8
0
  5
A0A9
 10
354.267
 20
219.249
 30
0.000000
  70
    32
  0
VERTEX
  8
0
  5
A0AA
 10
354.264
 20
219.264
 30
0.000000
  70
    32
  0
VERTEX
  8
0
  5
A0AB
 10
354.262
 20
219.279
 30
0.000000
  70
    32
  0
VERTEX
  8
0
  5
A0AC
 10
354.259
 20
219.293
 30
0.000000
  70
    32
  0
VERTEX
  8
0
  5
A0AD
 10
354.258
 20
219.308
 30
0.000000
  70
    32
  0
VERTEX
  8
0
  5
A0AE
 10
354.257
 20
219.323
 30
0.000000
  70
    32
  0
VERTEX
  8
0
  5
A0AF
 10
354.256
 20
219.337
 30
0.000000
  70
    32
  0
VERTEX
  8
0
  5
A0B0
 10
354.256
 20
219.352
 30
0.000000
  70
    32
  0
VERTEX
  8
0
  5
A0B1
 10
354.256
 20
219.367
 30
0.000000
  70
    32
  0
VERTEX
  8
0
  5
A0B2
 10
354.257
 20
219.381
 30
0.000000
  70
    32
  0
VERTEX
  8
0
  5
A0B3
 10
354.258
 20
219.396
 30
0.000000
  70
    32
  0
VERTEX
  8
0
  5
A0B4
 10
354.259
 20
219.411
 30
0.000000
  70
    32
  0
VERTEX
  8
0
  5
A0B5
 10
354.262
 20
219.425
 30
0.000000
  70
    32
  0
VERTEX
  8
0
  5
A0B6
 10
354.264
 20
219.440
 30
0.000000
  70
    32
  0
VERTEX
  8
0
  5
A0B7
 10
354.267
 20
219.455
 30
0.000000
  70
    32
  0
VERTEX
  8
0
  5
A0B8
 10
354.270
 20
219.469
 30
0.000000
  70
    32
  0
VERTEX
  8
0
  5
A0B9
 10
354.274
 20
219.483
 30
0.000000
  70
    32
  0
VERTEX
  8
0
  5
A0BA
 10
354.278
 20
219.498
 30
0.000000
  70
    32
  0
VERTEX
  8
0
  5
A0BB
 10
354.283
 20
219.512
 30
0.000000
  70
    32
  0
VERTEX
  8
0
  5
A0BC
 10
354.288
 20
219.526
 30
0.000000
  70
    32
  0
VERTEX
  8
0
  5
A0BD
 10
354.294
 20
219.540
 30
0.000000
  70
    32
  0
VERTEX
  8
0
  5
A0BE
 10
354.300
 20
219.554
 30
0.000000
  70
    32
  0
VERTEX
  8
0
  5
A0BF
 10
354.306
 20
219.568
 30
0.000000
  70
    32
  0
VERTEX
  8
0
  5
A0C0
 10
354.313
 20
219.582
 30
0.000000
  70
    32
  0
VERTEX
  8
0
  5
A0C1
 10
354.320
 20
219.595
 30
0.000000
  70
    32
  0
VERTEX
  8
0
  5
A0C2
 10
354.328
 20
219.609
 30
0.000000
  70
    32
  0
VERTEX
  8
0
  5
A0C3
 10
354.336
 20
219.622
 30
0.000000
  70
    32
  0
VERTEX
  8
0
  5
A0C4
 10
354.344
 20
219.635
 30
0.000000
  70
    32
  0
VERTEX
  8
0
  5
A0C5
 10
354.353
 20
219.648
 30
0.000000
  70
    32
  0
VERTEX
  8
0
  5
A0C6
 10
354.363
 20
219.660
 30
0.000000
  70
    32
  0
VERTEX
  8
0
  5
A0C7
 10
354.372
 20
219.673
 30
0.000000
  70
    32
  0
VERTEX
  8
0
  5
A0C8
 10
354.382
 20
219.685
 30
0.000000
  70
    32
  0
VERTEX
  8
0
  5
A0C9
 10
354.393
 20
219.698
 30
0.000000
  70
    32
  0
VERTEX
  8
0
  5
A0CA
 10
354.403
 20
219.709
 30
0.000000
  70
    32
  0
VERTEX
  8
0
  5
A0CB
 10
354.415
 20
219.721
 30
0.000000
  70
    32
  0
VERTEX
  8
0
  5
A0CC
 10
354.426
 20
219.733
 30
0.000000
  70
    32
  0
VERTEX
  8
0
  5
A0CD
 10
354.438
 20
219.744
 30
0.000000
  70
    32
  0
VERTEX
  8
0
  5
A0CE
 10
354.450
 20
219.755
 30
0.000000
  70
    32
  0
VERTEX
  8
0
  5
A0CF
 10
354.463
 20
219.766
 30
0.000000
  70
    32
  0
VERTEX
  8
0
  5
A0D0
 10
354.476
 20
219.776
 30
0.000000
  70
    32
  0
VERTEX
  8
0
  5
A0D1
 10
354.489
 20
219.787
 30
0.000000
  70
    32
  0
VERTEX
  8
0
  5
A0D2
 10
354.502
 20
219.797
 30
0.000000
  70
    32
  0
VERTEX
  8
0
  5
A0D3
 10
354.516
 20
219.806
 30
0.000000
  70
    32
  0
VERTEX
  8
0
  5
A0D4
 10
354.530
 20
219.816
 30
0.000000
  70
    32
  0
VERTEX
  8
0
  5
A0D5
 10
354.544
 20
219.825
 30
0.000000
  70
    32
  0
VERTEX
  8
0
  5
A0D6
 10
354.559
 20
219.834
 30
0.000000
  70
    32
  0
VERTEX
  8
0
  5
A0D7
 10
354.574
 20
219.843
 30
0.000000
  70
    32
  0
VERTEX
  8
0
  5
A0D8
 10
354.589
 20
219.851
 30
0.000000
  70
    32
  0
VERTEX
  8
0
  5
A0D9
 10
354.605
 20
219.859
 30
0.000000
  70
    32
  0
VERTEX
  8
0
  5
A0DA
 10
354.620
 20
219.867
 30
0.000000
  70
    32
  0
VERTEX
  8
0
  5
A0DB
 10
354.636
 20
219.874
 30
0.000000
  70
    32
  0
VERTEX
  8
0
  5
A0DC
 10
354.652
 20
219.881
 30
0.000000
  70
    32
  0
VERTEX
  8
0
  5
A0DD
 10
354.669
 20
219.888
 30
0.000000
  70
    32
  0
VERTEX
  8
0
  5
A0DE
 10
354.685
 20
219.894
 30
0.000000
  70
    32
  0
VERTEX
  8
0
  5
A0DF
 10
354.702
 20
219.901
 30
0.000000
  70
    32
  0
VERTEX
  8
0
  5
A0E0
 10
354.719
 20
219.906
 30
0.000000
  70
    32
  0
VERTEX
  8
0
  5
A0E1
 10
354.736
 20
219.912
 30
0.000000
  70
    32
  0
VERTEX
  8
0
  5
A0E2
 10
354.753
 20
219.917
 30
0.000000
  70
    32
  0
VERTEX
  8
0
  5
A0E3
 10
354.771
 20
219.922
 30
0.000000
  70
    32
  0
VERTEX
  8
0
  5
A0E4
 10
354.788
 20
219.926
 30
0.000000
  70
    32
  0
VERTEX
  8
0
  5
A0E5
 10
354.806
 20
219.930
 30
0.000000
  70
    32
  0
VERTEX
  8
0
  5
A0E6
 10
354.824
 20
219.934
 30
0.000000
  70
    32
  0
VERTEX
  8
0
  5
A0E7
 10
354.842
 20
219.937
 30
0.000000
  70
    32
  0
VERTEX
  8
0
  5
A0E8
 10
354.860
 20
219.940
 30
0.000000
  70
    32
  0
VERTEX
  8
0
  5
A0E9
 10
354.878
 20
219.943
 30
0.000000
  70
    32
  0
VERTEX
  8
0
  5
A0EA
 10
354.896
 20
219.946
 30
0.000000
  70
    32
  0
VERTEX
  8
0
  5
A0EB
 10
354.914
 20
219.948
 30
0.000000
  70
    32
  0
VERTEX
  8
0
  5
A0EC
 10
354.932
 20
219.949
 30
0.000000
  70
    32
  0
VERTEX
  8
0
  5
A0ED
 10
354.951
 20
219.950
 30
0.000000
  70
    32
  0
VERTEX
  8
0
  5
A0EE
 10
354.969
 20
219.951
 30
0.000000
  70
    32
  0
VERTEX
  8
0
  5
A0EF
 10
354.987
 20
219.952
 30
0.000000
  70
    32
  0
VERTEX
  8
0
  5
A0F0
 10
355.006
 20
219.952
 30
0.000000
  70
    32
  0
SEQEND
  8
0
  5
A0F1
  0
POLYLINE
  5
1510
  8
0
 10
375.50587885525829
 20
219.95202703228529
 30
0.0
 66
     1
 70
     8
  0
VERTEX
  8
0
  5
A0F2
 10
375.506
 20
219.952
 30
0.000000
  70
    32
  0
VERTEX
  8
0
  5
A0F3
 10
375.524
 20
219.952
 30
0.000000
  70
    32
  0
VERTEX
  8
0
  5
A0F4
 10
375.543
 20
219.951
 30
0.000000
  70
    32
  0
VERTEX
  8
0
  5
A0F5
 10
375.561
 20
219.950
 30
0.000000
  70
    32
  0
VERTEX
  8
0
  5
A0F6
 10
375.579
 20
219.949
 30
0.000000
  70
    32
  0
VERTEX
  8
0
  5
A0F7
 10
375.598
 20
219.948
 30
0.000000
  70
    32
  0
VERTEX
  8
0
  5
A0F8
 10
375.616
 20
219.946
 30
0.000000
  70
    32
  0
VERTEX
  8
0
  5
A0F9
 10
375.634
 20
219.943
 30
0.000000
  70
    32
  0
VERTEX
  8
0
  5
A0FA
 10
375.652
 20
219.940
 30
0.000000
  70
    32
  0
VERTEX
  8
0
  5
A0FB
 10
375.670
 20
219.937
 30
0.000000
  70
    32
  0
VERTEX
  8
0
  5
A0FC
 10
375.688
 20
219.934
 30
0.000000
  70
    32
  0
VERTEX
  8
0
  5
A0FD
 10
375.706
 20
219.930
 30
0.000000
  70
    32
  0
VERTEX
  8
0
  5
A0FE
 10
375.724
 20
219.926
 30
0.000000
  70
    32
  0
VERTEX
  8
0
  5
A0FF
 10
375.741
 20
219.922
 30
0.000000
  70
    32
  0
VERTEX
  8
0
  5
A100
 10
375.759
 20
219.917
 30
0.000000
  70
    32
  0
VERTEX
  8
0
  5
A101
 10
375.776
 20
219.912
 30
0.000000
  70
    32
  0
VERTEX
  8
0
  5
A102
 10
375.793
 20
219.906
 30
0.000000
  70
    32
  0
VERTEX
  8
0
  5
A103
 10
375.810
 20
219.901
 30
0.000000
  70
    32
  0
VERTEX
  8
0
  5
A104
 10
375.827
 20
219.894
 30
0.000000
  70
    32
  0
VERTEX
  8
0
  5
A105
 10
375.843
 20
219.888
 30
0.000000
  70
    32
  0
VERTEX
  8
0
  5
A106
 10
375.859
 20
219.881
 30
0.000000
  70
    32
  0
VERTEX
  8
0
  5
A107
 10
375.876
 20
219.874
 30
0.000000
  70
    32
  0
VERTEX
  8
0
  5
A108
 10
375.891
 20
219.867
 30
0.000000
  70
    32
  0
VERTEX
  8
0
  5
A109
 10
375.907
 20
219.859
 30
0.000000
  70
    32
  0
VERTEX
  8
0
  5
A10A
 10
375.923
 20
219.851
 30
0.000000
  70
    32
  0
VERTEX
  8
0
  5
A10B
 10
375.938
 20
219.843
 30
0.000000
  70
    32
  0
VERTEX
  8
0
  5
A10C
 10
375.953
 20
219.834
 30
0.000000
  70
    32
  0
VERTEX
  8
0
  5
A10D
 10
375.967
 20
219.825
 30
0.000000
  70
    32
  0
VERTEX
  8
0
  5
A10E
 10
375.982
 20
219.816
 30
0.000000
  70
    32
  0
VERTEX
  8
0
  5
A10F
 10
375.996
 20
219.806
 30
0.000000
  70
    32
  0
VERTEX
  8
0
  5
A110
 10
376.010
 20
219.797
 30
0.000000
  70
    32
  0
VERTEX
  8
0
  5
A111
 10
376.023
 20
219.787
 30
0.000000
  70
    32
  0
VERTEX
  8
0
  5
A112
 10
376.036
 20
219.776
 30
0.000000
  70
    32
  0
VERTEX
  8
0
  5
A113
 10
376.049
 20
219.766
 30
0.000000
  70
    32
  0
VERTEX
  8
0
  5
A114
 10
376.062
 20
219.755
 30
0.000000
  70
    32
  0
VERTEX
  8
0
  5
A115
 10
376.074
 20
219.744
 30
0.000000
  70
    32
  0
VERTEX
  8
0
  5
A116
 10
376.086
 20
219.733
 30
0.000000
  70
    32
  0
VERTEX
  8
0
  5
A117
 10
376.097
 20
219.721
 30
0.000000
  70
    32
  0
VERTEX
  8
0
  5
A118
 10
376.108
 20
219.709
 30
0.000000
  70
    32
  0
VERTEX
  8
0
  5
A119
 10
376.119
 20
219.698
 30
0.000000
  70
    32
  0
VERTEX
  8
0
  5
A11A
 10
376.129
 20
219.685
 30
0.000000
  70
    32
  0
VERTEX
  8
0
  5
A11B
 10
376.140
 20
219.673
 30
0.000000
  70
    32
  0
VERTEX
  8
0
  5
A11C
 10
376.149
 20
219.660
 30
0.000000
  70
    32
  0
VERTEX
  8
0
  5
A11D
 10
376.158
 20
219.648
 30
0.000000
  70
    32
  0
VERTEX
  8
0
  5
A11E
 10
376.167
 20
219.635
 30
0.000000
  70
    32
  0
VERTEX
  8
0
  5
A11F
 10
376.176
 20
219.622
 30
0.000000
  70
    32
  0
VERTEX
  8
0
  5
A120
 10
376.184
 20
219.609
 30
0.000000
  70
    32
  0
VERTEX
  8
0
  5
A121
 10
376.192
 20
219.595
 30
0.000000
  70
    32
  0
VERTEX
  8
0
  5
A122
 10
376.199
 20
219.582
 30
0.000000
  70
    32
  0
VERTEX
  8
0
  5
A123
 10
376.206
 20
219.568
 30
0.000000
  70
    32
  0
VERTEX
  8
0
  5
A124
 10
376.212
 20
219.554
 30
0.000000
  70
    32
  0
VERTEX
  8
0
  5
A125
 10
376.218
 20
219.540
 30
0.000000
  70
    32
  0
VERTEX
  8
0
  5
A126
 10
376.224
 20
219.526
 30
0.000000
  70
    32
  0
VERTEX
  8
0
  5
A127
 10
376.229
 20
219.512
 30
0.000000
  70
    32
  0
VERTEX
  8
0
  5
A128
 10
376.233
 20
219.498
 30
0.000000
  70
    32
  0
VERTEX
  8
0
  5
A129
 10
376.238
 20
219.483
 30
0.000000
  70
    32
  0
VERTEX
  8
0
  5
A12A
 10
376.241
 20
219.469
 30
0.000000
  70
    32
  0
VERTEX
  8
0
  5
A12B
 10
376.245
 20
219.455
 30
0.000000
  70
    32
  0
VERTEX
  8
0
  5
A12C
 10
376.248
 20
219.440
 30
0.000000
  70
    32
  0
VERTEX
  8
0
  5
A12D
 10
376.250
 20
219.425
 30
0.000000
  70
    32
  0
VERTEX
  8
0
  5
A12E
 10
376.252
 20
219.411
 30
0.000000
  70
    32
  0
VERTEX
  8
0
  5
A12F
 10
376.254
 20
219.396
 30
0.000000
  70
    32
  0
VERTEX
  8
0
  5
A130
 10
376.255
 20
219.381
 30
0.000000
  70
    32
  0
VERTEX
  8
0
  5
A131
 10
376.256
 20
219.367
 30
0.000000
  70
    32
  0
VERTEX
  8
0
  5
A132
 10
376.256
 20
219.352
 30
0.000000
  70
    32
  0
VERTEX
  8
0
  5
A133
 10
376.256
 20
219.337
 30
0.000000
  70
    32
  0
VERTEX
  8
0
  5
A134
 10
376.255
 20
219.323
 30
0.000000
  70
    32
  0
VERTEX
  8
0
  5
A135
 10
376.254
 20
219.308
 30
0.000000
  70
    32
  0
VERTEX
  8
0
  5
A136
 10
376.252
 20
219.293
 30
0.000000
  70
    32
  0
VERTEX
  8
0
  5
A137
 10
376.250
 20
219.279
 30
0.000000
  70
    32
  0
VERTEX
  8
0
  5
A138
 10
376.248
 20
219.264
 30
0.000000
  70
    32
  0
VERTEX
  8
0
  5
A139
 10
376.245
 20
219.249
 30
0.000000
  70
    32
  0
VERTEX
  8
0
  5
A13A
 10
376.241
 20
219.235
 30
0.000000
  70
    32
  0
VERTEX
  8
0
  5
A13B
 10
376.238
 20
219.221
 30
0.000000
  70
    32
  0
VERTEX
  8
0
  5
A13C
 10
376.233
 20
219.206
 30
0.000000
  70
    32
  0
VERTEX
  8
0
  5
A13D
 10
376.229
 20
219.192
 30
0.000000
  70
    32
  0
VERTEX
  8
0
  5
A13E
 10
376.224
 20
219.178
 30
0.000000
  70
    32
  0
VERTEX
  8
0
  5
A13F
 10
376.218
 20
219.164
 30
0.000000
  70
    32
  0
VERTEX
  8
0
  5
A140
 10
376.212
 20
219.150
 30
0.000000
  70
    32
  0
VERTEX
  8
0
  5
A141
 10
376.206
 20
219.136
 30
0.000000
  70
    32
  0
VERTEX
  8
0
  5
A142
 10
376.199
 20
219.122
 30
0.000000
  70
    32
  0
VERTEX
  8
0
  5
A143
 10
376.192
 20
219.109
 30
0.000000
  70
    32
  0
VERTEX
  8
0
  5
A144
 10
376.184
 20
219.095
 30
0.000000
  70
    32
  0
VERTEX
  8
0
  5
A145
 10
376.176
 20
219.082
 30
0.000000
  70
    32
  0
VERTEX
  8
0
  5
A146
 10
376.167
 20
219.069
 30
0.000000
  70
    32
  0
VERTEX
  8
0
  5
A147
 10
376.158
 20
219.056
 30
0.000000
  70
    32
  0
VERTEX
  8
0
  5
A148
 10
376.149
 20
219.044
 30
0.000000
  70
    32
  0
VERTEX
  8
0
  5
A149
 10
376.140
 20
219.031
 30
0.000000
  70
    32
  0
VERTEX
  8
0
  5
A14A
 10
376.129
 20
219.019
 30
0.000000
  70
    32
  0
VERTEX
  8
0
  5
A14B
 10
376.119
 20
219.007
 30
0.000000
  70
    32
  0
VERTEX
  8
0
  5
A14C
 10
376.108
 20
218.995
 30
0.000000
  70
    32
  0
VERTEX
  8
0
  5
A14D
 10
376.097
 20
218.983
 30
0.000000
  70
    32
  0
VERTEX
  8
0
  5
A14E
 10
376.086
 20
218.971
 30
0.000000
  70
    32
  0
VERTEX
  8
0
  5
A14F
 10
376.074
 20
218.960
 30
0.000000
  70
    32
  0
VERTEX
  8
0
  5
A150
 10
376.062
 20
218.949
 30
0.000000
  70
    32
  0
VERTEX
  8
0
  5
A151
 10
376.049
 20
218.938
 30
0.000000
  70
    32
  0
VERTEX
  8
0
  5
A152
 10
376.036
 20
218.928
 30
0.000000
  70
    32
  0
VERTEX
  8
0
  5
A153
 10
376.023
 20
218.917
 30
0.000000
  70
    32
  0
VERTEX
  8
0
  5
A154
 10
376.010
 20
218.907
 30
0.000000
  70
    32
  0
VERTEX
  8
0
  5
A155
 10
375.996
 20
218.898
 30
0.000000
  70
    32
  0
VERTEX
  8
0
  5
A156
 10
375.982
 20
218.888
 30
0.000000
  70
    32
  0
VERTEX
  8
0
  5
A157
 10
375.967
 20
218.879
 30
0.000000
  70
    32
  0
VERTEX
  8
0
  5
A158
 10
375.953
 20
218.870
 30
0.000000
  70
    32
  0
VERTEX
  8
0
  5
A159
 10
375.938
 20
218.861
 30
0.000000
  70
    32
  0
VERTEX
  8
0
  5
A15A
 10
375.923
 20
218.853
 30
0.000000
  70
    32
  0
VERTEX
  8
0
  5
A15B
 10
375.907
 20
218.845
 30
0.000000
  70
    32
  0
VERTEX
  8
0
  5
A15C
 10
375.891
 20
218.837
 30
0.000000
  70
    32
  0
VERTEX
  8
0
  5
A15D
 10
375.876
 20
218.830
 30
0.000000
  70
    32
  0
VERTEX
  8
0
  5
A15E
 10
375.859
 20
218.823
 30
0.000000
  70
    32
  0
VERTEX
  8
0
  5
A15F
 10
375.843
 20
218.816
 30
0.000000
  70
    32
  0
VERTEX
  8
0
  5
A160
 10
375.827
 20
218.810
 30
0.000000
  70
    32
  0
VERTEX
  8
0
  5
A161
 10
375.810
 20
218.804
 30
0.000000
  70
    32
  0
VERTEX
  8
0
  5
A162
 10
375.793
 20
218.798
 30
0.000000
  70
    32
  0
VERTEX
  8
0
  5
A163
 10
375.776
 20
218.792
 30
0.000000
  70
    32
  0
VERTEX
  8
0
  5
A164
 10
375.759
 20
218.787
 30
0.000000
  70
    32
  0
VERTEX
  8
0
  5
A165
 10
375.741
 20
218.782
 30
0.000000
  70
    32
  0
VERTEX
  8
0
  5
A166
 10
375.724
 20
218.778
 30
0.000000
  70
    32
  0
VERTEX
  8
0
  5
A167
 10
375.706
 20
218.774
 30
0.000000
  70
    32
  0
VERTEX
  8
0
  5
A168
 10
375.688
 20
218.770
 30
0.000000
  70
    32
  0
VERTEX
  8
0
  5
A169
 10
375.670
 20
218.767
 30
0.000000
  70
    32
  0
VERTEX
  8
0
  5
A16A
 10
375.652
 20
218.764
 30
0.000000
  70
    32
  0
VERTEX
  8
0
  5
A16B
 10
375.634
 20
218.761
 30
0.000000
  70
    32
  0
VERTEX
  8
0
  5
A16C
 10
375.616
 20
218.759
 30
0.000000
  70
    32
  0
VERTEX
  8
0
  5
A16D
 10
375.598
 20
218.757
 30
0.000000
  70
    32
  0
VERTEX
  8
0
  5
A16E
 10
375.579
 20
218.755
 30
0.000000
  70
    32
  0
VERTEX
  8
0
  5
A16F
 10
375.561
 20
218.754
 30
0.000000
  70
    32
  0
VERTEX
  8
0
  5
A170
 10
375.543
 20
218.753
 30
0.000000
  70
    32
  0
VERTEX
  8
0
  5
A171
 10
375.524
 20
218.752
 30
0.000000
  70
    32
  0
VERTEX
  8
0
  5
A172
 10
375.506
 20
218.752
 30
0.000000
  70
    32
  0
SEQEND
  8
0
  5
A173
  0
LINE
  5
1511
  8
0
 10
354.25587845292682
 20
220.25203078737789
 30
0.0
 11
354.77549498227228
 21
219.95202570906221
 31
0.0
  0
LINE
  5
1512
  8
0
 10
354.25587845292682
 20
221.25202536335519
 30
0.0
 11
354.25587845292682
 21
220.25203078737789
 31
0.0
  0
LINE
  5
1513
  8
0
 10
355.12190413919092
 20
221.75202637663421
 30
0.0
 11
354.25587845292682
 21
221.25202536335519
 31
0.0
  0
LINE
  5
1514
  8
0
 10
376.25587879937882
 20
220.25203078737789
 30
0.0
 11
375.73626320135588
 21
219.95202570906221
 31
0.0
  0
LINE
  5
1515
  8
0
 10
376.25587879937882
 20
221.25202536335519
 30
0.0
 11
376.25587879937882
 21
220.25203078737789
 31
0.0
  0
LINE
  5
1516
  8
0
 10
375.38985311311478
 20
221.75202637663421
 30
0.0
 11
376.25587879937882
 21
221.25202536335519
 31
0.0
  0
ARC
  5
1517
  8
0
 10
365.25587885898352
 20
217.3280607749453
 30
0.0
 40
16.27782192506146
 50
72.453337393262075
 51
107.54666260673829
  0
ARC
  5
1518
  8
0
 10
357.8946630868777
 20
229.26085044853181
 30
0.0
 40
4.3465032213250874
 50
55.630226142331942
 51
124.36977385766851
  0
ARC
  5
1519
  8
0
 10
372.61709463109071
 20
229.26085044853181
 30
0.0
 40
4.3465032213250874
 50
55.630226142331942
 51
124.36977385766851
  0
LINE
  5
151A
  8
0
 10
373.50587881427998
 20
233.75202834358751
 30
0.0
 11
375.0708332217917
 21
232.84850388518001
 31
0.0
  0
LINE
  5
151B
  8
0
 10
357.00587843802572
 20
233.75202834358751
 30
0.0
 11
355.44092496183509
 21
232.8485038851791
 31
0.0
  0
LINE
  5
151C
  8
0
 10
360.25587850508089
 20
237.0020271514945
 30
0.0
 11
360.25587850508077
 21
233.7520283435874
 31
0.0
  0
LINE
  5
151D
  8
0
 10
361.50587917563308
 20
238.25202595940161
 30
0.0
 11
360.25587850508089
 21
237.0020271514945
 31
0.0
  0
LINE
  5
151E
  8
0
 10
370.25587874722481
 20
237.0020271514945
 30
0.0
 11
370.2558787472247
 21
233.7520283435874
 31
0.0
  0
LINE
  5
151F
  8
0
 10
369.00587854233379
 20
238.25202595940161
 30
0.0
 11
370.25587874722481
 21
237.0020271514945
 31
0.0
  0
LINE
  5
1520
  8
1
 10
365.25587885525829
 20
142.25202703228521
 30
0.0
 11
365.25587885525817
 21
243.25202595940169
 31
0.0
  0
LINE
  5
1522
  8
0
 10
350.25587965992088
 20
213.2520315026336
 30
0.0
 11
362.75587891486282
 21
213.2520315026336
 31
0.0
  0
LINE
  5
1523
  8
0
 10
367.75587880310411
 20
213.2520315026336
 30
0.0
 11
409.7558810308276
 21
213.25203150263371
 31
0.0
  0
LINE
  5
1524
  8
0
 10
367.75587880310411
 20
211.25202744951781
 30
0.0
 11
367.75587880310411
 21
213.2520315026336
 31
0.0
  0
LINE
  5
1525
  8
0
 10
362.75587891486282
 20
211.25202744951781
 30
0.0
 11
367.75587880310411
 21
211.25202744951781
 31
0.0
  0
LINE
  5
1526
  8
0
 10
362.75587891486282
 20
211.25202744951781
 30
0.0
 11
362.75587891486282
 21
213.2520315026336
 31
0.0
  0
LINE
  5
1528
  8
0
 10
379.25587929111708
 20
218.75202774754101
 30
0.0
 11
351.2558779611885
 21
218.75202774754101
 31
0.0
  0
LINE
  5
1529
  8
0
 10
355.44092496183509
 20
221.75202637663421
 30
0.0
 11
355.44092496183509
 21
232.8485038851791
 31
0.0
  0
LINE
  5
152A
  8
0
 10
357.00587843802572
 20
233.75202834358751
 30
0.0
 11
373.50587881427998
 21
233.75202834358751
 31
0.0
  0
LINE
  5
152B
  8
0
 10
360.34840167757858
 20
221.75202637663421
 30
0.0
 11
360.34840167757858
 21
232.8485038851791
 31
0.0
  0
LINE
  5
152C
  8
0
 10
370.16335604038829
 20
221.75202637663421
 30
0.0
 11
370.16335604038829
 21
232.8485038851791
 31
0.0
  0
LINE
  5
152D
  8
0
 10
375.07083322179312
 20
221.75202637663421
 30
0.0
 11
375.07083322179312
 21
232.8485038851791
 31
0.0
  0
LINE
  5
152E
  8
0
 10
354.77549498227228
 20
219.95202570906221
 30
0.0
 11
375.73626320135588
 21
219.95202570906221
 31
0.0
  0
LINE
  5
1530
  8
0
 10
375.38985311311478
 20
221.75202637663421
 30
0.0
 11
355.12190413919092
 21
221.75202637663421
 31
0.0
  0
LINE
  5
1531
  8
0
 10
379.75587844175112
 20
162.25202677337759
 30
0.0
 11
350.7558788105548
 21
162.25202677337759
 31
0.0
  0
LINE
  5
1535
  8
0
 10
380.25587852370751
 20
159.25202698013121
 30
0.0
 11
350.25587965992099
 21
159.25202698013121
 31
0.0
  0
LINE
  5
1536
  8
0
 10
380.25587852370751
 20
159.25202698013121
 30
0.0
 11
380.25587852370751
 21
147.2520270322853
 31
0.0
  0
LINE
  5
1537
  8
0
 10
350.25587965992099
 20
159.25202698013121
 30
0.0
 11
350.25587965992099
 21
147.25202703228521
 31
0.0
  0
LINE
  5
1541
  8
0
 10
386.25587811020011
 20
195.2520285522038
 30
0.0
 11
409.7558810308276
 21
195.2520285522038
 31
0.0
  0
LINE
  5
1544
  8
0
 10
350.75587881055469
 20
163.2520262574248
 30
0.0
 11
379.75587844175101
 21
163.25202625742489
 31
0.0
  0
LINE
  5
1548
  8
0
 10
362.65587908473611
 20
213.2520315026336
 30
0.0
 11
362.65587908473611
 21
210.75202643623879
 31
0.0
  0
LINE
  5
1549
  8
0
 10
367.85587863323087
 20
210.75202643623879
 30
0.0
 11
362.65587908473611
 21
210.75202643623879
 31
0.0
  0
LINE
  5
154A
  8
0
 10
367.85587863323087
 20
210.75202643623879
 30
0.0
 11
367.85587863323087
 21
213.2520315026336
 31
0.0
  0
LINE
  5
154B
  8
0
 10
399.25588024106622
 20
222.2520273899132
 30
0.0
 11
405.2558793618976
 21
222.2520273899132
 31
0.0
  0
LINE
  5
154C
  8
0
 10
399.25588024106622
 20
218.8293796752983
 30
0.0
 11
405.2558793618976
 21
218.8293796752983
 31
0.0
  0
LINE
  5
154D
  8
0
 10
394.75032416430111
 20
177.75202568373021
 30
0.0
 11
409.7614354386626
 21
177.75202568373021
 31
0.0
  0
LINE
  5
154E
  8
0
 10
394.75032416430111
 20
183.25202658525041
 30
0.0
 11
409.7614354386626
 21
183.25202658525049
 31
0.0
  0
LINE
  5
154F
  8
0
 10
394.75032416430111
 20
177.75202568373021
 30
0.0
 11
394.75032416430111
 21
183.25202658525041
 31
0.0
  0
LINE
  5
1552
  8
0
 10
398.50310337987543
 20
177.75202568373021
 30
0.0
 11
398.50310337987543
 21
183.25202658525041
 31
0.0
  0
LINE
  5
1555
  8
0
 10
409.7614354386626
 20
177.75202568373021
 30
0.0
 11
409.7614354386626
 21
183.25202658525049
 31
0.0
  0
LINE
  5
1556
  8
0
 10
406.00865622308839
 20
177.75202568373021
 30
0.0
 11
406.00865622308839
 21
183.25202658525049
 31
0.0
  0
LINE
  5
1557
  8
0
 10
361.50587917563308
 20
238.25202595940161
 30
0.0
 11
369.00587854233379
 21
238.25202595940161
 31
0.0
  0
LINE
  5
1559
  8
0
 10
360.25587850508089
 20
237.0020271514945
 30
0.0
 11
370.25587874722459
 21
237.00202715149459
 31
0.0
  0
LINE
  5
155C
  8
0
 10
406.014218081504
 20
213.2520315026336
 30
0.0
 11
406.00865622308839
 21
213.2520315026336
 31
0.0
  0
LINE
  5
155D
  8
0
 10
409.7614354386626
 20
213.25203150263371
 30
0.0
 11
409.7558810308276
 21
213.25203150263371
 31
0.0
  0
LINE
  5
1561
  8
0
 10
405.99753623154749
 20
213.2520315026336
 30
0.0
 11
406.00865622308839
 21
213.2520315026336
 31
0.0
  0
LINE
  5
1565
  8
0
 10
406.014218081504
 20
195.2520285522038
 30
0.0
 11
406.00865622308839
 21
195.2520285522038
 31
0.0
  0
LINE
  5
1566
  8
0
 10
409.7614354386626
 20
195.2520285522038
 30
0.0
 11
409.7558810308276
 21
195.2520285522038
 31
0.0
  0
LINE
  5
1569
  8
0
 10
405.99753623154749
 20
195.2520285522038
 30
0.0
 11
406.00865622308839
 21
195.2520285522038
 31
0.0
  0
ARC
  5
156F
  8
0
 10
354.2558776597582
 20
163.25202773045871
 30
0.0
 40
1.0000009570814981
 50
270.0000454451752
 51
0.0000079156429926
  0
ARC
  5
1570
  8
0
 10
376.25587959254773
 20
163.25202773045871
 30
0.0
 40
1.00000095708152
 50
179.9999920843571
 51
269.99995455482161
  0
ARC
  5
1571
  8
0
 10
409.75588156558229
 20
195.7520290307281
 30
0.0
 40
0.5000004785246989
 50
269.99993872170052
 51
0.0000612782988013
  0
ARC
  5
1572
  8
0
 10
386.2558818813946
 20
189.25202519451719
 30
0.0
 40
6.000003357687703
 50
90.000036012234261
 51
179.9999773279788
  0
ARC
  5
1573
  8
0
 10
350.75587696489953
 20
163.7520235624138
 30
0.0
 40
0.4999973049923934
 50
179.99957297789331
 51
270.00021149765797
  0
ARC
  5
1574
  8
0
 10
379.75587962886868
 20
163.75202515226681
 30
0.0
 40
0.4999988948432896
 50
269.9998639660335
 51
0.0002448366239159
  0
ARC
  5
1575
  8
0
 10
402.2558798014818
 20
218.25203884143471
 30
0.0
 40
4.9999905750364606
 50
53.130027648964429
 51
126.8699723510357
  0
LINE
  5
1576
  8
0
 10
350.25587965992099
 20
147.25202703228521
 30
0.0
 11
380.25587852370751
 21
147.25202780714559
 31
0.0
  0
LINE
  5
85E6
  8
1
 10
145.0867795806916
 20
228.36991536978641
 30
0.0
 11
145.0867795806916
 21
171.95703207680839
 31
0.0
  0
LINE
  5
85E7
  8
1
 10
402.2558798014818
 20
228.3699153697865
 30
0.0
 11
402.2558798014818
 21
171.9570320768085
 31
0.0
  0
LINE
  5
966A
  8
0
 10
408.75587887015922
 20
218.10769393533539
 30
0.0
 11
408.50587887015803
 21
218.2520315026334
 31
0.0
  0
ARC
  5
966B
  8
0
 10
405.50587887015911
 20
208.72054180008669
 30
0.0
 40
9.3871521352487513
 50
69.743841999583083
 51
110.2561580004169
  0
ARC
  5
966C
  8
0
 10
405.50587887015911
 20
222.78352120518039
 30
0.0
 40
9.3871521352487513
 50
249.74384199958311
 51
290.25615800041692
  0
LINE
  5
966D
  8
0
 10
408.75587887015922
 20
213.39636906993169
 30
0.0
 11
408.50587887015803
 21
213.2520315026336
 31
0.0
  0
LINE
  5
966E
  8
0
 10
408.75587887015922
 20
218.10769393533539
 30
0.0
 11
408.75587887015922
 21
213.39636906993169
 31
0.0
  0
LINE
  5
966F
  8
0
 10
402.25587887015939
 20
217.52713735173421
 30
0.0
 11
402.25587887015939
 21
213.9769256535325
 31
0.0
  0
LINE
  5
9670
  8
0
 10
395.75587887015968
 20
218.10769393533539
 30
0.0
 11
395.75587887015968
 21
213.39636906993169
 31
0.0
  0
LINE
  5
9671
  8
0
 10
395.75587887015968
 20
213.39636906993169
 30
0.0
 11
396.00587887016081
 21
213.2520315026336
 31
0.0
  0
ARC
  5
9672
  8
0
 10
399.00587887015968
 20
222.78352120518039
 30
0.0
 40
9.3871521352487513
 50
249.74384199958311
 51
290.25615800041692
  0
ARC
  5
9673
  8
0
 10
399.00587887015968
 20
208.72054180008669
 30
0.0
 40
9.3871521352487513
 50
69.743841999583083
 51
110.2561580004169
  0
LINE
  5
9674
  8
0
 10
395.75587887015968
 20
218.10769393533539
 30
0.0
 11
396.00587887016081
 21
218.2520315026334
 31
0.0
  0
LINE
  5
9675
  8
0
 10
396.00587887016081
 20
218.2520315026334
 30
0.0
 11
408.50587887015803
 21
218.2520315026334
 31
0.0
  0
LINE
  5
9676
  8
0
 10
408.50587887015803
 20
213.2520315026336
 30
0.0
 11
396.00587887016081
 21
213.2520315026336
 31
0.0
  0
LINE
  5
9677
  8
0
 10
408.75587887015922
 20
195.1076909849055
 30
0.0
 11
408.50587887015803
 21
195.2520285522036
 31
0.0
  0
ARC
  5
9678
  8
0
 10
405.50587887015911
 20
185.7205388496568
 30
0.0
 40
9.3871521352487513
 50
69.743841999583083
 51
110.2561580004169
  0
ARC
  5
9679
  8
0
 10
405.50587887015911
 20
199.78351825475059
 30
0.0
 40
9.3871521352487513
 50
249.74384199958311
 51
290.25615800041692
  0
LINE
  5
967A
  8
0
 10
408.75587887015922
 20
190.39636611950189
 30
0.0
 11
408.50587887015803
 21
190.2520285522038
 31
0.0
  0
LINE
  5
967B
  8
0
 10
408.75587887015922
 20
195.1076909849055
 30
0.0
 11
408.75587887015922
 21
190.39636611950189
 31
0.0
  0
LINE
  5
967C
  8
0
 10
402.25587887015939
 20
194.52713440130429
 30
0.0
 11
402.25587887015939
 21
190.97692270310259
 31
0.0
  0
LINE
  5
967D
  8
0
 10
395.75587887015968
 20
195.1076909849055
 30
0.0
 11
395.75587887015968
 21
190.39636611950189
 31
0.0
  0
LINE
  5
967E
  8
0
 10
395.75587887015968
 20
190.39636611950189
 30
0.0
 11
396.00587887016081
 21
190.2520285522038
 31
0.0
  0
ARC
  5
967F
  8
0
 10
399.00587887015968
 20
199.78351825475059
 30
0.0
 40
9.3871521352487513
 50
249.74384199958311
 51
290.25615800041692
  0
ARC
  5
9680
  8
0
 10
399.00587887015968
 20
185.7205388496568
 30
0.0
 40
9.3871521352487513
 50
69.743841999583083
 51
110.2561580004169
  0
LINE
  5
9681
  8
0
 10
395.75587887015968
 20
195.1076909849055
 30
0.0
 11
396.00587887016081
 21
195.2520285522036
 31
0.0
  0
LINE
  5
9682
  8
0
 10
396.00587887016081
 20
195.2520285522036
 30
0.0
 11
408.50587887015803
 21
195.2520285522036
 31
0.0
  0
LINE
  5
9683
  8
0
 10
408.50587887015803
 20
190.2520285522038
 30
0.0
 11
396.00587887016081
 21
190.2520285522038
 31
0.0
  0
LINE
  5
9684
  8
0
 10
151.5867795806914
 20
195.1076909849055
 30
0.0
 11
151.33677958069029
 21
195.2520285522036
 31
0.0
  0
ARC
  5
9685
  8
0
 10
148.3367795806914
 20
185.7205388496568
 30
0.0
 40
9.3871521352487513
 50
69.743841999583083
 51
110.2561580004169
  0
ARC
  5
9686
  8
0
 10
148.3367795806914
 20
199.78351825475059
 30
0.0
 40
9.3871521352487513
 50
249.74384199958311
 51
290.25615800041692
  0
LINE
  5
9687
  8
0
 10
151.5867795806914
 20
190.39636611950189
 30
0.0
 11
151.33677958069029
 21
190.2520285522038
 31
0.0
  0
LINE
  5
9688
  8
0
 10
151.5867795806914
 20
195.1076909849055
 30
0.0
 11
151.5867795806914
 21
190.39636611950189
 31
0.0
  0
LINE
  5
9689
  8
0
 10
145.0867795806916
 20
194.52713440130429
 30
0.0
 11
145.0867795806916
 21
190.97692270310259
 31
0.0
  0
LINE
  5
968A
  8
0
 10
138.5867795806918
 20
195.1076909849055
 30
0.0
 11
138.5867795806918
 21
190.39636611950189
 31
0.0
  0
LINE
  5
968B
  8
0
 10
138.5867795806918
 20
190.39636611950189
 30
0.0
 11
138.83677958069299
 21
190.2520285522038
 31
0.0
  0
ARC
  5
968C
  8
0
 10
141.8367795806918
 20
199.78351825475059
 30
0.0
 40
9.3871521352487513
 50
249.74384199958311
 51
290.25615800041692
  0
ARC
  5
968D
  8
0
 10
141.8367795806918
 20
185.7205388496568
 30
0.0
 40
9.3871521352487513
 50
69.743841999583083
 51
110.2561580004169
  0
LINE
  5
968E
  8
0
 10
138.5867795806918
 20
195.1076909849055
 30
0.0
 11
138.83677958069299
 21
195.2520285522036
 31
0.0
  0
LINE
  5
9690
  8
0
 10
151.33677958069029
 20
190.2520285522038
 30
0.0
 11
138.83677958069299
 21
190.2520285522038
 31
0.0
  0
ARC
  5
9691
  8
0
 10
69.498921550408554
 20
191.7851224550366
 30
0.0
 40
3.3225695729499738
 50
55.615752531961313
 51
115.6157525321742
  0
ARC
  5
9692
  8
0
 10
75.128086675008021
 20
182.6882486115941
 30
0.0
 40
12.41944341639239
 50
72.41204622599642
 51
107.5879537740048
  0
LINE
  5
9693
  8
0
 10
67.622533175542202
 20
194.52713544438581
 30
0.0
 11
68.878086675008475
 21
195.2520295952846
 31
0.0
  0
LINE
  5
9694
  8
0
 10
67.622533175542202
 20
190.97692374618359
 30
0.0
 11
68.878086675008475
 21
190.2520295952848
 31
0.0
  0
ARC
  5
9695
  8
0
 10
69.498921550408554
 20
193.71893673553291
 30
0.0
 40
3.3225695729499738
 50
244.38424746782579
 51
304.38424746803872
  0
ARC
  5
9696
  8
0
 10
75.128086675008021
 20
202.81581057897529
 30
0.0
 40
12.41944341639239
 50
252.4120462259952
 51
287.58795377400361
  0
LINE
  5
9697
  8
0
 10
67.622533175542202
 20
194.52713544438581
 30
0.0
 11
67.622533175542202
 21
190.97692374618359
 31
0.0
  0
LINE
  5
9698
  8
0
 10
71.375309925276483
 20
194.52713544438581
 30
0.0
 11
71.375309925274664
 21
190.97692374618521
 31
0.0
  0
LINE
  5
9699
  8
0
 10
78.88086342473774
 20
194.52713544438581
 30
0.0
 11
78.880863424739559
 21
190.97692374618521
 31
0.0
  0
LINE
  5
969A
  8
0
 10
82.633640174472006
 20
194.52713544438581
 30
0.0
 11
82.633640174472006
 21
190.97692374618359
 31
0.0
  0
ARC
  5
969B
  8
0
 10
80.757251799605669
 20
193.71893673553291
 30
0.0
 40
3.3225695729499738
 50
235.61575253196131
 51
295.61575253217421
  0
LINE
  5
969C
  8
0
 10
82.633640174472006
 20
190.97692374618359
 30
0.0
 11
81.378086675005747
 21
190.2520295952848
 31
0.0
  0
LINE
  5
969D
  8
0
 10
82.633640174472006
 20
194.52713544438581
 30
0.0
 11
81.378086675005747
 21
195.2520295952846
 31
0.0
  0
ARC
  5
969E
  8
0
 10
80.757251799605669
 20
191.7851224550366
 30
0.0
 40
3.3225695729499738
 50
64.384247467825773
 51
124.38424746803869
  0
LINE
  5
96A0
  8
0
 10
81.378086675005747
 20
190.2520295952848
 30
0.0
 11
68.878086675008703
 21
190.2520295952848
 31
0.0
  0
ARC
  5
96A1
  8
0
 10
69.394021566555296
 20
214.7851243623852
 30
0.0
 40
3.3225695729499738
 50
55.615752531961313
 51
115.6157525321742
  0
ARC
  5
96A2
  8
0
 10
75.023186691154763
 20
205.68825051894279
 30
0.0
 40
12.41944341639239
 50
72.41204622599642
 51
107.5879537740048
  0
LINE
  5
96A3
  8
0
 10
67.517633191688958
 20
217.5271373517345
 30
0.0
 11
68.773186691155203
 21
218.25203150263329
 31
0.0
  0
LINE
  5
96A4
  8
0
 10
67.517633191688958
 20
213.97692565353231
 30
0.0
 11
68.773186691155203
 21
213.25203150263351
 31
0.0
  0
ARC
  5
96A5
  8
0
 10
69.394021566555296
 20
216.7189386428816
 30
0.0
 40
3.3225695729499738
 50
244.38424746782579
 51
304.38424746803872
  0
ARC
  5
96A6
  8
0
 10
75.023186691154763
 20
225.81581248632401
 30
0.0
 40
12.41944341639239
 50
252.4120462259952
 51
287.58795377400361
  0
LINE
  5
96A7
  8
0
 10
67.517633191688958
 20
217.5271373517345
 30
0.0
 11
67.517633191688958
 21
213.97692565353231
 31
0.0
  0
LINE
  5
96A8
  8
0
 10
71.270409941423225
 20
217.5271373517345
 30
0.0
 11
71.270409941421406
 21
213.9769256535339
 31
0.0
  0
LINE
  5
96A9
  8
0
 10
78.775963440884482
 20
217.5271373517345
 30
0.0
 11
78.775963440886301
 21
213.9769256535339
 31
0.0
  0
LINE
  5
96AA
  8
0
 10
82.528740190618748
 20
217.5271373517345
 30
0.0
 11
82.528740190618748
 21
213.97692565353231
 31
0.0
  0
ARC
  5
96AB
  8
0
 10
80.652351815752411
 20
216.7189386428816
 30
0.0
 40
3.3225695729499738
 50
235.61575253196131
 51
295.61575253217421
  0
LINE
  5
96AC
  8
0
 10
82.528740190618748
 20
213.97692565353231
 30
0.0
 11
81.273186691152489
 21
213.25203150263351
 31
0.0
  0
LINE
  5
96AD
  8
0
 10
82.528740190618748
 20
217.5271373517345
 30
0.0
 11
81.273186691152489
 21
218.25203150263329
 31
0.0
  0
ARC
  5
96AE
  8
0
 10
80.652351815752411
 20
214.7851243623852
 30
0.0
 40
3.3225695729499738
 50
64.384247467825773
 51
124.38424746803869
  0
LINE
  5
96AF
  8
0
 10
68.773186691154081
 20
218.25203150263329
 30
0.0
 11
81.273186691152262
 21
218.25203150263329
 31
0.0
  0
LINE
  5
96B1
  8
0
 10
151.5867795806914
 20
218.10769393533519
 30
0.0
 11
151.33677958069029
 21
218.25203150263329
 31
0.0
  0
ARC
  5
96B2
  8
0
 10
148.3367795806914
 20
208.72054180008649
 30
0.0
 40
9.3871521352487513
 50
69.743841999583083
 51
110.2561580004169
  0
ARC
  5
96B3
  8
0
 10
148.3367795806914
 20
222.78352120518031
 30
0.0
 40
9.3871521352487513
 50
249.74384199958311
 51
290.25615800041692
  0
LINE
  5
96B4
  8
0
 10
151.5867795806914
 20
213.39636906993161
 30
0.0
 11
151.33677958069029
 21
213.25203150263351
 31
0.0
  0
LINE
  5
96B5
  8
0
 10
151.5867795806914
 20
218.10769393533519
 30
0.0
 11
151.5867795806914
 21
213.39636906993161
 31
0.0
  0
LINE
  5
96B6
  8
0
 10
145.0867795806916
 20
217.5271373517341
 30
0.0
 11
145.0867795806916
 21
213.97692565353231
 31
0.0
  0
LINE
  5
96B7
  8
0
 10
138.5867795806918
 20
218.10769393533519
 30
0.0
 11
138.5867795806918
 21
213.39636906993161
 31
0.0
  0
LINE
  5
96B8
  8
0
 10
138.5867795806918
 20
213.39636906993161
 30
0.0
 11
138.83677958069299
 21
213.25203150263351
 31
0.0
  0
ARC
  5
96B9
  8
0
 10
141.8367795806918
 20
222.78352120518031
 30
0.0
 40
9.3871521352487513
 50
249.74384199958311
 51
290.25615800041692
  0
ARC
  5
96BA
  8
0
 10
141.8367795806918
 20
208.72054180008649
 30
0.0
 40
9.3871521352487513
 50
69.743841999583083
 51
110.2561580004169
  0
LINE
  5
96BB
  8
0
 10
138.5867795806918
 20
218.10769393533519
 30
0.0
 11
138.83677958069299
 21
218.25203150263329
 31
0.0
  0
LINE
  5
96BC
  8
0
 10
138.83677958069299
 20
218.25203150263329
 30
0.0
 11
151.33677958069029
 21
218.25203150263329
 31
0.0
  0
LINE
  5
96BF
  8
0
 10
138.83677958069299
 20
213.25203150263351
 30
0.0
 11
151.33677958069029
 21
213.25203150263351
 31
0.0
  0
LINE
  5
96C0
  8
0
 10
138.83677958069299
 20
195.2520285522036
 30
0.0
 11
151.33677958069021
 21
195.2520285522036
 31
0.0
  0
LINE
  5
96C1
  8
0
 10
68.773186691155203
 20
213.25203150263351
 30
0.0
 11
81.273186691152489
 21
213.25203150263351
 31
0.0
  0
LINE
  5
96C2
  8
0
 10
68.878086675008475
 20
195.2520295952846
 30
0.0
 11
81.523186825265185
 21
195.25202777734319
 31
0.0
  0
TEXT
  5
9978
  8
0
 62
     3
 10
0.0
 20
0.0
 30
0.0
 40
10.0
  1
QLSWC-1030
  7
STANDARD1
  0
LINE
  5
9A7E
  8
0
 10
148.83955554041529
 20
314.45842515425272
 30
0.0
 11
141.33400455981541
 21
314.45842515425272
 31
0.0
  0
LINE
  5
9A7F
  8
0
 10
137.58122534421531
 20
320.9584252884527
 30
0.0
 11
141.33400455981541
 21
314.45842515425272
 31
0.0
  0
LINE
  5
9A80
  8
0
 10
148.83955554041529
 20
327.45842542255258
 30
0.0
 11
141.33400455981541
 21
327.45842542255258
 31
0.0
  0
LINE
  5
9A81
  8
0
 10
152.5923347559154
 20
320.9584252884527
 30
0.0
 11
148.83955554041529
 21
327.45842542255258
 31
0.0
  0
LINE
  5
9A82
  8
0
 10
152.5923347559154
 20
320.9584252884527
 30
0.0
 11
148.83955554041529
 21
314.45842515425272
 31
0.0
  0
CIRCLE
  5
9A83
  8
0
 10
145.08678052691531
 20
320.9584252884527
 30
0.0
 40
4.0
  0
LINE
  5
9A84
  8
0
 10
137.58122534421531
 20
320.9584252884527
 30
0.0
 11
141.33400455981541
 21
327.45842542255258
 31
0.0
  0
CIRCLE
  5
9A85
  8
0
 10
182.08678052691539
 20
320.9584252884527
 30
0.0
 40
5.000000000000016
  0
CIRCLE
  5
9A87
  8
0
 10
145.08678052691531
 20
320.9584252884527
 30
0.0
 40
3.0
  0
ARC
  5
9A90
  8
0
 10
165.5640688851154
 20
336.95842528845259
 30
0.0
 40
8.0000000000000213
 50
270.0
 51
315.92079015210112
  0
ARC
  5
9A91
  8
0
 10
145.08678052691531
 20
320.9584252884527
 30
0.0
 40
8.0000000000000266
 50
90.0
 51
270.0
  0
LINE
  5
9A92
  8
0
 10
145.08678005011529
 20
328.95842566835267
 30
0.0
 11
165.5640693840154
 21
328.95842566835267
 31
0.0
  0
ARC
  5
9A93
  8
0
 10
153.08678052691531
 20
320.9584252884527
 30
0.0
 40
4.2000000000000171
 50
270.0
 51
90.0
  0
LINE
  5
9A94
  8
0
 10
153.0867813614154
 20
325.1584251386526
 30
0.0
 11
150.1674613443154
 21
325.1584251386526
 31
0.0
  0
LINE
  5
9A95
  8
0
 10
150.1674613443154
 20
316.7584254381527
 30
0.0
 11
153.0867813614154
 21
316.7584254381527
 31
0.0
  0
ARC
  5
9A96
  8
0
 10
165.5640688851154
 20
304.95842528845259
 30
0.0
 40
8.0000000000000018
 50
44.07920984789893
 51
90.0
  0
LINE
  5
9A97
  8
0
 10
165.5640693840154
 20
312.95842490845268
 30
0.0
 11
145.08678005011529
 21
312.95842490845268
 31
0.0
  0
LINE
  5
9A98
  8
0
 10
197.0867801916153
 20
324.79899818765273
 30
0.0
 11
197.0867801916153
 21
320.9584252884527
 31
0.0
  0
LINE
  5
9A99
  8
0
 10
197.0867801916153
 20
320.9584252884527
 30
0.0
 11
197.0867801916153
 21
317.11785238915257
 31
0.0
  0
ARC
  5
9A9A
  8
0
 10
182.08678052691539
 20
338.45842528845259
 30
0.0
 40
15.00000000000003
 50
0.0
 51
180.0
  0
ARC
  5
9A9F
  8
0
 10
182.08678052691539
 20
320.9584252884527
 30
0.0
 40
28.200000000000038
 50
79.999999999999801
 51
100.0000000000001
  0
ARC
  5
9AA0
  8
0
 10
177.91922426291541
 20
344.59381136065269
 30
0.0
 40
4.2000000000000011
 50
100.0000000000001
 51
280.00000000000023
  0
ARC
  5
9AA1
  8
0
 10
186.2543367909154
 20
344.59381136065269
 30
0.0
 40
4.2000000000000011
 50
259.99999999999977
 51
79.999999999999801
  0
ARC
  5
9AA2
  8
0
 10
182.08678052691539
 20
320.9584252884527
 30
0.0
 40
19.800000000000029
 50
79.999999999999801
 51
100.0000000000001
  0
LINE
  5
9AA3
  8
0
 10
167.08678086221531
 20
329.10467777155259
 30
0.0
 11
167.08678086221531
 21
338.4584253629526
 31
0.0
  0
LINE
  5
9AA4
  8
0
 10
197.0867801916153
 20
338.4584253629526
 30
0.0
 11
197.0867801916153
 21
324.79899818765273
 31
0.0
  0
LINE
  5
9AA9
  8
0
 10
197.0867801916153
 20
317.11785238915257
 30
0.0
 11
197.0867801916153
 21
303.45842521385271
 31
0.0
  0
LINE
  5
9AAA
  8
0
 10
167.08678086221531
 20
303.45842521385271
 30
0.0
 11
167.08678086221531
 21
312.81217280525271
 31
0.0
  0
ARC
  5
9AAB
  8
0
 10
182.08678052691539
 20
303.45842528845259
 30
0.0
 40
15.00000000000003
 50
180.0
 51
0.0
  0
ARC
  5
9AAC
  8
0
 10
186.2543367909154
 20
297.32303921615272
 30
0.0
 40
4.2000000000000011
 50
280.00000000000023
 51
100.0000000000001
  0
ARC
  5
9AAD
  8
0
 10
182.08678052691539
 20
320.9584252884527
 30
0.0
 40
19.800000000000001
 50
259.99999999999977
 51
280.00000000000023
  0
ARC
  5
9AAE
  8
0
 10
177.91922426291541
 20
297.32303921615272
 30
0.0
 40
4.2000000000000011
 50
79.999999999999801
 51
259.99999999999977
  0
ARC
  5
9AAF
  8
0
 10
182.08678052691539
 20
320.9584252884527
 30
0.0
 40
28.199999999999971
 50
259.99999999999977
 51
280.00000000000023
  0
POLYLINE
  5
9AB0
  8
0
 66
     1
 10
0.0
 20
0.0
 30
0.0
 70
   128
  0
VERTEX
  5
9D4C
  8
0
 10
172.27182616411531
 20
320.9584252884527
 30
0.0
  0
VERTEX
  5
9D4D
  8
0
 10
173.55713141081529
 20
323.18463991145268
 30
0.0
  0
VERTEX
  5
9D4E
  8
0
 10
174.90005013461541
 20
325.51064295445269
 30
0.0
  0
VERTEX
  5
9D4F
  8
0
 10
176.0414744255153
 20
327.48764799655271
 30
0.0
  0
VERTEX
  5
9D50
  8
0
 10
177.17930334551531
 20
329.4584257503526
 30
0.0
  0
SEQEND
  5
9D51
  8
0
  0
LINE
  5
9AB1
  8
0
 10
177.17930334551531
 20
329.4584257503526
 30
0.0
 11
186.99425770831539
 21
329.4584257503526
 31
0.0
  0
POLYLINE
  5
9AB2
  8
0
 66
     1
 10
0.0
 20
0.0
 30
0.0
 70
   128
  0
VERTEX
  5
9D52
  8
0
 10
186.99425770831539
 20
329.4584257503526
 30
0.0
  0
VERTEX
  5
9D53
  8
0
 10
188.27956342071531
 20
327.23221042875269
 30
0.0
  0
VERTEX
  5
9D54
  8
0
 10
189.62248167891531
 20
324.90620761865262
 30
0.0
  0
VERTEX
  5
9D55
  8
0
 10
190.76390643541541
 20
322.92920280935272
 30
0.0
  0
VERTEX
  5
9D56
  8
0
 10
191.90173488971541
 20
320.9584252884527
 30
0.0
  0
SEQEND
  5
9D57
  8
0
  0
POLYLINE
  5
9AB3
  8
0
 66
     1
 10
0.0
 20
0.0
 30
0.0
 70
   128
  0
VERTEX
  5
9D58
  8
0
 10
191.90173488971541
 20
320.9584252884527
 30
0.0
  0
VERTEX
  5
9D59
  8
0
 10
190.61642964301529
 20
318.73221066535268
 30
0.0
  0
VERTEX
  5
9D5A
  8
0
 10
189.2735109192154
 20
316.40620762235261
 30
0.0
  0
VERTEX
  5
9D5B
  8
0
 10
188.13208662841529
 20
314.42920258025259
 30
0.0
  0
VERTEX
  5
9D5C
  8
0
 10
186.99425770831539
 20
312.45842482645259
 30
0.0
  0
SEQEND
  5
9D5D
  8
0
  0
LINE
  5
9AB4
  8
0
 10
186.99425770831539
 20
312.45842482645259
 30
0.0
 11
177.17930334551531
 21
312.45842482645259
 31
0.0
  0
POLYLINE
  5
9AB5
  8
0
 66
     1
 10
0.0
 20
0.0
 30
0.0
 70
   128
  0
VERTEX
  5
9D5E
  8
0
 10
177.17930334551531
 20
312.45842482645259
 30
0.0
  0
VERTEX
  5
9D5F
  8
0
 10
175.89399763311539
 20
314.68464014805272
 30
0.0
  0
VERTEX
  5
9D60
  8
0
 10
174.55107937501529
 20
317.01064295815257
 30
0.0
  0
VERTEX
  5
9D61
  8
0
 10
173.4096546185153
 20
318.9876477674527
 30
0.0
  0
VERTEX
  5
9D62
  8
0
 10
172.27182616411531
 20
320.9584252884527
 30
0.0
  0
SEQEND
  5
9D63
  8
0
  0
CIRCLE
  5
9AB6
  8
0
 10
182.08678052691539
 20
320.9584252884527
 30
0.0
 40
8.2500000000000266
  0
CIRCLE
  5
9AB9
  8
0
 10
182.08678052691539
 20
320.9584252884527
 30
0.0
 40
10.99999999999997
  0
CIRCLE
  5
9ABA
  8
0
 10
182.08678052691539
 20
320.9584252884527
 30
0.0
 40
14.99999999999997
  0
POINT
  5
9AD6
  8
0
 10
137.08678052691531
 20
320.9584252884527
 30
0.0
  0
LINE
  5
9B78
  8
0
 10
380.25587852370751
 20
159.25202698013121
 30
0.0
 11
380.25587852370751
 21
161.75202669142121
 31
0.0
  0
LINE
  5
9B79
  8
0
 10
350.25587965992099
 20
159.25202698013121
 30
0.0
 11
350.25587965992099
 21
161.75202669142121
 31
0.0
  0
LINE
  5
9B7A
  8
0
 10
197.08677972225269
 20
159.25202698013109
 30
0.0
 11
197.08677972225269
 21
161.75202669142109
 31
0.0
  0
LINE
  5
9B7B
  8
0
 10
167.0867808584662
 20
159.25202698013109
 30
0.0
 11
167.0867808584662
 21
161.75202669142109
 31
0.0
  0
LINE
  5
9BE6
  8
0
 10
141.33400377721529
 20
75.232331771802734
 30
0.0
 11
137.58122702741531
 21
68.732331771802734
 31
0.0
  0
LINE
  5
9BE7
  8
0
 10
148.8395572766153
 20
75.232331771802734
 30
0.0
 11
141.33400377721529
 21
75.232331771802734
 31
0.0
  0
LINE
  5
9BE8
  8
0
 10
152.5923340264153
 20
68.732331771802734
 30
0.0
 11
148.8395572766153
 21
75.232331771802734
 31
0.0
  0
LINE
  5
9BE9
  8
0
 10
137.58122702741531
 20
68.732331771802734
 30
0.0
 11
141.33400377721529
 21
62.232331771802727
 31
0.0
  0
LINE
  5
9BEA
  8
0
 10
148.8395572766153
 20
62.232331771802727
 30
0.0
 11
152.5923340264153
 21
68.732331771802734
 31
0.0
  0
LINE
  5
9BEB
  8
0
 10
141.33400377721529
 20
62.232331771802727
 30
0.0
 11
148.8395572766153
 21
62.232331771802727
 31
0.0
  0
LINE
  5
9BEE
  8
0
 10
162.4717352810153
 20
76.732331771802734
 30
0.0
 11
165.5640688850153
 21
76.732331771802734
 31
0.0
  0
LINE
  5
9BEF
  8
0
 10
165.5640688850153
 20
60.732331771802741
 30
0.0
 11
162.4717352810153
 21
60.732331771802741
 31
0.0
  0
ARC
  5
9BF0
  8
0
 10
145.08678052691531
 20
68.732331771802734
 30
0.0
 40
8.0
 50
90.0
 51
270.0
  0
LINE
  5
9BF1
  8
0
 10
162.4717352810153
 20
60.732331771802741
 30
0.0
 11
145.08678052691531
 21
60.732331771802741
 31
0.0
  0
LINE
  5
9BF2
  8
0
 10
150.16746289581531
 20
64.532331771802745
 30
0.0
 11
153.08678052691531
 21
64.532331771802745
 31
0.0
  0
ARC
  5
9BF3
  8
0
 10
153.08678052691531
 20
68.732331771802734
 30
0.0
 40
4.1999999999999877
 50
270.0
 51
90.0
  0
LINE
  5
9BF4
  8
0
 10
153.08678052691531
 20
72.932331771802723
 30
0.0
 11
150.16746289581531
 21
72.932331771802723
 31
0.0
  0
LINE
  5
9BF5
  8
0
 10
145.08678052691531
 20
76.732331771802734
 30
0.0
 11
162.4717352810153
 21
76.732331771802734
 31
0.0
  0
ARC
  5
9BF7
  8
0
 10
182.08678052691539
 20
51.232331771802727
 30
0.0
 40
15.00000000000003
 50
180.0
 51
0.0
  0
ARC
  5
9C09
  8
0
 10
182.08678052691539
 20
68.732331771802734
 30
0.0
 40
28.199999999999999
 50
259.99999999999977
 51
280.00000000000023
  0
ARC
  5
9C0A
  8
0
 10
186.25433679091529
 20
45.096945699502747
 30
0.0
 40
4.2000000000000011
 50
280.00000000000023
 51
100.0000000000001
  0
ARC
  5
9C0B
  8
0
 10
177.91922426291529
 20
45.096945699502747
 30
0.0
 40
4.2000000000000011
 50
79.999999999999801
 51
259.99999999999977
  0
ARC
  5
9C0C
  8
0
 10
182.08678052691539
 20
68.732331771802734
 30
0.0
 40
19.800000000000001
 50
259.99999999999977
 51
280.00000000000023
  0
LINE
  5
9C0D
  8
0
 10
167.08678052691531
 20
51.232331771802727
 30
0.0
 11
167.08678052691531
 21
86.232331771802734
 31
0.0
  0
LINE
  5
9C0E
  8
0
 10
197.08678052691539
 20
86.232331771802734
 30
0.0
 11
197.08678052691539
 21
51.232331771802727
 31
0.0
  0
ARC
  5
9C1B
  8
0
 10
182.08678052691539
 20
86.232331771802734
 30
0.0
 40
15.00000000000003
 50
0.0
 51
180.0
  0
ARC
  5
9C1C
  8
0
 10
177.91922426291529
 20
92.367717844102785
 30
0.0
 40
4.2000000000000011
 50
100.0000000000001
 51
280.00000000000023
  0
ARC
  5
9C1D
  8
0
 10
186.25433679091529
 20
92.367717844102785
 30
0.0
 40
4.2000000000000011
 50
259.99999999999977
 51
79.999999999999801
  0
ARC
  5
9C1E
  8
0
 10
182.08678052691539
 20
68.732331771802734
 30
0.0
 40
19.800000000000001
 50
79.999999999999801
 51
100.0000000000001
  0
ARC
  5
9C1F
  8
0
 10
182.08678052691539
 20
68.732331771802734
 30
0.0
 40
28.199999999999999
 50
79.999999999999801
 51
100.0000000000001
  0
ARC
  5
9C3F
  8
0
 10
165.56406854978081
 20
84.732331771802791
 30
0.0
 40
8.0
 50
270.00000000000171
 51
280.972568339882
  0
ARC
  5
9C40
  8
0
 10
165.5640685497809
 20
52.732331771802791
 30
0.0
 40
8.0
 50
79.027431660118822
 51
89.999999999999204
  0
CIRCLE
  5
9C41
  8
3
 10
182.08678052691539
 20
320.9584252884527
 30
0.0
 40
4.1880000000002999
  0
LINE
  5
9C43
  8
1
 10
145.08678052691531
 20
328.32908244856958
 30
0.0
 11
145.08678052691531
 21
313.54092583803248
 31
0.0
  0
LINE
  5
9C44
  8
1
 10
153.08678052691531
 20
327.65842528845258
 30
0.0
 11
153.08678052691531
 21
314.2584252884526
 31
0.0
  0
LINE
  5
9C45
  8
1
 10
132.08678052691531
 20
320.9584252884527
 30
0.0
 11
202.0867801916153
 21
320.9584252884527
 31
0.0
  0
LINE
  5
9C50
  8
1
 10
182.08678052691539
 20
358.4584252884527
 30
0.0
 11
182.08678052691539
 21
283.4584252884527
 31
0.0
  0
ARC
  5
9C51
  8
1
 10
182.08678052691539
 20
320.9584252884527
 30
0.0
 40
24.000000000005851
 50
60.009877260449379
 51
119.9901227395506
  0
ARC
  5
9C56
  8
1
 10
182.08678052691539
 20
320.9584252884527
 30
0.0
 40
24.000000000005851
 50
240.00987726044789
 51
299.99012273955208
  0
LINE
  5
9C57
  8
1
 10
145.08678052691531
 20
61.3616746116858
 30
0.0
 11
145.08678052691531
 21
76.149831222222844
 31
0.0
  0
LINE
  5
9C58
  8
1
 10
153.08678052691531
 20
62.032331771802738
 30
0.0
 11
153.08678052691531
 21
75.432331771802723
 31
0.0
  0
LINE
  5
9C59
  8
1
 10
132.08678052691531
 20
68.732331771802791
 30
0.0
 11
202.08678019161539
 21
68.732331771802791
 31
0.0
  0
LINE
  5
9C60
  8
1
 10
182.08678052691539
 20
106.23233177180271
 30
0.0
 11
182.08678052691539
 21
31.232331771802709
 31
0.0
  0
ARC
  5
9CB6
  8
1
 10
182.08678052691539
 20
68.732331771802734
 30
0.0
 40
24.000000000005851
 50
60.0098772604495
 51
119.9901227395504
  0
ARC
  5
9CB7
  8
1
 10
182.08678052691539
 20
68.732331771802848
 30
0.0
 40
24.000000000005851
 50
240.00987726044761
 51
299.99012273955242
  0
ENDSEC
  0
EOF
