  0
SECTION
  2
HEADER
  9
$ACADVER
  1
AC1009
  9
$INSBASE
 10
0.0
 20
0.0
 30
0.0
  9
$EXTMIN
 10
0.0
 20
-2.960436562073669
 30
0.0
  9
$EXTMAX
 10
366.3511922753856993
 20
204.5757001242577928
 30
0.0
  9
$LIMMIN
 10
0.0
 20
0.0
  9
$LIMMAX
 10
420.0
 20
297.0
  9
$ORTHOMODE
 70
     1
  9
$REGENMODE
 70
     1
  9
$FILLMODE
 70
     1
  9
$QTEXTMODE
 70
     0
  9
$MIRRTEXT
 70
     0
  9
$DRAGMODE
 70
     2
  9
$LTSCALE
 40
10.0
  9
$OSMODE
 70
    37
  9
$ATTMODE
 70
     1
  9
$TEXTSIZE
 40
2.5
  9
$TRACEWID
 40
1.0
  9
$TEXTSTYLE
  7
STANDARD
  9
$CLAYER
  8
0
  9
$CELTYPE
  6
BYLAYER
  9
$CECOLOR
 62
   256
  9
$DIMSCALE
 40
1.0
  9
$DIMASZ
 40
2.5
  9
$DIMEXO
 40
0.625
  9
$DIMDLI
 40
3.75
  9
$DIMRND
 40
0.0
  9
$DIMDLE
 40
0.0
  9
$DIMEXE
 40
1.25
  9
$DIMTP
 40
0.0
  9
$DIMTM
 40
0.0
  9
$DIMTXT
 40
2.5
  9
$DIMCEN
 40
2.5
  9
$DIMTSZ
 40
0.0
  9
$DIMTOL
 70
     0
  9
$DIMLIM
 70
     0
  9
$DIMTIH
 70
     0
  9
$DIMTOH
 70
     0
  9
$DIMSE1
 70
     0
  9
$DIMSE2
 70
     0
  9
$DIMTAD
 70
     1
  9
$DIMZIN
 70
     8
  9
$DIMBLK
  1

  9
$DIMASO
 70
     1
  9
$DIMSHO
 70
     1
  9
$DIMPOST
  1

  9
$DIMAPOST
  1

  9
$DIMALT
 70
     0
  9
$DIMALTD
 70
     3
  9
$DIMALTF
 40
0.03937007874016
  9
$DIMLFAC
 40
1.0
  9
$DIMTOFL
 70
     1
  9
$DIMTVP
 40
0.0
  9
$DIMTIX
 70
     0
  9
$DIMSOXD
 70
     0
  9
$DIMSAH
 70
     0
  9
$DIMBLK1
  1

  9
$DIMBLK2
  1

  9
$DIMSTYLE
  2
ISO-25
  9
$DIMCLRD
 70
     0
  9
$DIMCLRE
 70
     0
  9
$DIMCLRT
 70
     0
  9
$DIMTFAC
 40
1.0
  9
$DIMGAP
 40
0.625
  9
$LUNITS
 70
     2
  9
$LUPREC
 70
     4
  9
$SKETCHINC
 40
1.0
  9
$FILLETRAD
 40
0.0
  9
$AUNITS
 70
     0
  9
$AUPREC
 70
     0
  9
$MENU
  1
.
  9
$ELEVATION
 40
0.0
  9
$PELEVATION
 40
0.0
  9
$THICKNESS
 40
0.0
  9
$LIMCHECK
 70
     0
  9
$BLIPMODE
 70
     0
  9
$CHAMFERA
 40
0.0
  9
$CHAMFERB
 40
0.0
  9
$SKPOLY
 70
     0
  9
$TDCREATE
 40
2454083.4444560189731419
  9
$TDUPDATE
 40
2460158.591678240802139
  9
$TDINDWG
 40
0.2093127778
  9
$TDUSRTIMER
 40
0.2093127778
  9
$USRTIMER
 70
     1
  9
$ANGBASE
 50
0.0
  9
$ANGDIR
 70
     0
  9
$PDMODE
 70
     0
  9
$PDSIZE
 40
0.0
  9
$PLINEWID
 40
0.0
  9
$COORDS
 70
     1
  9
$SPLFRAME
 70
     0
  9
$SPLINETYPE
 70
     6
  9
$SPLINESEGS
 70
     8
  9
$ATTDIA
 70
     1
  9
$ATTREQ
 70
     1
  9
$HANDLING
 70
     1
  9
$HANDSEED
  5
42E7
  9
$SURFTAB1
 70
     6
  9
$SURFTAB2
 70
     6
  9
$SURFTYPE
 70
     6
  9
$SURFU
 70
     6
  9
$SURFV
 70
     6
  9
$UCSNAME
  2

  9
$UCSORG
 10
0.0
 20
0.0
 30
0.0
  9
$UCSXDIR
 10
1.0
 20
0.0
 30
0.0
  9
$UCSYDIR
 10
0.0
 20
1.0
 30
0.0
  9
$PUCSNAME
  2

  9
$PUCSORG
 10
0.0
 20
0.0
 30
0.0
  9
$PUCSXDIR
 10
1.0
 20
0.0
 30
0.0
  9
$PUCSYDIR
 10
0.0
 20
1.0
 30
0.0
  9
$USERI1
 70
     0
  9
$USERI2
 70
     0
  9
$USERI3
 70
     0
  9
$USERI4
 70
     0
  9
$USERI5
 70
     0
  9
$USERR1
 40
0.0
  9
$USERR2
 40
0.0
  9
$USERR3
 40
0.0
  9
$USERR4
 40
0.0
  9
$USERR5
 40
0.0
  9
$WORLDVIEW
 70
     1
  9
$SHADEDGE
 70
     3
  9
$SHADEDIF
 70
    70
  9
$TILEMODE
 70
     1
  9
$MAXACTVP
 70
    64
  9
$PLIMCHECK
 70
     0
  9
$PEXTMIN
 10
0.0
 20
0.0
 30
0.0
  9
$PEXTMAX
 10
0.0
 20
0.0
 30
0.0
  9
$PLIMMIN
 10
0.0
 20
0.0
  9
$PLIMMAX
 10
12.0
 20
9.0
  9
$UNITMODE
 70
     0
  9
$VISRETAIN
 70
     1
  9
$PLINEGEN
 70
     0
  9
$PSLTSCALE
 70
     1
  0
ENDSEC
  0
SECTION
  2
TABLES
  0
TABLE
  2
VPORT
 70
     1
  0
VPORT
  2
*ACTIVE
 70
     0
 10
0.0
 20
0.0
 11
1.0
 21
1.0
 12
199.9522917914351012
 22
100.8149647724330009
 13
0.0
 23
0.0
 14
10.0
 24
10.0
 15
10.0
 25
10.0
 16
0.0
 26
0.0
 36
1.0
 17
0.0
 27
0.0
 37
0.0
 40
209.2990581755628909
 41
2.325609756097561
 42
50.0
 43
0.0
 44
0.0
 50
0.0
 51
0.0
 71
     0
 72
  1000
 73
     1
 74
     3
 75
     0
 76
     0
 77
     0
 78
     0
  0
ENDTAB
  0
TABLE
  2
LTYPE
 70
     2
  0
LTYPE
  2
CONTINUOUS
 70
     0
  3
Solid line
 72
    65
 73
     0
 40
0.0
  0
LTYPE
  2
CENTER
 70
     0
  3
____ _ ____ _ ____ _ ____ _ ____ _ ____ _ ____
 72
    65
 73
     4
 40
2.0
 49
1.25
 49
-0.25
 49
0.25
 49
-0.25
  0
ENDTAB
  0
TABLE
  2
LAYER
 70
     4
  0
LAYER
  2
0
 70
     0
 62
     7
  6
CONTINUOUS
  0
LAYER
  2
DEFPOINTS
 70
     0
 62
     7
  6
CONTINUOUS
  0
LAYER
  2
1
 70
     0
 62
     1
  6
CENTER
  0
LAYER
  2
3
 70
     0
 62
     3
  6
CONTINUOUS
  0
ENDTAB
  0
TABLE
  2
STYLE
 70
     2
  0
STYLE
  2
STANDARD
 70
     0
 40
0.0
 41
1.0
 50
0.0
 71
     0
 42
2.5
  3
txt
  4

  0
STYLE
  2
STANDARD1
 70
     0
 40
0.0
 41
1.0
 50
0.0
 71
     0
 42
3.0
  3
txt
  4

  0
ENDTAB
  0
TABLE
  2
VIEW
 70
     0
  0
ENDTAB
  0
TABLE
  2
UCS
 70
     0
  0
ENDTAB
  0
TABLE
  2
APPID
 70
    40
  0
APPID
  2
ACAD
 70
     0
  0
APPID
  2
_FTCNV
 70
     0
  0
APPID
  2
DCO15
 70
     0
  0
APPID
  2
GENIUS_GENOREF_13
 70
     0
  0
APPID
  2
GENIUS_GENOENT_13
 70
     0
  0
APPID
  2
GENIUS_GENBH_13
 70
     0
  0
APPID
  2
GENIUS_GENOBJ_13
 70
     0
  0
APPID
  2
GENIUS_GENODEF_13
 70
     0
  0
APPID
  2
GENIUS_GENOLIS_13
 70
     0
  0
APPID
  2
GENIUS_GENOBJ-NBEHI-BHF_13
 70
     0
  0
APPID
  2
GENIUS_GENOBJ-NBEHI-BHB_13
 70
     0
  0
APPID
  2
GENIUS_GENOBJ-F-PART_13
 70
     0
  0
APPID
  2
GENIUS_GEFSTDP_13
 70
     0
  0
APPID
  2
GENIUS_GENOBJ-N-RSSYM_13
 70
     0
  0
APPID
  2
GENIUS_GENSYMENT_13
 70
     0
  0
APPID
  2
GENIUS_GENOBJ-N-TIT_13
 70
     0
  0
APPID
  2
GENIUS_GENTITLE_13
 70
     0
  0
APPID
  2
GENIUS_GENZVEED_13
 70
     0
  0
APPID
  2
GENIUS_GENOBJ-N-LEADER_13
 70
     0
  0
APPID
  2
GENIUS_GENOBJ-N-FIL_13
 70
     0
  0
APPID
  2
GENIUS_GENOBJ-N-SEC_13
 70
     0
  0
APPID
  2
GENIUS_GENOBJ-N-CRS_13
 70
     0
  0
APPID
  2
GENIUS_GENOBJ-N-ZOO_13
 70
     0
  0
APPID
  2
GENIUS_GENZOO_13
 70
     0
  0
APPID
  2
GENIUS_GENOBJ-F-TOL_13
 70
     0
  0
APPID
  2
GENIUS_GENFIL_13
 70
     0
  0
APPID
  2
GENIUS_GENOBJ-N-CHA_13
 70
     0
  0
APPID
  2
_CALL_MAC$
 70
     0
  0
APPID
  2
ASM_BASE
 70
     0
  0
APPID
  2
ASM_EXPLO_VER_2_00
 70
     0
  0
APPID
  2
ASM_CADM_VER_12_00
 70
     0
  0
APPID
  2
ASM_BASEFORO
 70
     0
  0
APPID
  2
ASM_BASETRAVI
 70
     0
  0
APPID
  2
ASM_BASETRAVI1
 70
     0
  0
APPID
  2
ASM_GRUPPI
 70
     0
  0
APPID
  2
ASM_CADM_ALBERO
 70
     0
  0
APPID
  2
ASM_GOLE
 70
     0
  0
APPID
  2
ACAD_MLEADERVER
 70
     0
  0
APPID
  2
ACAD_NAV_VCDISPLAY
 70
     0
  0
APPID
  2
ACAD_EXEMPT_FROM_CAD_STANDARDS
 70
     0
  0
ENDTAB
  0
TABLE
  2
DIMSTYLE
 70
     2
  0
DIMSTYLE
  2
ISO-25
 70
     0
  3

  4

  5

  6

  7

 40
1.0
 41
2.5
 42
0.625
 43
3.75
 44
1.25
 45
0.0
 46
0.0
 47
0.0
 48
0.0
140
2.5
141
2.5
142
0.0
143
0.03937007874016
144
1.0
145
0.0
146
1.0
147
0.625
 71
     0
 72
     0
 73
     0
 74
     0
 75
     0
 76
     0
 77
     1
 78
     8
170
     0
171
     3
172
     1
173
     0
174
     0
175
     0
176
     0
177
     0
178
     0
  0
DIMSTYLE
  2
STANDARD
 70
     0
  3

  4

  5

  6

  7

 40
1.0
 41
0.18
 42
0.0625
 43
0.38
 44
0.18
 45
0.0
 46
0.0
 47
0.0
 48
0.0
140
0.18
141
0.09
142
0.0
143
25.3999999999999986
144
1.0
145
0.0
146
1.0
147
0.09
 71
     0
 72
     0
 73
     1
 74
     1
 75
     0
 76
     0
 77
     0
 78
     0
170
     0
171
     2
172
     0
173
     0
174
     0
175
     0
176
     0
177
     0
178
     0
  0
ENDTAB
  0
ENDSEC
  0
SECTION
  2
BLOCKS
  0
BLOCK
  8
0
  2
$MODEL_SPACE
 70
     0
 10
0.0
 20
0.0
 30
0.0
  3
$MODEL_SPACE
  1

  0
ENDBLK
  5
21
  8
0
  0
BLOCK
 67
     1
  8
0
  2
$PAPER_SPACE
 70
     0
 10
0.0
 20
0.0
 30
0.0
  3
$PAPER_SPACE
  1

  0
ENDBLK
  5
53
 67
     1
  8
0
  0
ENDSEC
  0
SECTION
  2
ENTITIES
  0
LINE
  5
1F7E
  8
0
 10
282.7895830596069118
 20
111.5756989396157053
 30
0.0
 11
281.8028907425972989
 21
111.5756989396157053
 31
0.0
  0
LINE
  5
1F82
  8
0
 10
276.4294628525329927
 20
103.5756989396157053
 30
0.0
 11
280.589684691380512
 21
103.5756989396157053
 31
0.0
  0
LINE
  5
1F83
  8
0
 10
273.9423652893191843
 20
111.5756989396157053
 30
0.0
 11
252.7895830596065991
 21
111.5756989396156058
 31
0.0
  0
LINE
  5
1F85
  8
0
 10
282.7895830596069118
 20
103.5756989396157053
 30
0.0
 11
281.7895830596069118
 21
102.5756989396157053
 31
0.0
  0
LINE
  5
1F86
  8
0
 10
281.7895830596069118
 20
112.5756989396157053
 30
0.0
 11
282.7895830596069118
 21
111.5756989396156058
 31
0.0
  0
POLYLINE
  5
1F87
  8
0
 10
275.2895830596067981
 20
103.3256989396157053
 30
0.0
 66
     1
 70
     8
  0
VERTEX
  8
0
  5
3BCB
 10
275.290
 20
103.326
 30
0.00000
  70
    32
  0
VERTEX
  8
0
  5
3BCC
 10
275.372
 20
103.327
 30
0.00000
  70
    32
  0
VERTEX
  8
0
  5
3BCD
 10
275.455
 20
103.331
 30
0.00000
  70
    32
  0
VERTEX
  8
0
  5
3BCE
 10
275.538
 20
103.337
 30
0.00000
  70
    32
  0
VERTEX
  8
0
  5
3BCF
 10
275.620
 20
103.346
 30
0.00000
  70
    32
  0
VERTEX
  8
0
  5
3BD0
 10
275.703
 20
103.358
 30
0.00000
  70
    32
  0
VERTEX
  8
0
  5
3BD1
 10
275.785
 20
103.372
 30
0.00000
  70
    32
  0
VERTEX
  8
0
  5
3BD2
 10
275.866
 20
103.388
 30
0.00000
  70
    32
  0
VERTEX
  8
0
  5
3BD3
 10
275.948
 20
103.407
 30
0.00000
  70
    32
  0
VERTEX
  8
0
  5
3BD4
 10
276.029
 20
103.429
 30
0.00000
  70
    32
  0
VERTEX
  8
0
  5
3BD5
 10
276.109
 20
103.453
 30
0.00000
  70
    32
  0
VERTEX
  8
0
  5
3BD6
 10
276.189
 20
103.480
 30
0.00000
  70
    32
  0
VERTEX
  8
0
  5
3BD7
 10
276.269
 20
103.509
 30
0.00000
  70
    32
  0
VERTEX
  8
0
  5
3BD8
 10
276.348
 20
103.540
 30
0.00000
  70
    32
  0
VERTEX
  8
0
  5
3BD9
 10
276.426
 20
103.574
 30
0.00000
  70
    32
  0
VERTEX
  8
0
  5
3BDA
 10
276.504
 20
103.610
 30
0.00000
  70
    32
  0
VERTEX
  8
0
  5
3BDB
 10
276.580
 20
103.649
 30
0.00000
  70
    32
  0
VERTEX
  8
0
  5
3BDC
 10
276.657
 20
103.690
 30
0.00000
  70
    32
  0
VERTEX
  8
0
  5
3BDD
 10
276.732
 20
103.734
 30
0.00000
  70
    32
  0
VERTEX
  8
0
  5
3BDE
 10
276.806
 20
103.779
 30
0.00000
  70
    32
  0
VERTEX
  8
0
  5
3BDF
 10
276.880
 20
103.828
 30
0.00000
  70
    32
  0
VERTEX
  8
0
  5
3BE0
 10
276.952
 20
103.878
 30
0.00000
  70
    32
  0
VERTEX
  8
0
  5
3BE1
 10
277.024
 20
103.930
 30
0.00000
  70
    32
  0
VERTEX
  8
0
  5
3BE2
 10
277.094
 20
103.985
 30
0.00000
  70
    32
  0
VERTEX
  8
0
  5
3BE3
 10
277.164
 20
104.042
 30
0.00000
  70
    32
  0
VERTEX
  8
0
  5
3BE4
 10
277.232
 20
104.101
 30
0.00000
  70
    32
  0
VERTEX
  8
0
  5
3BE5
 10
277.299
 20
104.162
 30
0.00000
  70
    32
  0
VERTEX
  8
0
  5
3BE6
 10
277.365
 20
104.225
 30
0.00000
  70
    32
  0
VERTEX
  8
0
  5
3BE7
 10
277.430
 20
104.290
 30
0.00000
  70
    32
  0
VERTEX
  8
0
  5
3BE8
 10
277.493
 20
104.358
 30
0.00000
  70
    32
  0
VERTEX
  8
0
  5
3BE9
 10
277.555
 20
104.427
 30
0.00000
  70
    32
  0
VERTEX
  8
0
  5
3BEA
 10
277.616
 20
104.498
 30
0.00000
  70
    32
  0
VERTEX
  8
0
  5
3BEB
 10
277.675
 20
104.570
 30
0.00000
  70
    32
  0
VERTEX
  8
0
  5
3BEC
 10
277.733
 20
104.645
 30
0.00000
  70
    32
  0
VERTEX
  8
0
  5
3BED
 10
277.789
 20
104.722
 30
0.00000
  70
    32
  0
VERTEX
  8
0
  5
3BEE
 10
277.844
 20
104.800
 30
0.00000
  70
    32
  0
VERTEX
  8
0
  5
3BEF
 10
277.897
 20
104.880
 30
0.00000
  70
    32
  0
VERTEX
  8
0
  5
3BF0
 10
277.949
 20
104.961
 30
0.00000
  70
    32
  0
VERTEX
  8
0
  5
3BF1
 10
277.999
 20
105.044
 30
0.00000
  70
    32
  0
VERTEX
  8
0
  5
3BF2
 10
278.048
 20
105.129
 30
0.00000
  70
    32
  0
VERTEX
  8
0
  5
3BF3
 10
278.094
 20
105.215
 30
0.00000
  70
    32
  0
VERTEX
  8
0
  5
3BF4
 10
278.140
 20
105.302
 30
0.00000
  70
    32
  0
VERTEX
  8
0
  5
3BF5
 10
278.183
 20
105.391
 30
0.00000
  70
    32
  0
VERTEX
  8
0
  5
3BF6
 10
278.225
 20
105.481
 30
0.00000
  70
    32
  0
VERTEX
  8
0
  5
3BF7
 10
278.265
 20
105.572
 30
0.00000
  70
    32
  0
VERTEX
  8
0
  5
3BF8
 10
278.303
 20
105.665
 30
0.00000
  70
    32
  0
VERTEX
  8
0
  5
3BF9
 10
278.339
 20
105.759
 30
0.00000
  70
    32
  0
VERTEX
  8
0
  5
3BFA
 10
278.373
 20
105.853
 30
0.00000
  70
    32
  0
VERTEX
  8
0
  5
3BFB
 10
278.406
 20
105.949
 30
0.00000
  70
    32
  0
VERTEX
  8
0
  5
3BFC
 10
278.437
 20
106.046
 30
0.00000
  70
    32
  0
VERTEX
  8
0
  5
3BFD
 10
278.466
 20
106.144
 30
0.00000
  70
    32
  0
VERTEX
  8
0
  5
3BFE
 10
278.493
 20
106.243
 30
0.00000
  70
    32
  0
VERTEX
  8
0
  5
3BFF
 10
278.518
 20
106.342
 30
0.00000
  70
    32
  0
VERTEX
  8
0
  5
3C00
 10
278.541
 20
106.442
 30
0.00000
  70
    32
  0
VERTEX
  8
0
  5
3C01
 10
278.562
 20
106.543
 30
0.00000
  70
    32
  0
VERTEX
  8
0
  5
3C02
 10
278.581
 20
106.645
 30
0.00000
  70
    32
  0
VERTEX
  8
0
  5
3C03
 10
278.598
 20
106.747
 30
0.00000
  70
    32
  0
VERTEX
  8
0
  5
3C04
 10
278.613
 20
106.849
 30
0.00000
  70
    32
  0
VERTEX
  8
0
  5
3C05
 10
278.626
 20
106.952
 30
0.00000
  70
    32
  0
VERTEX
  8
0
  5
3C06
 10
278.637
 20
107.055
 30
0.00000
  70
    32
  0
VERTEX
  8
0
  5
3C07
 10
278.647
 20
107.159
 30
0.00000
  70
    32
  0
VERTEX
  8
0
  5
3C08
 10
278.654
 20
107.263
 30
0.00000
  70
    32
  0
VERTEX
  8
0
  5
3C09
 10
278.659
 20
107.367
 30
0.00000
  70
    32
  0
VERTEX
  8
0
  5
3C0A
 10
278.662
 20
107.471
 30
0.00000
  70
    32
  0
VERTEX
  8
0
  5
3C0B
 10
278.663
 20
107.576
 30
0.00000
  70
    32
  0
VERTEX
  8
0
  5
3C0C
 10
278.662
 20
107.680
 30
0.00000
  70
    32
  0
VERTEX
  8
0
  5
3C0D
 10
278.659
 20
107.784
 30
0.00000
  70
    32
  0
VERTEX
  8
0
  5
3C0E
 10
278.654
 20
107.888
 30
0.00000
  70
    32
  0
VERTEX
  8
0
  5
3C0F
 10
278.647
 20
107.992
 30
0.00000
  70
    32
  0
VERTEX
  8
0
  5
3C10
 10
278.637
 20
108.096
 30
0.00000
  70
    32
  0
VERTEX
  8
0
  5
3C11
 10
278.626
 20
108.199
 30
0.00000
  70
    32
  0
VERTEX
  8
0
  5
3C12
 10
278.613
 20
108.302
 30
0.00000
  70
    32
  0
VERTEX
  8
0
  5
3C13
 10
278.598
 20
108.405
 30
0.00000
  70
    32
  0
VERTEX
  8
0
  5
3C14
 10
278.581
 20
108.507
 30
0.00000
  70
    32
  0
VERTEX
  8
0
  5
3C15
 10
278.562
 20
108.608
 30
0.00000
  70
    32
  0
VERTEX
  8
0
  5
3C16
 10
278.541
 20
108.709
 30
0.00000
  70
    32
  0
VERTEX
  8
0
  5
3C17
 10
278.518
 20
108.809
 30
0.00000
  70
    32
  0
VERTEX
  8
0
  5
3C18
 10
278.493
 20
108.909
 30
0.00000
  70
    32
  0
VERTEX
  8
0
  5
3C19
 10
278.466
 20
109.007
 30
0.00000
  70
    32
  0
VERTEX
  8
0
  5
3C1A
 10
278.437
 20
109.105
 30
0.00000
  70
    32
  0
VERTEX
  8
0
  5
3C1B
 10
278.406
 20
109.202
 30
0.00000
  70
    32
  0
VERTEX
  8
0
  5
3C1C
 10
278.373
 20
109.298
 30
0.00000
  70
    32
  0
VERTEX
  8
0
  5
3C1D
 10
278.339
 20
109.393
 30
0.00000
  70
    32
  0
VERTEX
  8
0
  5
3C1E
 10
278.303
 20
109.487
 30
0.00000
  70
    32
  0
VERTEX
  8
0
  5
3C1F
 10
278.265
 20
109.579
 30
0.00000
  70
    32
  0
VERTEX
  8
0
  5
3C20
 10
278.225
 20
109.671
 30
0.00000
  70
    32
  0
VERTEX
  8
0
  5
3C21
 10
278.183
 20
109.761
 30
0.00000
  70
    32
  0
VERTEX
  8
0
  5
3C22
 10
278.140
 20
109.849
 30
0.00000
  70
    32
  0
VERTEX
  8
0
  5
3C23
 10
278.094
 20
109.937
 30
0.00000
  70
    32
  0
VERTEX
  8
0
  5
3C24
 10
278.048
 20
110.023
 30
0.00000
  70
    32
  0
VERTEX
  8
0
  5
3C25
 10
277.999
 20
110.107
 30
0.00000
  70
    32
  0
VERTEX
  8
0
  5
3C26
 10
277.949
 20
110.190
 30
0.00000
  70
    32
  0
VERTEX
  8
0
  5
3C27
 10
277.897
 20
110.272
 30
0.00000
  70
    32
  0
VERTEX
  8
0
  5
3C28
 10
277.844
 20
110.352
 30
0.00000
  70
    32
  0
VERTEX
  8
0
  5
3C29
 10
277.789
 20
110.430
 30
0.00000
  70
    32
  0
VERTEX
  8
0
  5
3C2A
 10
277.733
 20
110.506
 30
0.00000
  70
    32
  0
VERTEX
  8
0
  5
3C2B
 10
277.675
 20
110.581
 30
0.00000
  70
    32
  0
VERTEX
  8
0
  5
3C2C
 10
277.616
 20
110.654
 30
0.00000
  70
    32
  0
VERTEX
  8
0
  5
3C2D
 10
277.555
 20
110.725
 30
0.00000
  70
    32
  0
VERTEX
  8
0
  5
3C2E
 10
277.493
 20
110.794
 30
0.00000
  70
    32
  0
VERTEX
  8
0
  5
3C2F
 10
277.430
 20
110.861
 30
0.00000
  70
    32
  0
VERTEX
  8
0
  5
3C30
 10
277.365
 20
110.926
 30
0.00000
  70
    32
  0
VERTEX
  8
0
  5
3C31
 10
277.299
 20
110.989
 30
0.00000
  70
    32
  0
VERTEX
  8
0
  5
3C32
 10
277.232
 20
111.050
 30
0.00000
  70
    32
  0
VERTEX
  8
0
  5
3C33
 10
277.164
 20
111.109
 30
0.00000
  70
    32
  0
VERTEX
  8
0
  5
3C34
 10
277.094
 20
111.166
 30
0.00000
  70
    32
  0
VERTEX
  8
0
  5
3C35
 10
277.024
 20
111.221
 30
0.00000
  70
    32
  0
VERTEX
  8
0
  5
3C36
 10
276.952
 20
111.274
 30
0.00000
  70
    32
  0
VERTEX
  8
0
  5
3C37
 10
276.880
 20
111.324
 30
0.00000
  70
    32
  0
VERTEX
  8
0
  5
3C38
 10
276.806
 20
111.372
 30
0.00000
  70
    32
  0
VERTEX
  8
0
  5
3C39
 10
276.732
 20
111.418
 30
0.00000
  70
    32
  0
VERTEX
  8
0
  5
3C3A
 10
276.657
 20
111.461
 30
0.00000
  70
    32
  0
VERTEX
  8
0
  5
3C3B
 10
276.580
 20
111.502
 30
0.00000
  70
    32
  0
VERTEX
  8
0
  5
3C3C
 10
276.504
 20
111.541
 30
0.00000
  70
    32
  0
VERTEX
  8
0
  5
3C3D
 10
276.426
 20
111.577
 30
0.00000
  70
    32
  0
VERTEX
  8
0
  5
3C3E
 10
276.348
 20
111.611
 30
0.00000
  70
    32
  0
VERTEX
  8
0
  5
3C3F
 10
276.269
 20
111.643
 30
0.00000
  70
    32
  0
VERTEX
  8
0
  5
3C40
 10
276.189
 20
111.672
 30
0.00000
  70
    32
  0
VERTEX
  8
0
  5
3C41
 10
276.109
 20
111.698
 30
0.00000
  70
    32
  0
VERTEX
  8
0
  5
3C42
 10
276.029
 20
111.722
 30
0.00000
  70
    32
  0
VERTEX
  8
0
  5
3C43
 10
275.948
 20
111.744
 30
0.00000
  70
    32
  0
VERTEX
  8
0
  5
3C44
 10
275.866
 20
111.763
 30
0.00000
  70
    32
  0
VERTEX
  8
0
  5
3C45
 10
275.785
 20
111.780
 30
0.00000
  70
    32
  0
VERTEX
  8
0
  5
3C46
 10
275.703
 20
111.794
 30
0.00000
  70
    32
  0
VERTEX
  8
0
  5
3C47
 10
275.620
 20
111.805
 30
0.00000
  70
    32
  0
VERTEX
  8
0
  5
3C48
 10
275.538
 20
111.814
 30
0.00000
  70
    32
  0
VERTEX
  8
0
  5
3C49
 10
275.455
 20
111.821
 30
0.00000
  70
    32
  0
VERTEX
  8
0
  5
3C4A
 10
275.372
 20
111.824
 30
0.00000
  70
    32
  0
VERTEX
  8
0
  5
3C4B
 10
275.290
 20
111.826
 30
0.00000
  70
    32
  0
SEQEND
  8
0
  5
3C4C
  0
POLYLINE
  5
1F88
  8
0
 10
275.2895830596067981
 20
111.8256989396157053
 30
0.0
 66
     1
 70
     8
  0
VERTEX
  8
0
  5
3C4D
 10
275.290
 20
111.826
 30
0.00000
  70
    32
  0
VERTEX
  8
0
  5
3C4E
 10
275.192
 20
111.824
 30
0.00000
  70
    32
  0
VERTEX
  8
0
  5
3C4F
 10
275.094
 20
111.821
 30
0.00000
  70
    32
  0
VERTEX
  8
0
  5
3C50
 10
274.996
 20
111.814
 30
0.00000
  70
    32
  0
VERTEX
  8
0
  5
3C51
 10
274.899
 20
111.805
 30
0.00000
  70
    32
  0
VERTEX
  8
0
  5
3C52
 10
274.802
 20
111.794
 30
0.00000
  70
    32
  0
VERTEX
  8
0
  5
3C53
 10
274.705
 20
111.780
 30
0.00000
  70
    32
  0
VERTEX
  8
0
  5
3C54
 10
274.608
 20
111.763
 30
0.00000
  70
    32
  0
VERTEX
  8
0
  5
3C55
 10
274.512
 20
111.744
 30
0.00000
  70
    32
  0
VERTEX
  8
0
  5
3C56
 10
274.416
 20
111.722
 30
0.00000
  70
    32
  0
VERTEX
  8
0
  5
3C57
 10
274.321
 20
111.698
 30
0.00000
  70
    32
  0
VERTEX
  8
0
  5
3C58
 10
274.226
 20
111.672
 30
0.00000
  70
    32
  0
VERTEX
  8
0
  5
3C59
 10
274.132
 20
111.643
 30
0.00000
  70
    32
  0
VERTEX
  8
0
  5
3C5A
 10
274.039
 20
111.611
 30
0.00000
  70
    32
  0
VERTEX
  8
0
  5
3C5B
 10
273.946
 20
111.577
 30
0.00000
  70
    32
  0
VERTEX
  8
0
  5
3C5C
 10
273.855
 20
111.541
 30
0.00000
  70
    32
  0
VERTEX
  8
0
  5
3C5D
 10
273.764
 20
111.502
 30
0.00000
  70
    32
  0
VERTEX
  8
0
  5
3C5E
 10
273.674
 20
111.461
 30
0.00000
  70
    32
  0
VERTEX
  8
0
  5
3C5F
 10
273.585
 20
111.418
 30
0.00000
  70
    32
  0
VERTEX
  8
0
  5
3C60
 10
273.497
 20
111.372
 30
0.00000
  70
    32
  0
VERTEX
  8
0
  5
3C61
 10
273.410
 20
111.324
 30
0.00000
  70
    32
  0
VERTEX
  8
0
  5
3C62
 10
273.324
 20
111.274
 30
0.00000
  70
    32
  0
VERTEX
  8
0
  5
3C63
 10
273.240
 20
111.221
 30
0.00000
  70
    32
  0
VERTEX
  8
0
  5
3C64
 10
273.157
 20
111.166
 30
0.00000
  70
    32
  0
VERTEX
  8
0
  5
3C65
 10
273.075
 20
111.109
 30
0.00000
  70
    32
  0
VERTEX
  8
0
  5
3C66
 10
272.994
 20
111.050
 30
0.00000
  70
    32
  0
VERTEX
  8
0
  5
3C67
 10
272.915
 20
110.989
 30
0.00000
  70
    32
  0
VERTEX
  8
0
  5
3C68
 10
272.837
 20
110.926
 30
0.00000
  70
    32
  0
VERTEX
  8
0
  5
3C69
 10
272.760
 20
110.861
 30
0.00000
  70
    32
  0
VERTEX
  8
0
  5
3C6A
 10
272.685
 20
110.794
 30
0.00000
  70
    32
  0
VERTEX
  8
0
  5
3C6B
 10
272.612
 20
110.725
 30
0.00000
  70
    32
  0
VERTEX
  8
0
  5
3C6C
 10
272.540
 20
110.654
 30
0.00000
  70
    32
  0
VERTEX
  8
0
  5
3C6D
 10
272.470
 20
110.581
 30
0.00000
  70
    32
  0
VERTEX
  8
0
  5
3C6E
 10
272.402
 20
110.506
 30
0.00000
  70
    32
  0
VERTEX
  8
0
  5
3C6F
 10
272.336
 20
110.430
 30
0.00000
  70
    32
  0
VERTEX
  8
0
  5
3C70
 10
272.271
 20
110.352
 30
0.00000
  70
    32
  0
VERTEX
  8
0
  5
3C71
 10
272.208
 20
110.272
 30
0.00000
  70
    32
  0
VERTEX
  8
0
  5
3C72
 10
272.147
 20
110.190
 30
0.00000
  70
    32
  0
VERTEX
  8
0
  5
3C73
 10
272.087
 20
110.107
 30
0.00000
  70
    32
  0
VERTEX
  8
0
  5
3C74
 10
272.030
 20
110.023
 30
0.00000
  70
    32
  0
VERTEX
  8
0
  5
3C75
 10
271.975
 20
109.937
 30
0.00000
  70
    32
  0
VERTEX
  8
0
  5
3C76
 10
271.921
 20
109.849
 30
0.00000
  70
    32
  0
VERTEX
  8
0
  5
3C77
 10
271.870
 20
109.761
 30
0.00000
  70
    32
  0
VERTEX
  8
0
  5
3C78
 10
271.821
 20
109.671
 30
0.00000
  70
    32
  0
VERTEX
  8
0
  5
3C79
 10
271.773
 20
109.579
 30
0.00000
  70
    32
  0
VERTEX
  8
0
  5
3C7A
 10
271.728
 20
109.487
 30
0.00000
  70
    32
  0
VERTEX
  8
0
  5
3C7B
 10
271.686
 20
109.393
 30
0.00000
  70
    32
  0
VERTEX
  8
0
  5
3C7C
 10
271.645
 20
109.298
 30
0.00000
  70
    32
  0
VERTEX
  8
0
  5
3C7D
 10
271.606
 20
109.202
 30
0.00000
  70
    32
  0
VERTEX
  8
0
  5
3C7E
 10
271.570
 20
109.105
 30
0.00000
  70
    32
  0
VERTEX
  8
0
  5
3C7F
 10
271.536
 20
109.007
 30
0.00000
  70
    32
  0
VERTEX
  8
0
  5
3C80
 10
271.504
 20
108.909
 30
0.00000
  70
    32
  0
VERTEX
  8
0
  5
3C81
 10
271.474
 20
108.809
 30
0.00000
  70
    32
  0
VERTEX
  8
0
  5
3C82
 10
271.447
 20
108.709
 30
0.00000
  70
    32
  0
VERTEX
  8
0
  5
3C83
 10
271.422
 20
108.608
 30
0.00000
  70
    32
  0
VERTEX
  8
0
  5
3C84
 10
271.400
 20
108.507
 30
0.00000
  70
    32
  0
VERTEX
  8
0
  5
3C85
 10
271.379
 20
108.405
 30
0.00000
  70
    32
  0
VERTEX
  8
0
  5
3C86
 10
271.361
 20
108.302
 30
0.00000
  70
    32
  0
VERTEX
  8
0
  5
3C87
 10
271.346
 20
108.199
 30
0.00000
  70
    32
  0
VERTEX
  8
0
  5
3C88
 10
271.333
 20
108.096
 30
0.00000
  70
    32
  0
VERTEX
  8
0
  5
3C89
 10
271.322
 20
107.992
 30
0.00000
  70
    32
  0
VERTEX
  8
0
  5
3C8A
 10
271.314
 20
107.888
 30
0.00000
  70
    32
  0
VERTEX
  8
0
  5
3C8B
 10
271.308
 20
107.784
 30
0.00000
  70
    32
  0
VERTEX
  8
0
  5
3C8C
 10
271.304
 20
107.680
 30
0.00000
  70
    32
  0
VERTEX
  8
0
  5
3C8D
 10
271.303
 20
107.576
 30
0.00000
  70
    32
  0
VERTEX
  8
0
  5
3C8E
 10
271.304
 20
107.471
 30
0.00000
  70
    32
  0
VERTEX
  8
0
  5
3C8F
 10
271.308
 20
107.367
 30
0.00000
  70
    32
  0
VERTEX
  8
0
  5
3C90
 10
271.314
 20
107.263
 30
0.00000
  70
    32
  0
VERTEX
  8
0
  5
3C91
 10
271.322
 20
107.159
 30
0.00000
  70
    32
  0
VERTEX
  8
0
  5
3C92
 10
271.333
 20
107.055
 30
0.00000
  70
    32
  0
VERTEX
  8
0
  5
3C93
 10
271.346
 20
106.952
 30
0.00000
  70
    32
  0
VERTEX
  8
0
  5
3C94
 10
271.361
 20
106.849
 30
0.00000
  70
    32
  0
VERTEX
  8
0
  5
3C95
 10
271.379
 20
106.747
 30
0.00000
  70
    32
  0
VERTEX
  8
0
  5
3C96
 10
271.400
 20
106.645
 30
0.00000
  70
    32
  0
VERTEX
  8
0
  5
3C97
 10
271.422
 20
106.543
 30
0.00000
  70
    32
  0
VERTEX
  8
0
  5
3C98
 10
271.447
 20
106.442
 30
0.00000
  70
    32
  0
VERTEX
  8
0
  5
3C99
 10
271.474
 20
106.342
 30
0.00000
  70
    32
  0
VERTEX
  8
0
  5
3C9A
 10
271.504
 20
106.243
 30
0.00000
  70
    32
  0
VERTEX
  8
0
  5
3C9B
 10
271.536
 20
106.144
 30
0.00000
  70
    32
  0
VERTEX
  8
0
  5
3C9C
 10
271.570
 20
106.046
 30
0.00000
  70
    32
  0
VERTEX
  8
0
  5
3C9D
 10
271.606
 20
105.949
 30
0.00000
  70
    32
  0
VERTEX
  8
0
  5
3C9E
 10
271.645
 20
105.853
 30
0.00000
  70
    32
  0
VERTEX
  8
0
  5
3C9F
 10
271.686
 20
105.759
 30
0.00000
  70
    32
  0
VERTEX
  8
0
  5
3CA0
 10
271.728
 20
105.665
 30
0.00000
  70
    32
  0
VERTEX
  8
0
  5
3CA1
 10
271.773
 20
105.572
 30
0.00000
  70
    32
  0
VERTEX
  8
0
  5
3CA2
 10
271.821
 20
105.481
 30
0.00000
  70
    32
  0
VERTEX
  8
0
  5
3CA3
 10
271.870
 20
105.391
 30
0.00000
  70
    32
  0
VERTEX
  8
0
  5
3CA4
 10
271.921
 20
105.302
 30
0.00000
  70
    32
  0
VERTEX
  8
0
  5
3CA5
 10
271.975
 20
105.215
 30
0.00000
  70
    32
  0
VERTEX
  8
0
  5
3CA6
 10
272.030
 20
105.129
 30
0.00000
  70
    32
  0
VERTEX
  8
0
  5
3CA7
 10
272.087
 20
105.044
 30
0.00000
  70
    32
  0
VERTEX
  8
0
  5
3CA8
 10
272.147
 20
104.961
 30
0.00000
  70
    32
  0
VERTEX
  8
0
  5
3CA9
 10
272.208
 20
104.880
 30
0.00000
  70
    32
  0
VERTEX
  8
0
  5
3CAA
 10
272.271
 20
104.800
 30
0.00000
  70
    32
  0
VERTEX
  8
0
  5
3CAB
 10
272.336
 20
104.722
 30
0.00000
  70
    32
  0
VERTEX
  8
0
  5
3CAC
 10
272.402
 20
104.645
 30
0.00000
  70
    32
  0
VERTEX
  8
0
  5
3CAD
 10
272.470
 20
104.570
 30
0.00000
  70
    32
  0
VERTEX
  8
0
  5
3CAE
 10
272.540
 20
104.498
 30
0.00000
  70
    32
  0
VERTEX
  8
0
  5
3CAF
 10
272.612
 20
104.427
 30
0.00000
  70
    32
  0
VERTEX
  8
0
  5
3CB0
 10
272.685
 20
104.358
 30
0.00000
  70
    32
  0
VERTEX
  8
0
  5
3CB1
 10
272.760
 20
104.290
 30
0.00000
  70
    32
  0
VERTEX
  8
0
  5
3CB2
 10
272.837
 20
104.225
 30
0.00000
  70
    32
  0
VERTEX
  8
0
  5
3CB3
 10
272.915
 20
104.162
 30
0.00000
  70
    32
  0
VERTEX
  8
0
  5
3CB4
 10
272.994
 20
104.101
 30
0.00000
  70
    32
  0
VERTEX
  8
0
  5
3CB5
 10
273.075
 20
104.042
 30
0.00000
  70
    32
  0
VERTEX
  8
0
  5
3CB6
 10
273.157
 20
103.985
 30
0.00000
  70
    32
  0
VERTEX
  8
0
  5
3CB7
 10
273.240
 20
103.930
 30
0.00000
  70
    32
  0
VERTEX
  8
0
  5
3CB8
 10
273.324
 20
103.878
 30
0.00000
  70
    32
  0
VERTEX
  8
0
  5
3CB9
 10
273.410
 20
103.828
 30
0.00000
  70
    32
  0
VERTEX
  8
0
  5
3CBA
 10
273.497
 20
103.779
 30
0.00000
  70
    32
  0
VERTEX
  8
0
  5
3CBB
 10
273.585
 20
103.734
 30
0.00000
  70
    32
  0
VERTEX
  8
0
  5
3CBC
 10
273.674
 20
103.690
 30
0.00000
  70
    32
  0
VERTEX
  8
0
  5
3CBD
 10
273.764
 20
103.649
 30
0.00000
  70
    32
  0
VERTEX
  8
0
  5
3CBE
 10
273.855
 20
103.610
 30
0.00000
  70
    32
  0
VERTEX
  8
0
  5
3CBF
 10
273.946
 20
103.574
 30
0.00000
  70
    32
  0
VERTEX
  8
0
  5
3CC0
 10
274.039
 20
103.540
 30
0.00000
  70
    32
  0
VERTEX
  8
0
  5
3CC1
 10
274.132
 20
103.509
 30
0.00000
  70
    32
  0
VERTEX
  8
0
  5
3CC2
 10
274.226
 20
103.480
 30
0.00000
  70
    32
  0
VERTEX
  8
0
  5
3CC3
 10
274.321
 20
103.453
 30
0.00000
  70
    32
  0
VERTEX
  8
0
  5
3CC4
 10
274.416
 20
103.429
 30
0.00000
  70
    32
  0
VERTEX
  8
0
  5
3CC5
 10
274.512
 20
103.407
 30
0.00000
  70
    32
  0
VERTEX
  8
0
  5
3CC6
 10
274.608
 20
103.388
 30
0.00000
  70
    32
  0
VERTEX
  8
0
  5
3CC7
 10
274.705
 20
103.372
 30
0.00000
  70
    32
  0
VERTEX
  8
0
  5
3CC8
 10
274.802
 20
103.358
 30
0.00000
  70
    32
  0
VERTEX
  8
0
  5
3CC9
 10
274.899
 20
103.346
 30
0.00000
  70
    32
  0
VERTEX
  8
0
  5
3CCA
 10
274.996
 20
103.337
 30
0.00000
  70
    32
  0
VERTEX
  8
0
  5
3CCB
 10
275.094
 20
103.331
 30
0.00000
  70
    32
  0
VERTEX
  8
0
  5
3CCC
 10
275.192
 20
103.327
 30
0.00000
  70
    32
  0
VERTEX
  8
0
  5
3CCD
 10
275.290
 20
103.326
 30
0.00000
  70
    32
  0
SEQEND
  8
0
  5
3CCE
  0
POLYLINE
  5
1F89
  8
3
 10
274.7895828713860737
 20
105.0756989396157053
 30
0.0
 66
     1
 70
     8
  0
VERTEX
  8
3
  5
3CCF
 10
274.790
 20
105.076
 30
0.00000
  70
    32
  0
VERTEX
  8
3
  5
3CD0
 10
274.838
 20
105.076
 30
0.00000
  70
    32
  0
VERTEX
  8
3
  5
3CD1
 10
274.887
 20
105.079
 30
0.00000
  70
    32
  0
VERTEX
  8
3
  5
3CD2
 10
274.936
 20
105.082
 30
0.00000
  70
    32
  0
VERTEX
  8
3
  5
3CD3
 10
274.984
 20
105.088
 30
0.00000
  70
    32
  0
VERTEX
  8
3
  5
3CD4
 10
275.032
 20
105.095
 30
0.00000
  70
    32
  0
VERTEX
  8
3
  5
3CD5
 10
275.081
 20
105.103
 30
0.00000
  70
    32
  0
VERTEX
  8
3
  5
3CD6
 10
275.129
 20
105.113
 30
0.00000
  70
    32
  0
VERTEX
  8
3
  5
3CD7
 10
275.177
 20
105.124
 30
0.00000
  70
    32
  0
VERTEX
  8
3
  5
3CD8
 10
275.224
 20
105.136
 30
0.00000
  70
    32
  0
VERTEX
  8
3
  5
3CD9
 10
275.272
 20
105.151
 30
0.00000
  70
    32
  0
VERTEX
  8
3
  5
3CDA
 10
275.319
 20
105.166
 30
0.00000
  70
    32
  0
VERTEX
  8
3
  5
3CDB
 10
275.366
 20
105.183
 30
0.00000
  70
    32
  0
VERTEX
  8
3
  5
3CDC
 10
275.412
 20
105.202
 30
0.00000
  70
    32
  0
VERTEX
  8
3
  5
3CDD
 10
275.458
 20
105.222
 30
0.00000
  70
    32
  0
VERTEX
  8
3
  5
3CDE
 10
275.504
 20
105.243
 30
0.00000
  70
    32
  0
VERTEX
  8
3
  5
3CDF
 10
275.549
 20
105.266
 30
0.00000
  70
    32
  0
VERTEX
  8
3
  5
3CE0
 10
275.594
 20
105.290
 30
0.00000
  70
    32
  0
VERTEX
  8
3
  5
3CE1
 10
275.638
 20
105.316
 30
0.00000
  70
    32
  0
VERTEX
  8
3
  5
3CE2
 10
275.682
 20
105.343
 30
0.00000
  70
    32
  0
VERTEX
  8
3
  5
3CE3
 10
275.725
 20
105.371
 30
0.00000
  70
    32
  0
VERTEX
  8
3
  5
3CE4
 10
275.768
 20
105.400
 30
0.00000
  70
    32
  0
VERTEX
  8
3
  5
3CE5
 10
275.810
 20
105.431
 30
0.00000
  70
    32
  0
VERTEX
  8
3
  5
3CE6
 10
275.851
 20
105.464
 30
0.00000
  70
    32
  0
VERTEX
  8
3
  5
3CE7
 10
275.892
 20
105.497
 30
0.00000
  70
    32
  0
VERTEX
  8
3
  5
3CE8
 10
275.932
 20
105.532
 30
0.00000
  70
    32
  0
VERTEX
  8
3
  5
3CE9
 10
275.972
 20
105.568
 30
0.00000
  70
    32
  0
VERTEX
  8
3
  5
3CEA
 10
276.010
 20
105.605
 30
0.00000
  70
    32
  0
VERTEX
  8
3
  5
3CEB
 10
276.048
 20
105.643
 30
0.00000
  70
    32
  0
VERTEX
  8
3
  5
3CEC
 10
276.086
 20
105.683
 30
0.00000
  70
    32
  0
VERTEX
  8
3
  5
3CED
 10
276.122
 20
105.723
 30
0.00000
  70
    32
  0
VERTEX
  8
3
  5
3CEE
 10
276.158
 20
105.765
 30
0.00000
  70
    32
  0
VERTEX
  8
3
  5
3CEF
 10
276.193
 20
105.808
 30
0.00000
  70
    32
  0
VERTEX
  8
3
  5
3CF0
 10
276.227
 20
105.852
 30
0.00000
  70
    32
  0
VERTEX
  8
3
  5
3CF1
 10
276.260
 20
105.897
 30
0.00000
  70
    32
  0
VERTEX
  8
3
  5
3CF2
 10
276.292
 20
105.943
 30
0.00000
  70
    32
  0
VERTEX
  8
3
  5
3CF3
 10
276.324
 20
105.990
 30
0.00000
  70
    32
  0
VERTEX
  8
3
  5
3CF4
 10
276.354
 20
106.038
 30
0.00000
  70
    32
  0
VERTEX
  8
3
  5
3CF5
 10
276.383
 20
106.086
 30
0.00000
  70
    32
  0
VERTEX
  8
3
  5
3CF6
 10
276.412
 20
106.136
 30
0.00000
  70
    32
  0
VERTEX
  8
3
  5
3CF7
 10
276.440
 20
106.187
 30
0.00000
  70
    32
  0
VERTEX
  8
3
  5
3CF8
 10
276.466
 20
106.238
 30
0.00000
  70
    32
  0
VERTEX
  8
3
  5
3CF9
 10
276.492
 20
106.290
 30
0.00000
  70
    32
  0
VERTEX
  8
3
  5
3CFA
 10
276.516
 20
106.343
 30
0.00000
  70
    32
  0
VERTEX
  8
3
  5
3CFB
 10
276.540
 20
106.397
 30
0.00000
  70
    32
  0
VERTEX
  8
3
  5
3CFC
 10
276.562
 20
106.452
 30
0.00000
  70
    32
  0
VERTEX
  8
3
  5
3CFD
 10
276.583
 20
106.507
 30
0.00000
  70
    32
  0
VERTEX
  8
3
  5
3CFE
 10
276.604
 20
106.563
 30
0.00000
  70
    32
  0
VERTEX
  8
3
  5
3CFF
 10
276.623
 20
106.619
 30
0.00000
  70
    32
  0
VERTEX
  8
3
  5
3D00
 10
276.641
 20
106.676
 30
0.00000
  70
    32
  0
VERTEX
  8
3
  5
3D01
 10
276.658
 20
106.733
 30
0.00000
  70
    32
  0
VERTEX
  8
3
  5
3D02
 10
276.674
 20
106.791
 30
0.00000
  70
    32
  0
VERTEX
  8
3
  5
3D03
 10
276.689
 20
106.850
 30
0.00000
  70
    32
  0
VERTEX
  8
3
  5
3D04
 10
276.702
 20
106.909
 30
0.00000
  70
    32
  0
VERTEX
  8
3
  5
3D05
 10
276.715
 20
106.968
 30
0.00000
  70
    32
  0
VERTEX
  8
3
  5
3D06
 10
276.726
 20
107.028
 30
0.00000
  70
    32
  0
VERTEX
  8
3
  5
3D07
 10
276.736
 20
107.088
 30
0.00000
  70
    32
  0
VERTEX
  8
3
  5
3D08
 10
276.745
 20
107.148
 30
0.00000
  70
    32
  0
VERTEX
  8
3
  5
3D09
 10
276.752
 20
107.209
 30
0.00000
  70
    32
  0
VERTEX
  8
3
  5
3D0A
 10
276.759
 20
107.270
 30
0.00000
  70
    32
  0
VERTEX
  8
3
  5
3D0B
 10
276.764
 20
107.331
 30
0.00000
  70
    32
  0
VERTEX
  8
3
  5
3D0C
 10
276.769
 20
107.392
 30
0.00000
  70
    32
  0
VERTEX
  8
3
  5
3D0D
 10
276.772
 20
107.453
 30
0.00000
  70
    32
  0
VERTEX
  8
3
  5
3D0E
 10
276.773
 20
107.514
 30
0.00000
  70
    32
  0
VERTEX
  8
3
  5
3D0F
 10
276.774
 20
107.576
 30
0.00000
  70
    32
  0
VERTEX
  8
3
  5
3D10
 10
276.773
 20
107.637
 30
0.00000
  70
    32
  0
VERTEX
  8
3
  5
3D11
 10
276.772
 20
107.698
 30
0.00000
  70
    32
  0
VERTEX
  8
3
  5
3D12
 10
276.769
 20
107.760
 30
0.00000
  70
    32
  0
VERTEX
  8
3
  5
3D13
 10
276.764
 20
107.821
 30
0.00000
  70
    32
  0
VERTEX
  8
3
  5
3D14
 10
276.759
 20
107.882
 30
0.00000
  70
    32
  0
VERTEX
  8
3
  5
3D15
 10
276.752
 20
107.943
 30
0.00000
  70
    32
  0
VERTEX
  8
3
  5
3D16
 10
276.745
 20
108.003
 30
0.00000
  70
    32
  0
VERTEX
  8
3
  5
3D17
 10
276.736
 20
108.063
 30
0.00000
  70
    32
  0
VERTEX
  8
3
  5
3D18
 10
276.726
 20
108.123
 30
0.00000
  70
    32
  0
VERTEX
  8
3
  5
3D19
 10
276.715
 20
108.183
 30
0.00000
  70
    32
  0
VERTEX
  8
3
  5
3D1A
 10
276.702
 20
108.242
 30
0.00000
  70
    32
  0
VERTEX
  8
3
  5
3D1B
 10
276.689
 20
108.301
 30
0.00000
  70
    32
  0
VERTEX
  8
3
  5
3D1C
 10
276.674
 20
108.360
 30
0.00000
  70
    32
  0
VERTEX
  8
3
  5
3D1D
 10
276.658
 20
108.418
 30
0.00000
  70
    32
  0
VERTEX
  8
3
  5
3D1E
 10
276.641
 20
108.475
 30
0.00000
  70
    32
  0
VERTEX
  8
3
  5
3D1F
 10
276.623
 20
108.532
 30
0.00000
  70
    32
  0
VERTEX
  8
3
  5
3D20
 10
276.604
 20
108.589
 30
0.00000
  70
    32
  0
VERTEX
  8
3
  5
3D21
 10
276.583
 20
108.645
 30
0.00000
  70
    32
  0
VERTEX
  8
3
  5
3D22
 10
276.562
 20
108.700
 30
0.00000
  70
    32
  0
VERTEX
  8
3
  5
3D23
 10
276.540
 20
108.754
 30
0.00000
  70
    32
  0
VERTEX
  8
3
  5
3D24
 10
276.516
 20
108.808
 30
0.00000
  70
    32
  0
VERTEX
  8
3
  5
3D25
 10
276.492
 20
108.861
 30
0.00000
  70
    32
  0
VERTEX
  8
3
  5
3D26
 10
276.466
 20
108.913
 30
0.00000
  70
    32
  0
VERTEX
  8
3
  5
3D27
 10
276.440
 20
108.965
 30
0.00000
  70
    32
  0
VERTEX
  8
3
  5
3D28
 10
276.412
 20
109.015
 30
0.00000
  70
    32
  0
VERTEX
  8
3
  5
3D29
 10
276.383
 20
109.065
 30
0.00000
  70
    32
  0
VERTEX
  8
3
  5
3D2A
 10
276.354
 20
109.114
 30
0.00000
  70
    32
  0
VERTEX
  8
3
  5
3D2B
 10
276.324
 20
109.162
 30
0.00000
  70
    32
  0
VERTEX
  8
3
  5
3D2C
 10
276.292
 20
109.209
 30
0.00000
  70
    32
  0
VERTEX
  8
3
  5
3D2D
 10
276.260
 20
109.255
 30
0.00000
  70
    32
  0
VERTEX
  8
3
  5
3D2E
 10
276.227
 20
109.300
 30
0.00000
  70
    32
  0
VERTEX
  8
3
  5
3D2F
 10
276.193
 20
109.343
 30
0.00000
  70
    32
  0
VERTEX
  8
3
  5
3D30
 10
276.158
 20
109.386
 30
0.00000
  70
    32
  0
VERTEX
  8
3
  5
3D31
 10
276.122
 20
109.428
 30
0.00000
  70
    32
  0
VERTEX
  8
3
  5
3D32
 10
276.086
 20
109.469
 30
0.00000
  70
    32
  0
VERTEX
  8
3
  5
3D33
 10
276.048
 20
109.508
 30
0.00000
  70
    32
  0
VERTEX
  8
3
  5
3D34
 10
276.010
 20
109.547
 30
0.00000
  70
    32
  0
VERTEX
  8
3
  5
3D35
 10
275.972
 20
109.584
 30
0.00000
  70
    32
  0
VERTEX
  8
3
  5
3D36
 10
275.932
 20
109.620
 30
0.00000
  70
    32
  0
VERTEX
  8
3
  5
3D37
 10
275.892
 20
109.654
 30
0.00000
  70
    32
  0
VERTEX
  8
3
  5
3D38
 10
275.851
 20
109.688
 30
0.00000
  70
    32
  0
VERTEX
  8
3
  5
3D39
 10
275.810
 20
109.720
 30
0.00000
  70
    32
  0
VERTEX
  8
3
  5
3D3A
 10
275.768
 20
109.751
 30
0.00000
  70
    32
  0
VERTEX
  8
3
  5
3D3B
 10
275.725
 20
109.781
 30
0.00000
  70
    32
  0
VERTEX
  8
3
  5
3D3C
 10
275.682
 20
109.809
 30
0.00000
  70
    32
  0
VERTEX
  8
3
  5
3D3D
 10
275.638
 20
109.836
 30
0.00000
  70
    32
  0
VERTEX
  8
3
  5
3D3E
 10
275.594
 20
109.861
 30
0.00000
  70
    32
  0
VERTEX
  8
3
  5
3D3F
 10
275.549
 20
109.885
 30
0.00000
  70
    32
  0
VERTEX
  8
3
  5
3D40
 10
275.504
 20
109.908
 30
0.00000
  70
    32
  0
VERTEX
  8
3
  5
3D41
 10
275.458
 20
109.930
 30
0.00000
  70
    32
  0
VERTEX
  8
3
  5
3D42
 10
275.412
 20
109.950
 30
0.00000
  70
    32
  0
VERTEX
  8
3
  5
3D43
 10
275.366
 20
109.968
 30
0.00000
  70
    32
  0
VERTEX
  8
3
  5
3D44
 10
275.319
 20
109.985
 30
0.00000
  70
    32
  0
VERTEX
  8
3
  5
3D45
 10
275.272
 20
110.001
 30
0.00000
  70
    32
  0
VERTEX
  8
3
  5
3D46
 10
275.224
 20
110.015
 30
0.00000
  70
    32
  0
VERTEX
  8
3
  5
3D47
 10
275.177
 20
110.028
 30
0.00000
  70
    32
  0
VERTEX
  8
3
  5
3D48
 10
275.129
 20
110.039
 30
0.00000
  70
    32
  0
VERTEX
  8
3
  5
3D49
 10
275.081
 20
110.049
 30
0.00000
  70
    32
  0
VERTEX
  8
3
  5
3D4A
 10
275.032
 20
110.057
 30
0.00000
  70
    32
  0
VERTEX
  8
3
  5
3D4B
 10
274.984
 20
110.064
 30
0.00000
  70
    32
  0
VERTEX
  8
3
  5
3D4C
 10
274.936
 20
110.069
 30
0.00000
  70
    32
  0
VERTEX
  8
3
  5
3D4D
 10
274.887
 20
110.073
 30
0.00000
  70
    32
  0
VERTEX
  8
3
  5
3D4E
 10
274.838
 20
110.075
 30
0.00000
  70
    32
  0
VERTEX
  8
3
  5
3D4F
 10
274.790
 20
110.076
 30
0.00000
  70
    32
  0
SEQEND
  8
3
  5
3D50
  0
POLYLINE
  5
1F8A
  8
3
 10
274.7895828713860737
 20
110.0756989396157053
 30
0.0
 66
     1
 70
     8
  0
VERTEX
  8
3
  5
3D51
 10
274.790
 20
110.076
 30
0.00000
  70
    32
  0
VERTEX
  8
3
  5
3D52
 10
274.732
 20
110.075
 30
0.00000
  70
    32
  0
VERTEX
  8
3
  5
3D53
 10
274.674
 20
110.073
 30
0.00000
  70
    32
  0
VERTEX
  8
3
  5
3D54
 10
274.617
 20
110.069
 30
0.00000
  70
    32
  0
VERTEX
  8
3
  5
3D55
 10
274.560
 20
110.064
 30
0.00000
  70
    32
  0
VERTEX
  8
3
  5
3D56
 10
274.502
 20
110.057
 30
0.00000
  70
    32
  0
VERTEX
  8
3
  5
3D57
 10
274.445
 20
110.049
 30
0.00000
  70
    32
  0
VERTEX
  8
3
  5
3D58
 10
274.389
 20
110.039
 30
0.00000
  70
    32
  0
VERTEX
  8
3
  5
3D59
 10
274.332
 20
110.028
 30
0.00000
  70
    32
  0
VERTEX
  8
3
  5
3D5A
 10
274.276
 20
110.015
 30
0.00000
  70
    32
  0
VERTEX
  8
3
  5
3D5B
 10
274.220
 20
110.001
 30
0.00000
  70
    32
  0
VERTEX
  8
3
  5
3D5C
 10
274.164
 20
109.985
 30
0.00000
  70
    32
  0
VERTEX
  8
3
  5
3D5D
 10
274.109
 20
109.968
 30
0.00000
  70
    32
  0
VERTEX
  8
3
  5
3D5E
 10
274.054
 20
109.950
 30
0.00000
  70
    32
  0
VERTEX
  8
3
  5
3D5F
 10
273.999
 20
109.930
 30
0.00000
  70
    32
  0
VERTEX
  8
3
  5
3D60
 10
273.945
 20
109.908
 30
0.00000
  70
    32
  0
VERTEX
  8
3
  5
3D61
 10
273.892
 20
109.885
 30
0.00000
  70
    32
  0
VERTEX
  8
3
  5
3D62
 10
273.839
 20
109.861
 30
0.00000
  70
    32
  0
VERTEX
  8
3
  5
3D63
 10
273.787
 20
109.836
 30
0.00000
  70
    32
  0
VERTEX
  8
3
  5
3D64
 10
273.735
 20
109.809
 30
0.00000
  70
    32
  0
VERTEX
  8
3
  5
3D65
 10
273.684
 20
109.781
 30
0.00000
  70
    32
  0
VERTEX
  8
3
  5
3D66
 10
273.633
 20
109.751
 30
0.00000
  70
    32
  0
VERTEX
  8
3
  5
3D67
 10
273.584
 20
109.720
 30
0.00000
  70
    32
  0
VERTEX
  8
3
  5
3D68
 10
273.535
 20
109.688
 30
0.00000
  70
    32
  0
VERTEX
  8
3
  5
3D69
 10
273.486
 20
109.654
 30
0.00000
  70
    32
  0
VERTEX
  8
3
  5
3D6A
 10
273.439
 20
109.620
 30
0.00000
  70
    32
  0
VERTEX
  8
3
  5
3D6B
 10
273.392
 20
109.584
 30
0.00000
  70
    32
  0
VERTEX
  8
3
  5
3D6C
 10
273.346
 20
109.547
 30
0.00000
  70
    32
  0
VERTEX
  8
3
  5
3D6D
 10
273.301
 20
109.508
 30
0.00000
  70
    32
  0
VERTEX
  8
3
  5
3D6E
 10
273.257
 20
109.469
 30
0.00000
  70
    32
  0
VERTEX
  8
3
  5
3D6F
 10
273.214
 20
109.428
 30
0.00000
  70
    32
  0
VERTEX
  8
3
  5
3D70
 10
273.172
 20
109.386
 30
0.00000
  70
    32
  0
VERTEX
  8
3
  5
3D71
 10
273.131
 20
109.343
 30
0.00000
  70
    32
  0
VERTEX
  8
3
  5
3D72
 10
273.091
 20
109.300
 30
0.00000
  70
    32
  0
VERTEX
  8
3
  5
3D73
 10
273.052
 20
109.255
 30
0.00000
  70
    32
  0
VERTEX
  8
3
  5
3D74
 10
273.013
 20
109.209
 30
0.00000
  70
    32
  0
VERTEX
  8
3
  5
3D75
 10
272.976
 20
109.162
 30
0.00000
  70
    32
  0
VERTEX
  8
3
  5
3D76
 10
272.940
 20
109.114
 30
0.00000
  70
    32
  0
VERTEX
  8
3
  5
3D77
 10
272.905
 20
109.065
 30
0.00000
  70
    32
  0
VERTEX
  8
3
  5
3D78
 10
272.872
 20
109.015
 30
0.00000
  70
    32
  0
VERTEX
  8
3
  5
3D79
 10
272.839
 20
108.965
 30
0.00000
  70
    32
  0
VERTEX
  8
3
  5
3D7A
 10
272.808
 20
108.913
 30
0.00000
  70
    32
  0
VERTEX
  8
3
  5
3D7B
 10
272.778
 20
108.861
 30
0.00000
  70
    32
  0
VERTEX
  8
3
  5
3D7C
 10
272.749
 20
108.808
 30
0.00000
  70
    32
  0
VERTEX
  8
3
  5
3D7D
 10
272.721
 20
108.754
 30
0.00000
  70
    32
  0
VERTEX
  8
3
  5
3D7E
 10
272.694
 20
108.700
 30
0.00000
  70
    32
  0
VERTEX
  8
3
  5
3D7F
 10
272.669
 20
108.645
 30
0.00000
  70
    32
  0
VERTEX
  8
3
  5
3D80
 10
272.645
 20
108.589
 30
0.00000
  70
    32
  0
VERTEX
  8
3
  5
3D81
 10
272.622
 20
108.532
 30
0.00000
  70
    32
  0
VERTEX
  8
3
  5
3D82
 10
272.601
 20
108.475
 30
0.00000
  70
    32
  0
VERTEX
  8
3
  5
3D83
 10
272.581
 20
108.418
 30
0.00000
  70
    32
  0
VERTEX
  8
3
  5
3D84
 10
272.562
 20
108.360
 30
0.00000
  70
    32
  0
VERTEX
  8
3
  5
3D85
 10
272.545
 20
108.301
 30
0.00000
  70
    32
  0
VERTEX
  8
3
  5
3D86
 10
272.529
 20
108.242
 30
0.00000
  70
    32
  0
VERTEX
  8
3
  5
3D87
 10
272.514
 20
108.183
 30
0.00000
  70
    32
  0
VERTEX
  8
3
  5
3D88
 10
272.501
 20
108.123
 30
0.00000
  70
    32
  0
VERTEX
  8
3
  5
3D89
 10
272.489
 20
108.063
 30
0.00000
  70
    32
  0
VERTEX
  8
3
  5
3D8A
 10
272.478
 20
108.003
 30
0.00000
  70
    32
  0
VERTEX
  8
3
  5
3D8B
 10
272.469
 20
107.943
 30
0.00000
  70
    32
  0
VERTEX
  8
3
  5
3D8C
 10
272.461
 20
107.882
 30
0.00000
  70
    32
  0
VERTEX
  8
3
  5
3D8D
 10
272.455
 20
107.821
 30
0.00000
  70
    32
  0
VERTEX
  8
3
  5
3D8E
 10
272.450
 20
107.760
 30
0.00000
  70
    32
  0
VERTEX
  8
3
  5
3D8F
 10
272.447
 20
107.698
 30
0.00000
  70
    32
  0
VERTEX
  8
3
  5
3D90
 10
272.445
 20
107.637
 30
0.00000
  70
    32
  0
VERTEX
  8
3
  5
3D91
 10
272.444
 20
107.576
 30
0.00000
  70
    32
  0
VERTEX
  8
3
  5
3D92
 10
272.445
 20
107.514
 30
0.00000
  70
    32
  0
VERTEX
  8
3
  5
3D93
 10
272.447
 20
107.453
 30
0.00000
  70
    32
  0
VERTEX
  8
3
  5
3D94
 10
272.450
 20
107.392
 30
0.00000
  70
    32
  0
VERTEX
  8
3
  5
3D95
 10
272.455
 20
107.331
 30
0.00000
  70
    32
  0
VERTEX
  8
3
  5
3D96
 10
272.461
 20
107.270
 30
0.00000
  70
    32
  0
VERTEX
  8
3
  5
3D97
 10
272.469
 20
107.209
 30
0.00000
  70
    32
  0
VERTEX
  8
3
  5
3D98
 10
272.478
 20
107.148
 30
0.00000
  70
    32
  0
VERTEX
  8
3
  5
3D99
 10
272.489
 20
107.088
 30
0.00000
  70
    32
  0
VERTEX
  8
3
  5
3D9A
 10
272.501
 20
107.028
 30
0.00000
  70
    32
  0
VERTEX
  8
3
  5
3D9B
 10
272.514
 20
106.968
 30
0.00000
  70
    32
  0
VERTEX
  8
3
  5
3D9C
 10
272.529
 20
106.909
 30
0.00000
  70
    32
  0
VERTEX
  8
3
  5
3D9D
 10
272.545
 20
106.850
 30
0.00000
  70
    32
  0
VERTEX
  8
3
  5
3D9E
 10
272.562
 20
106.791
 30
0.00000
  70
    32
  0
VERTEX
  8
3
  5
3D9F
 10
272.581
 20
106.733
 30
0.00000
  70
    32
  0
VERTEX
  8
3
  5
3DA0
 10
272.601
 20
106.676
 30
0.00000
  70
    32
  0
VERTEX
  8
3
  5
3DA1
 10
272.622
 20
106.619
 30
0.00000
  70
    32
  0
VERTEX
  8
3
  5
3DA2
 10
272.645
 20
106.563
 30
0.00000
  70
    32
  0
VERTEX
  8
3
  5
3DA3
 10
272.669
 20
106.507
 30
0.00000
  70
    32
  0
VERTEX
  8
3
  5
3DA4
 10
272.694
 20
106.452
 30
0.00000
  70
    32
  0
VERTEX
  8
3
  5
3DA5
 10
272.721
 20
106.397
 30
0.00000
  70
    32
  0
VERTEX
  8
3
  5
3DA6
 10
272.749
 20
106.343
 30
0.00000
  70
    32
  0
VERTEX
  8
3
  5
3DA7
 10
272.778
 20
106.290
 30
0.00000
  70
    32
  0
VERTEX
  8
3
  5
3DA8
 10
272.808
 20
106.238
 30
0.00000
  70
    32
  0
VERTEX
  8
3
  5
3DA9
 10
272.839
 20
106.187
 30
0.00000
  70
    32
  0
VERTEX
  8
3
  5
3DAA
 10
272.872
 20
106.136
 30
0.00000
  70
    32
  0
VERTEX
  8
3
  5
3DAB
 10
272.905
 20
106.086
 30
0.00000
  70
    32
  0
VERTEX
  8
3
  5
3DAC
 10
272.940
 20
106.038
 30
0.00000
  70
    32
  0
VERTEX
  8
3
  5
3DAD
 10
272.976
 20
105.990
 30
0.00000
  70
    32
  0
VERTEX
  8
3
  5
3DAE
 10
273.013
 20
105.943
 30
0.00000
  70
    32
  0
VERTEX
  8
3
  5
3DAF
 10
273.052
 20
105.897
 30
0.00000
  70
    32
  0
VERTEX
  8
3
  5
3DB0
 10
273.091
 20
105.852
 30
0.00000
  70
    32
  0
VERTEX
  8
3
  5
3DB1
 10
273.131
 20
105.808
 30
0.00000
  70
    32
  0
VERTEX
  8
3
  5
3DB2
 10
273.172
 20
105.765
 30
0.00000
  70
    32
  0
VERTEX
  8
3
  5
3DB3
 10
273.214
 20
105.723
 30
0.00000
  70
    32
  0
VERTEX
  8
3
  5
3DB4
 10
273.257
 20
105.683
 30
0.00000
  70
    32
  0
VERTEX
  8
3
  5
3DB5
 10
273.301
 20
105.643
 30
0.00000
  70
    32
  0
VERTEX
  8
3
  5
3DB6
 10
273.346
 20
105.605
 30
0.00000
  70
    32
  0
VERTEX
  8
3
  5
3DB7
 10
273.392
 20
105.568
 30
0.00000
  70
    32
  0
VERTEX
  8
3
  5
3DB8
 10
273.439
 20
105.532
 30
0.00000
  70
    32
  0
VERTEX
  8
3
  5
3DB9
 10
273.486
 20
105.497
 30
0.00000
  70
    32
  0
VERTEX
  8
3
  5
3DBA
 10
273.535
 20
105.464
 30
0.00000
  70
    32
  0
VERTEX
  8
3
  5
3DBB
 10
273.584
 20
105.431
 30
0.00000
  70
    32
  0
VERTEX
  8
3
  5
3DBC
 10
273.633
 20
105.400
 30
0.00000
  70
    32
  0
VERTEX
  8
3
  5
3DBD
 10
273.684
 20
105.371
 30
0.00000
  70
    32
  0
VERTEX
  8
3
  5
3DBE
 10
273.735
 20
105.343
 30
0.00000
  70
    32
  0
VERTEX
  8
3
  5
3DBF
 10
273.787
 20
105.316
 30
0.00000
  70
    32
  0
VERTEX
  8
3
  5
3DC0
 10
273.839
 20
105.290
 30
0.00000
  70
    32
  0
VERTEX
  8
3
  5
3DC1
 10
273.892
 20
105.266
 30
0.00000
  70
    32
  0
VERTEX
  8
3
  5
3DC2
 10
273.945
 20
105.243
 30
0.00000
  70
    32
  0
VERTEX
  8
3
  5
3DC3
 10
273.999
 20
105.222
 30
0.00000
  70
    32
  0
VERTEX
  8
3
  5
3DC4
 10
274.054
 20
105.202
 30
0.00000
  70
    32
  0
VERTEX
  8
3
  5
3DC5
 10
274.109
 20
105.183
 30
0.00000
  70
    32
  0
VERTEX
  8
3
  5
3DC6
 10
274.164
 20
105.166
 30
0.00000
  70
    32
  0
VERTEX
  8
3
  5
3DC7
 10
274.220
 20
105.151
 30
0.00000
  70
    32
  0
VERTEX
  8
3
  5
3DC8
 10
274.276
 20
105.136
 30
0.00000
  70
    32
  0
VERTEX
  8
3
  5
3DC9
 10
274.332
 20
105.124
 30
0.00000
  70
    32
  0
VERTEX
  8
3
  5
3DCA
 10
274.389
 20
105.113
 30
0.00000
  70
    32
  0
VERTEX
  8
3
  5
3DCB
 10
274.445
 20
105.103
 30
0.00000
  70
    32
  0
VERTEX
  8
3
  5
3DCC
 10
274.502
 20
105.095
 30
0.00000
  70
    32
  0
VERTEX
  8
3
  5
3DCD
 10
274.560
 20
105.088
 30
0.00000
  70
    32
  0
VERTEX
  8
3
  5
3DCE
 10
274.617
 20
105.082
 30
0.00000
  70
    32
  0
VERTEX
  8
3
  5
3DCF
 10
274.674
 20
105.079
 30
0.00000
  70
    32
  0
VERTEX
  8
3
  5
3DD0
 10
274.732
 20
105.076
 30
0.00000
  70
    32
  0
VERTEX
  8
3
  5
3DD1
 10
274.790
 20
105.076
 30
0.00000
  70
    32
  0
SEQEND
  8
3
  5
3DD2
  0
POLYLINE
  5
1F8B
  8
0
 10
274.7895828713860737
 20
105.5086989396157122
 30
0.0
 66
     1
 70
     8
  0
VERTEX
  8
0
  5
3DD3
 10
274.790
 20
105.509
 30
0.00000
  70
    32
  0
VERTEX
  8
0
  5
3DD4
 10
274.824
 20
105.509
 30
0.00000
  70
    32
  0
VERTEX
  8
0
  5
3DD5
 10
274.858
 20
105.511
 30
0.00000
  70
    32
  0
VERTEX
  8
0
  5
3DD6
 10
274.892
 20
105.514
 30
0.00000
  70
    32
  0
VERTEX
  8
0
  5
3DD7
 10
274.926
 20
105.519
 30
0.00000
  70
    32
  0
VERTEX
  8
0
  5
3DD8
 10
274.960
 20
105.524
 30
0.00000
  70
    32
  0
VERTEX
  8
0
  5
3DD9
 10
274.994
 20
105.531
 30
0.00000
  70
    32
  0
VERTEX
  8
0
  5
3DDA
 10
275.028
 20
105.539
 30
0.00000
  70
    32
  0
VERTEX
  8
0
  5
3DDB
 10
275.061
 20
105.548
 30
0.00000
  70
    32
  0
VERTEX
  8
0
  5
3DDC
 10
275.095
 20
105.559
 30
0.00000
  70
    32
  0
VERTEX
  8
0
  5
3DDD
 10
275.128
 20
105.571
 30
0.00000
  70
    32
  0
VERTEX
  8
0
  5
3DDE
 10
275.161
 20
105.584
 30
0.00000
  70
    32
  0
VERTEX
  8
0
  5
3DDF
 10
275.194
 20
105.598
 30
0.00000
  70
    32
  0
VERTEX
  8
0
  5
3DE0
 10
275.227
 20
105.613
 30
0.00000
  70
    32
  0
VERTEX
  8
0
  5
3DE1
 10
275.259
 20
105.630
 30
0.00000
  70
    32
  0
VERTEX
  8
0
  5
3DE2
 10
275.291
 20
105.647
 30
0.00000
  70
    32
  0
VERTEX
  8
0
  5
3DE3
 10
275.323
 20
105.666
 30
0.00000
  70
    32
  0
VERTEX
  8
0
  5
3DE4
 10
275.354
 20
105.686
 30
0.00000
  70
    32
  0
VERTEX
  8
0
  5
3DE5
 10
275.385
 20
105.707
 30
0.00000
  70
    32
  0
VERTEX
  8
0
  5
3DE6
 10
275.416
 20
105.729
 30
0.00000
  70
    32
  0
VERTEX
  8
0
  5
3DE7
 10
275.446
 20
105.753
 30
0.00000
  70
    32
  0
VERTEX
  8
0
  5
3DE8
 10
275.476
 20
105.777
 30
0.00000
  70
    32
  0
VERTEX
  8
0
  5
3DE9
 10
275.506
 20
105.803
 30
0.00000
  70
    32
  0
VERTEX
  8
0
  5
3DEA
 10
275.535
 20
105.829
 30
0.00000
  70
    32
  0
VERTEX
  8
0
  5
3DEB
 10
275.563
 20
105.857
 30
0.00000
  70
    32
  0
VERTEX
  8
0
  5
3DEC
 10
275.592
 20
105.886
 30
0.00000
  70
    32
  0
VERTEX
  8
0
  5
3DED
 10
275.619
 20
105.915
 30
0.00000
  70
    32
  0
VERTEX
  8
0
  5
3DEE
 10
275.647
 20
105.946
 30
0.00000
  70
    32
  0
VERTEX
  8
0
  5
3DEF
 10
275.673
 20
105.978
 30
0.00000
  70
    32
  0
VERTEX
  8
0
  5
3DF0
 10
275.699
 20
106.011
 30
0.00000
  70
    32
  0
VERTEX
  8
0
  5
3DF1
 10
275.725
 20
106.044
 30
0.00000
  70
    32
  0
VERTEX
  8
0
  5
3DF2
 10
275.750
 20
106.079
 30
0.00000
  70
    32
  0
VERTEX
  8
0
  5
3DF3
 10
275.775
 20
106.114
 30
0.00000
  70
    32
  0
VERTEX
  8
0
  5
3DF4
 10
275.798
 20
106.150
 30
0.00000
  70
    32
  0
VERTEX
  8
0
  5
3DF5
 10
275.822
 20
106.188
 30
0.00000
  70
    32
  0
VERTEX
  8
0
  5
3DF6
 10
275.844
 20
106.226
 30
0.00000
  70
    32
  0
VERTEX
  8
0
  5
3DF7
 10
275.866
 20
106.264
 30
0.00000
  70
    32
  0
VERTEX
  8
0
  5
3DF8
 10
275.888
 20
106.304
 30
0.00000
  70
    32
  0
VERTEX
  8
0
  5
3DF9
 10
275.908
 20
106.344
 30
0.00000
  70
    32
  0
VERTEX
  8
0
  5
3DFA
 10
275.928
 20
106.386
 30
0.00000
  70
    32
  0
VERTEX
  8
0
  5
3DFB
 10
275.948
 20
106.427
 30
0.00000
  70
    32
  0
VERTEX
  8
0
  5
3DFC
 10
275.966
 20
106.470
 30
0.00000
  70
    32
  0
VERTEX
  8
0
  5
3DFD
 10
275.984
 20
106.513
 30
0.00000
  70
    32
  0
VERTEX
  8
0
  5
3DFE
 10
276.002
 20
106.557
 30
0.00000
  70
    32
  0
VERTEX
  8
0
  5
3DFF
 10
276.018
 20
106.601
 30
0.00000
  70
    32
  0
VERTEX
  8
0
  5
3E00
 10
276.034
 20
106.646
 30
0.00000
  70
    32
  0
VERTEX
  8
0
  5
3E01
 10
276.049
 20
106.692
 30
0.00000
  70
    32
  0
VERTEX
  8
0
  5
3E02
 10
276.063
 20
106.738
 30
0.00000
  70
    32
  0
VERTEX
  8
0
  5
3E03
 10
276.076
 20
106.785
 30
0.00000
  70
    32
  0
VERTEX
  8
0
  5
3E04
 10
276.089
 20
106.832
 30
0.00000
  70
    32
  0
VERTEX
  8
0
  5
3E05
 10
276.101
 20
106.879
 30
0.00000
  70
    32
  0
VERTEX
  8
0
  5
3E06
 10
276.112
 20
106.927
 30
0.00000
  70
    32
  0
VERTEX
  8
0
  5
3E07
 10
276.123
 20
106.976
 30
0.00000
  70
    32
  0
VERTEX
  8
0
  5
3E08
 10
276.132
 20
107.024
 30
0.00000
  70
    32
  0
VERTEX
  8
0
  5
3E09
 10
276.141
 20
107.073
 30
0.00000
  70
    32
  0
VERTEX
  8
0
  5
3E0A
 10
276.149
 20
107.123
 30
0.00000
  70
    32
  0
VERTEX
  8
0
  5
3E0B
 10
276.156
 20
107.172
 30
0.00000
  70
    32
  0
VERTEX
  8
0
  5
3E0C
 10
276.162
 20
107.222
 30
0.00000
  70
    32
  0
VERTEX
  8
0
  5
3E0D
 10
276.167
 20
107.272
 30
0.00000
  70
    32
  0
VERTEX
  8
0
  5
3E0E
 10
276.172
 20
107.323
 30
0.00000
  70
    32
  0
VERTEX
  8
0
  5
3E0F
 10
276.176
 20
107.373
 30
0.00000
  70
    32
  0
VERTEX
  8
0
  5
3E10
 10
276.179
 20
107.424
 30
0.00000
  70
    32
  0
VERTEX
  8
0
  5
3E11
 10
276.181
 20
107.474
 30
0.00000
  70
    32
  0
VERTEX
  8
0
  5
3E12
 10
276.182
 20
107.525
 30
0.00000
  70
    32
  0
VERTEX
  8
0
  5
3E13
 10
276.182
 20
107.576
 30
0.00000
  70
    32
  0
VERTEX
  8
0
  5
3E14
 10
276.182
 20
107.626
 30
0.00000
  70
    32
  0
VERTEX
  8
0
  5
3E15
 10
276.181
 20
107.677
 30
0.00000
  70
    32
  0
VERTEX
  8
0
  5
3E16
 10
276.179
 20
107.728
 30
0.00000
  70
    32
  0
VERTEX
  8
0
  5
3E17
 10
276.176
 20
107.778
 30
0.00000
  70
    32
  0
VERTEX
  8
0
  5
3E18
 10
276.172
 20
107.829
 30
0.00000
  70
    32
  0
VERTEX
  8
0
  5
3E19
 10
276.167
 20
107.879
 30
0.00000
  70
    32
  0
VERTEX
  8
0
  5
3E1A
 10
276.162
 20
107.929
 30
0.00000
  70
    32
  0
VERTEX
  8
0
  5
3E1B
 10
276.156
 20
107.979
 30
0.00000
  70
    32
  0
VERTEX
  8
0
  5
3E1C
 10
276.149
 20
108.029
 30
0.00000
  70
    32
  0
VERTEX
  8
0
  5
3E1D
 10
276.141
 20
108.078
 30
0.00000
  70
    32
  0
VERTEX
  8
0
  5
3E1E
 10
276.132
 20
108.127
 30
0.00000
  70
    32
  0
VERTEX
  8
0
  5
3E1F
 10
276.123
 20
108.176
 30
0.00000
  70
    32
  0
VERTEX
  8
0
  5
3E20
 10
276.112
 20
108.224
 30
0.00000
  70
    32
  0
VERTEX
  8
0
  5
3E21
 10
276.101
 20
108.272
 30
0.00000
  70
    32
  0
VERTEX
  8
0
  5
3E22
 10
276.089
 20
108.320
 30
0.00000
  70
    32
  0
VERTEX
  8
0
  5
3E23
 10
276.076
 20
108.367
 30
0.00000
  70
    32
  0
VERTEX
  8
0
  5
3E24
 10
276.063
 20
108.413
 30
0.00000
  70
    32
  0
VERTEX
  8
0
  5
3E25
 10
276.049
 20
108.459
 30
0.00000
  70
    32
  0
VERTEX
  8
0
  5
3E26
 10
276.034
 20
108.505
 30
0.00000
  70
    32
  0
VERTEX
  8
0
  5
3E27
 10
276.018
 20
108.550
 30
0.00000
  70
    32
  0
VERTEX
  8
0
  5
3E28
 10
276.002
 20
108.595
 30
0.00000
  70
    32
  0
VERTEX
  8
0
  5
3E29
 10
275.984
 20
108.638
 30
0.00000
  70
    32
  0
VERTEX
  8
0
  5
3E2A
 10
275.966
 20
108.682
 30
0.00000
  70
    32
  0
VERTEX
  8
0
  5
3E2B
 10
275.948
 20
108.724
 30
0.00000
  70
    32
  0
VERTEX
  8
0
  5
3E2C
 10
275.928
 20
108.766
 30
0.00000
  70
    32
  0
VERTEX
  8
0
  5
3E2D
 10
275.908
 20
108.807
 30
0.00000
  70
    32
  0
VERTEX
  8
0
  5
3E2E
 10
275.888
 20
108.847
 30
0.00000
  70
    32
  0
VERTEX
  8
0
  5
3E2F
 10
275.866
 20
108.887
 30
0.00000
  70
    32
  0
VERTEX
  8
0
  5
3E30
 10
275.844
 20
108.926
 30
0.00000
  70
    32
  0
VERTEX
  8
0
  5
3E31
 10
275.822
 20
108.964
 30
0.00000
  70
    32
  0
VERTEX
  8
0
  5
3E32
 10
275.798
 20
109.001
 30
0.00000
  70
    32
  0
VERTEX
  8
0
  5
3E33
 10
275.775
 20
109.037
 30
0.00000
  70
    32
  0
VERTEX
  8
0
  5
3E34
 10
275.750
 20
109.073
 30
0.00000
  70
    32
  0
VERTEX
  8
0
  5
3E35
 10
275.725
 20
109.107
 30
0.00000
  70
    32
  0
VERTEX
  8
0
  5
3E36
 10
275.699
 20
109.141
 30
0.00000
  70
    32
  0
VERTEX
  8
0
  5
3E37
 10
275.673
 20
109.174
 30
0.00000
  70
    32
  0
VERTEX
  8
0
  5
3E38
 10
275.647
 20
109.205
 30
0.00000
  70
    32
  0
VERTEX
  8
0
  5
3E39
 10
275.619
 20
109.236
 30
0.00000
  70
    32
  0
VERTEX
  8
0
  5
3E3A
 10
275.592
 20
109.266
 30
0.00000
  70
    32
  0
VERTEX
  8
0
  5
3E3B
 10
275.563
 20
109.294
 30
0.00000
  70
    32
  0
VERTEX
  8
0
  5
3E3C
 10
275.535
 20
109.322
 30
0.00000
  70
    32
  0
VERTEX
  8
0
  5
3E3D
 10
275.506
 20
109.349
 30
0.00000
  70
    32
  0
VERTEX
  8
0
  5
3E3E
 10
275.476
 20
109.374
 30
0.00000
  70
    32
  0
VERTEX
  8
0
  5
3E3F
 10
275.446
 20
109.399
 30
0.00000
  70
    32
  0
VERTEX
  8
0
  5
3E40
 10
275.416
 20
109.422
 30
0.00000
  70
    32
  0
VERTEX
  8
0
  5
3E41
 10
275.385
 20
109.444
 30
0.00000
  70
    32
  0
VERTEX
  8
0
  5
3E42
 10
275.354
 20
109.465
 30
0.00000
  70
    32
  0
VERTEX
  8
0
  5
3E43
 10
275.323
 20
109.485
 30
0.00000
  70
    32
  0
VERTEX
  8
0
  5
3E44
 10
275.291
 20
109.504
 30
0.00000
  70
    32
  0
VERTEX
  8
0
  5
3E45
 10
275.259
 20
109.522
 30
0.00000
  70
    32
  0
VERTEX
  8
0
  5
3E46
 10
275.227
 20
109.538
 30
0.00000
  70
    32
  0
VERTEX
  8
0
  5
3E47
 10
275.194
 20
109.554
 30
0.00000
  70
    32
  0
VERTEX
  8
0
  5
3E48
 10
275.161
 20
109.568
 30
0.00000
  70
    32
  0
VERTEX
  8
0
  5
3E49
 10
275.128
 20
109.581
 30
0.00000
  70
    32
  0
VERTEX
  8
0
  5
3E4A
 10
275.095
 20
109.592
 30
0.00000
  70
    32
  0
VERTEX
  8
0
  5
3E4B
 10
275.061
 20
109.603
 30
0.00000
  70
    32
  0
VERTEX
  8
0
  5
3E4C
 10
275.028
 20
109.612
 30
0.00000
  70
    32
  0
VERTEX
  8
0
  5
3E4D
 10
274.994
 20
109.620
 30
0.00000
  70
    32
  0
VERTEX
  8
0
  5
3E4E
 10
274.960
 20
109.627
 30
0.00000
  70
    32
  0
VERTEX
  8
0
  5
3E4F
 10
274.926
 20
109.633
 30
0.00000
  70
    32
  0
VERTEX
  8
0
  5
3E50
 10
274.892
 20
109.637
 30
0.00000
  70
    32
  0
VERTEX
  8
0
  5
3E51
 10
274.858
 20
109.640
 30
0.00000
  70
    32
  0
VERTEX
  8
0
  5
3E52
 10
274.824
 20
109.642
 30
0.00000
  70
    32
  0
VERTEX
  8
0
  5
3E53
 10
274.790
 20
109.643
 30
0.00000
  70
    32
  0
SEQEND
  8
0
  5
3E54
  0
POLYLINE
  5
1F8C
  8
0
 10
274.7895828713860737
 20
109.6426989396156984
 30
0.0
 66
     1
 70
     8
  0
VERTEX
  8
0
  5
3E55
 10
274.790
 20
109.643
 30
0.00000
  70
    32
  0
VERTEX
  8
0
  5
3E56
 10
274.736
 20
109.642
 30
0.00000
  70
    32
  0
VERTEX
  8
0
  5
3E57
 10
274.682
 20
109.640
 30
0.00000
  70
    32
  0
VERTEX
  8
0
  5
3E58
 10
274.629
 20
109.637
 30
0.00000
  70
    32
  0
VERTEX
  8
0
  5
3E59
 10
274.575
 20
109.633
 30
0.00000
  70
    32
  0
VERTEX
  8
0
  5
3E5A
 10
274.522
 20
109.627
 30
0.00000
  70
    32
  0
VERTEX
  8
0
  5
3E5B
 10
274.469
 20
109.620
 30
0.00000
  70
    32
  0
VERTEX
  8
0
  5
3E5C
 10
274.416
 20
109.612
 30
0.00000
  70
    32
  0
VERTEX
  8
0
  5
3E5D
 10
274.363
 20
109.603
 30
0.00000
  70
    32
  0
VERTEX
  8
0
  5
3E5E
 10
274.310
 20
109.592
 30
0.00000
  70
    32
  0
VERTEX
  8
0
  5
3E5F
 10
274.258
 20
109.581
 30
0.00000
  70
    32
  0
VERTEX
  8
0
  5
3E60
 10
274.206
 20
109.568
 30
0.00000
  70
    32
  0
VERTEX
  8
0
  5
3E61
 10
274.155
 20
109.554
 30
0.00000
  70
    32
  0
VERTEX
  8
0
  5
3E62
 10
274.103
 20
109.538
 30
0.00000
  70
    32
  0
VERTEX
  8
0
  5
3E63
 10
274.053
 20
109.522
 30
0.00000
  70
    32
  0
VERTEX
  8
0
  5
3E64
 10
274.002
 20
109.504
 30
0.00000
  70
    32
  0
VERTEX
  8
0
  5
3E65
 10
273.953
 20
109.485
 30
0.00000
  70
    32
  0
VERTEX
  8
0
  5
3E66
 10
273.903
 20
109.465
 30
0.00000
  70
    32
  0
VERTEX
  8
0
  5
3E67
 10
273.854
 20
109.444
 30
0.00000
  70
    32
  0
VERTEX
  8
0
  5
3E68
 10
273.806
 20
109.422
 30
0.00000
  70
    32
  0
VERTEX
  8
0
  5
3E69
 10
273.759
 20
109.399
 30
0.00000
  70
    32
  0
VERTEX
  8
0
  5
3E6A
 10
273.711
 20
109.374
 30
0.00000
  70
    32
  0
VERTEX
  8
0
  5
3E6B
 10
273.665
 20
109.349
 30
0.00000
  70
    32
  0
VERTEX
  8
0
  5
3E6C
 10
273.619
 20
109.322
 30
0.00000
  70
    32
  0
VERTEX
  8
0
  5
3E6D
 10
273.574
 20
109.294
 30
0.00000
  70
    32
  0
VERTEX
  8
0
  5
3E6E
 10
273.530
 20
109.266
 30
0.00000
  70
    32
  0
VERTEX
  8
0
  5
3E6F
 10
273.487
 20
109.236
 30
0.00000
  70
    32
  0
VERTEX
  8
0
  5
3E70
 10
273.444
 20
109.205
 30
0.00000
  70
    32
  0
VERTEX
  8
0
  5
3E71
 10
273.402
 20
109.174
 30
0.00000
  70
    32
  0
VERTEX
  8
0
  5
3E72
 10
273.361
 20
109.141
 30
0.00000
  70
    32
  0
VERTEX
  8
0
  5
3E73
 10
273.321
 20
109.107
 30
0.00000
  70
    32
  0
VERTEX
  8
0
  5
3E74
 10
273.281
 20
109.073
 30
0.00000
  70
    32
  0
VERTEX
  8
0
  5
3E75
 10
273.243
 20
109.037
 30
0.00000
  70
    32
  0
VERTEX
  8
0
  5
3E76
 10
273.205
 20
109.001
 30
0.00000
  70
    32
  0
VERTEX
  8
0
  5
3E77
 10
273.169
 20
108.964
 30
0.00000
  70
    32
  0
VERTEX
  8
0
  5
3E78
 10
273.133
 20
108.926
 30
0.00000
  70
    32
  0
VERTEX
  8
0
  5
3E79
 10
273.099
 20
108.887
 30
0.00000
  70
    32
  0
VERTEX
  8
0
  5
3E7A
 10
273.065
 20
108.847
 30
0.00000
  70
    32
  0
VERTEX
  8
0
  5
3E7B
 10
273.033
 20
108.807
 30
0.00000
  70
    32
  0
VERTEX
  8
0
  5
3E7C
 10
273.001
 20
108.766
 30
0.00000
  70
    32
  0
VERTEX
  8
0
  5
3E7D
 10
272.971
 20
108.724
 30
0.00000
  70
    32
  0
VERTEX
  8
0
  5
3E7E
 10
272.942
 20
108.682
 30
0.00000
  70
    32
  0
VERTEX
  8
0
  5
3E7F
 10
272.914
 20
108.638
 30
0.00000
  70
    32
  0
VERTEX
  8
0
  5
3E80
 10
272.886
 20
108.595
 30
0.00000
  70
    32
  0
VERTEX
  8
0
  5
3E81
 10
272.861
 20
108.550
 30
0.00000
  70
    32
  0
VERTEX
  8
0
  5
3E82
 10
272.836
 20
108.505
 30
0.00000
  70
    32
  0
VERTEX
  8
0
  5
3E83
 10
272.812
 20
108.459
 30
0.00000
  70
    32
  0
VERTEX
  8
0
  5
3E84
 10
272.790
 20
108.413
 30
0.00000
  70
    32
  0
VERTEX
  8
0
  5
3E85
 10
272.769
 20
108.367
 30
0.00000
  70
    32
  0
VERTEX
  8
0
  5
3E86
 10
272.749
 20
108.320
 30
0.00000
  70
    32
  0
VERTEX
  8
0
  5
3E87
 10
272.730
 20
108.272
 30
0.00000
  70
    32
  0
VERTEX
  8
0
  5
3E88
 10
272.713
 20
108.224
 30
0.00000
  70
    32
  0
VERTEX
  8
0
  5
3E89
 10
272.697
 20
108.176
 30
0.00000
  70
    32
  0
VERTEX
  8
0
  5
3E8A
 10
272.682
 20
108.127
 30
0.00000
  70
    32
  0
VERTEX
  8
0
  5
3E8B
 10
272.668
 20
108.078
 30
0.00000
  70
    32
  0
VERTEX
  8
0
  5
3E8C
 10
272.655
 20
108.029
 30
0.00000
  70
    32
  0
VERTEX
  8
0
  5
3E8D
 10
272.644
 20
107.979
 30
0.00000
  70
    32
  0
VERTEX
  8
0
  5
3E8E
 10
272.635
 20
107.929
 30
0.00000
  70
    32
  0
VERTEX
  8
0
  5
3E8F
 10
272.626
 20
107.879
 30
0.00000
  70
    32
  0
VERTEX
  8
0
  5
3E90
 10
272.619
 20
107.829
 30
0.00000
  70
    32
  0
VERTEX
  8
0
  5
3E91
 10
272.613
 20
107.778
 30
0.00000
  70
    32
  0
VERTEX
  8
0
  5
3E92
 10
272.608
 20
107.728
 30
0.00000
  70
    32
  0
VERTEX
  8
0
  5
3E93
 10
272.605
 20
107.677
 30
0.00000
  70
    32
  0
VERTEX
  8
0
  5
3E94
 10
272.603
 20
107.626
 30
0.00000
  70
    32
  0
VERTEX
  8
0
  5
3E95
 10
272.602
 20
107.576
 30
0.00000
  70
    32
  0
VERTEX
  8
0
  5
3E96
 10
272.603
 20
107.525
 30
0.00000
  70
    32
  0
VERTEX
  8
0
  5
3E97
 10
272.605
 20
107.474
 30
0.00000
  70
    32
  0
VERTEX
  8
0
  5
3E98
 10
272.608
 20
107.424
 30
0.00000
  70
    32
  0
VERTEX
  8
0
  5
3E99
 10
272.613
 20
107.373
 30
0.00000
  70
    32
  0
VERTEX
  8
0
  5
3E9A
 10
272.619
 20
107.323
 30
0.00000
  70
    32
  0
VERTEX
  8
0
  5
3E9B
 10
272.626
 20
107.272
 30
0.00000
  70
    32
  0
VERTEX
  8
0
  5
3E9C
 10
272.635
 20
107.222
 30
0.00000
  70
    32
  0
VERTEX
  8
0
  5
3E9D
 10
272.644
 20
107.172
 30
0.00000
  70
    32
  0
VERTEX
  8
0
  5
3E9E
 10
272.655
 20
107.123
 30
0.00000
  70
    32
  0
VERTEX
  8
0
  5
3E9F
 10
272.668
 20
107.073
 30
0.00000
  70
    32
  0
VERTEX
  8
0
  5
3EA0
 10
272.682
 20
107.024
 30
0.00000
  70
    32
  0
VERTEX
  8
0
  5
3EA1
 10
272.697
 20
106.976
 30
0.00000
  70
    32
  0
VERTEX
  8
0
  5
3EA2
 10
272.713
 20
106.927
 30
0.00000
  70
    32
  0
VERTEX
  8
0
  5
3EA3
 10
272.730
 20
106.879
 30
0.00000
  70
    32
  0
VERTEX
  8
0
  5
3EA4
 10
272.749
 20
106.832
 30
0.00000
  70
    32
  0
VERTEX
  8
0
  5
3EA5
 10
272.769
 20
106.785
 30
0.00000
  70
    32
  0
VERTEX
  8
0
  5
3EA6
 10
272.790
 20
106.738
 30
0.00000
  70
    32
  0
VERTEX
  8
0
  5
3EA7
 10
272.812
 20
106.692
 30
0.00000
  70
    32
  0
VERTEX
  8
0
  5
3EA8
 10
272.836
 20
106.646
 30
0.00000
  70
    32
  0
VERTEX
  8
0
  5
3EA9
 10
272.861
 20
106.601
 30
0.00000
  70
    32
  0
VERTEX
  8
0
  5
3EAA
 10
272.886
 20
106.557
 30
0.00000
  70
    32
  0
VERTEX
  8
0
  5
3EAB
 10
272.914
 20
106.513
 30
0.00000
  70
    32
  0
VERTEX
  8
0
  5
3EAC
 10
272.942
 20
106.470
 30
0.00000
  70
    32
  0
VERTEX
  8
0
  5
3EAD
 10
272.971
 20
106.427
 30
0.00000
  70
    32
  0
VERTEX
  8
0
  5
3EAE
 10
273.001
 20
106.386
 30
0.00000
  70
    32
  0
VERTEX
  8
0
  5
3EAF
 10
273.033
 20
106.344
 30
0.00000
  70
    32
  0
VERTEX
  8
0
  5
3EB0
 10
273.065
 20
106.304
 30
0.00000
  70
    32
  0
VERTEX
  8
0
  5
3EB1
 10
273.099
 20
106.264
 30
0.00000
  70
    32
  0
VERTEX
  8
0
  5
3EB2
 10
273.133
 20
106.226
 30
0.00000
  70
    32
  0
VERTEX
  8
0
  5
3EB3
 10
273.169
 20
106.188
 30
0.00000
  70
    32
  0
VERTEX
  8
0
  5
3EB4
 10
273.205
 20
106.150
 30
0.00000
  70
    32
  0
VERTEX
  8
0
  5
3EB5
 10
273.243
 20
106.114
 30
0.00000
  70
    32
  0
VERTEX
  8
0
  5
3EB6
 10
273.281
 20
106.079
 30
0.00000
  70
    32
  0
VERTEX
  8
0
  5
3EB7
 10
273.321
 20
106.044
 30
0.00000
  70
    32
  0
VERTEX
  8
0
  5
3EB8
 10
273.361
 20
106.011
 30
0.00000
  70
    32
  0
VERTEX
  8
0
  5
3EB9
 10
273.402
 20
105.978
 30
0.00000
  70
    32
  0
VERTEX
  8
0
  5
3EBA
 10
273.444
 20
105.946
 30
0.00000
  70
    32
  0
VERTEX
  8
0
  5
3EBB
 10
273.487
 20
105.915
 30
0.00000
  70
    32
  0
VERTEX
  8
0
  5
3EBC
 10
273.530
 20
105.886
 30
0.00000
  70
    32
  0
VERTEX
  8
0
  5
3EBD
 10
273.574
 20
105.857
 30
0.00000
  70
    32
  0
VERTEX
  8
0
  5
3EBE
 10
273.619
 20
105.829
 30
0.00000
  70
    32
  0
VERTEX
  8
0
  5
3EBF
 10
273.665
 20
105.803
 30
0.00000
  70
    32
  0
VERTEX
  8
0
  5
3EC0
 10
273.711
 20
105.777
 30
0.00000
  70
    32
  0
VERTEX
  8
0
  5
3EC1
 10
273.759
 20
105.753
 30
0.00000
  70
    32
  0
VERTEX
  8
0
  5
3EC2
 10
273.806
 20
105.729
 30
0.00000
  70
    32
  0
VERTEX
  8
0
  5
3EC3
 10
273.854
 20
105.707
 30
0.00000
  70
    32
  0
VERTEX
  8
0
  5
3EC4
 10
273.903
 20
105.686
 30
0.00000
  70
    32
  0
VERTEX
  8
0
  5
3EC5
 10
273.953
 20
105.666
 30
0.00000
  70
    32
  0
VERTEX
  8
0
  5
3EC6
 10
274.002
 20
105.647
 30
0.00000
  70
    32
  0
VERTEX
  8
0
  5
3EC7
 10
274.053
 20
105.630
 30
0.00000
  70
    32
  0
VERTEX
  8
0
  5
3EC8
 10
274.103
 20
105.613
 30
0.00000
  70
    32
  0
VERTEX
  8
0
  5
3EC9
 10
274.155
 20
105.598
 30
0.00000
  70
    32
  0
VERTEX
  8
0
  5
3ECA
 10
274.206
 20
105.584
 30
0.00000
  70
    32
  0
VERTEX
  8
0
  5
3ECB
 10
274.258
 20
105.571
 30
0.00000
  70
    32
  0
VERTEX
  8
0
  5
3ECC
 10
274.310
 20
105.559
 30
0.00000
  70
    32
  0
VERTEX
  8
0
  5
3ECD
 10
274.363
 20
105.548
 30
0.00000
  70
    32
  0
VERTEX
  8
0
  5
3ECE
 10
274.416
 20
105.539
 30
0.00000
  70
    32
  0
VERTEX
  8
0
  5
3ECF
 10
274.469
 20
105.531
 30
0.00000
  70
    32
  0
VERTEX
  8
0
  5
3ED0
 10
274.522
 20
105.524
 30
0.00000
  70
    32
  0
VERTEX
  8
0
  5
3ED1
 10
274.575
 20
105.519
 30
0.00000
  70
    32
  0
VERTEX
  8
0
  5
3ED2
 10
274.629
 20
105.514
 30
0.00000
  70
    32
  0
VERTEX
  8
0
  5
3ED3
 10
274.682
 20
105.511
 30
0.00000
  70
    32
  0
VERTEX
  8
0
  5
3ED4
 10
274.736
 20
105.509
 30
0.00000
  70
    32
  0
VERTEX
  8
0
  5
3ED5
 10
274.790
 20
105.509
 30
0.00000
  70
    32
  0
SEQEND
  8
0
  5
3ED6
  0
LINE
  5
1F93
  8
0
 10
154.9084084323941966
 20
57.0756988353074917
 30
0.0
 11
155.4084084323941966
 21
56.5756988353074917
 31
0.0
  0
LINE
  5
1F94
  8
0
 10
181.4084084323943102
 20
56.5756988353074917
 30
0.0
 11
181.9084084323943102
 21
57.0756988353074917
 31
0.0
  0
LINE
  5
1F95
  8
0
 10
181.9084084323943102
 20
57.0756988353074917
 30
0.0
 11
181.9084084323941966
 21
63.5756915623946313
 31
0.0
  0
LINE
  5
1F96
  8
0
 10
154.9084084323941966
 20
63.5757061082204018
 30
0.0
 11
154.9084084323941966
 21
57.0756988353074917
 31
0.0
  0
LINE
  5
1F97
  8
0
 10
181.4084084323943102
 20
56.5756988353074917
 30
0.0
 11
155.4084084323941966
 21
56.5756988353074917
 31
0.0
  0
LINE
  5
1F98
  8
0
 10
154.9084084323941966
 20
57.0756988353074917
 30
0.0
 11
181.9084084323943102
 21
57.0756988353074917
 31
0.0
  0
LINE
  5
1F99
  8
1
 10
168.4084084323945092
 20
51.5756988353074917
 30
0.0
 11
168.4084084323943102
 21
117.5756989396155063
 31
0.0
  0
LINE
  5
1F9C
  8
0
 10
183.4084080971182971
 20
90.3756915674470065
 30
0.0
 11
183.4084080971182971
 21
63.7756923849386794
 31
0.0
  0
LINE
  5
1F9D
  8
0
 10
183.2084084368648007
 20
63.5756908620400125
 30
0.0
 11
183.4084080971182971
 21
63.7756923849386794
 31
0.0
  0
LINE
  5
1F9E
  8
0
 10
183.2084084368648007
 20
63.5756908620400125
 30
0.0
 11
153.6083924815289095
 21
63.5757068085835613
 31
0.0
  0
LINE
  5
1F9F
  8
0
 10
153.4084087676706076
 20
63.7756923849386794
 30
0.0
 11
153.608408427924104
 21
63.5756908620400125
 31
0.0
  0
LINE
  5
1FA0
  8
0
 10
153.4084087676706076
 20
63.7756923849386794
 30
0.0
 11
153.4084087676706076
 21
90.3756915674470633
 31
0.0
  0
LINE
  5
1FA3
  8
0
 10
183.4084080971182971
 20
63.7756923849386794
 30
0.0
 11
153.4084087676706076
 21
63.7756923849387292
 31
0.0
  0
LINE
  5
1FA4
  8
0
 10
282.7895827243306144
 20
63.7756923849387078
 30
0.0
 11
252.7895833948828113
 21
63.7756923849387576
 31
0.0
  0
LINE
  5
1FA5
  8
0
 10
252.7895833948828113
 20
90.3756915674470918
 30
0.0
 11
282.7895827243306144
 21
90.3756915674470349
 31
0.0
  0
LINE
  5
1FA6
  8
0
 10
252.9895830551363076
 20
90.5756915623946668
 30
0.0
 11
252.7895833948828113
 21
90.3756915674470918
 31
0.0
  0
LINE
  5
1FA7
  8
0
 10
252.7895833948828113
 20
63.7756923849387078
 30
0.0
 11
252.7895833948828113
 21
90.3756915674470918
 31
0.0
  0
LINE
  5
1FA8
  8
0
 10
252.7895833948828113
 20
63.7756923849387078
 30
0.0
 11
252.9895830551363076
 21
63.5756908620400267
 31
0.0
  0
LINE
  5
1FA9
  8
0
 10
282.5895830640769759
 20
63.5756908620400267
 30
0.0
 11
252.989567108741312
 21
63.5757068085835826
 31
0.0
  0
LINE
  5
1FAA
  8
0
 10
282.5895830640769759
 20
63.5756908620400267
 30
0.0
 11
282.7895827243306144
 21
63.7756923849387078
 31
0.0
  0
LINE
  5
1FAB
  8
0
 10
282.7895827243306144
 20
90.3756915674470349
 30
0.0
 11
282.7895827243306144
 21
63.7756923849387078
 31
0.0
  0
LINE
  5
1FAC
  8
0
 10
282.7895827243306144
 20
90.3756915674470349
 30
0.0
 11
282.5895830640769759
 21
90.5756915623946099
 31
0.0
  0
LINE
  5
1FAD
  8
0
 10
252.9895830551363076
 20
90.5756915623946099
 30
0.0
 11
282.5895830640769759
 21
90.5756915623946099
 31
0.0
  0
LINE
  5
1FAE
  8
1
 10
267.7895830596066844
 20
51.5756988353075201
 30
0.0
 11
267.7895830596066844
 21
117.5756989396157053
 31
0.0
  0
LINE
  5
1FAF
  8
0
 10
254.2895830596067128
 20
57.0756988353075201
 30
0.0
 11
281.2895830596066844
 21
57.0756988353075201
 31
0.0
  0
LINE
  5
1FB0
  8
0
 10
280.7895830596066844
 20
56.5756988353075201
 30
0.0
 11
254.7895830596067128
 21
56.5756988353075201
 31
0.0
  0
LINE
  5
1FB1
  8
0
 10
254.2895830596065991
 20
63.5757061082204302
 30
0.0
 11
254.2895830596067128
 21
57.0756988353075201
 31
0.0
  0
LINE
  5
1FB2
  8
0
 10
281.2895830596066844
 20
57.0756988353075201
 30
0.0
 11
281.2895830596066844
 21
63.5756915623946668
 31
0.0
  0
LINE
  5
1FB3
  8
0
 10
280.7895830596066844
 20
56.5756988353075201
 30
0.0
 11
281.2895830596066844
 21
57.0756988353075201
 31
0.0
  0
LINE
  5
1FB4
  8
0
 10
254.2895830596067128
 20
57.0756988353075201
 30
0.0
 11
254.7895830596067128
 21
56.5756988353075201
 31
0.0
  0
LINE
  5
2007
  8
0
 10
153.4084084323945092
 20
103.5756989396156058
 30
0.0
 11
183.4084084323943955
 21
103.5756989396156058
 31
0.0
  0
LINE
  5
2008
  8
0
 10
183.4084084323943955
 20
111.5756989396156058
 30
0.0
 11
153.4084084323941966
 21
111.5756989396156058
 31
0.0
  0
LINE
  5
2009
  8
0
 10
154.4084084323941966
 20
112.5756989396156058
 30
0.0
 11
182.4084084323945092
 21
112.5756989396156058
 31
0.0
  0
LINE
  5
200A
  8
0
 10
153.4084084323945092
 20
103.5756989396156058
 30
0.0
 11
154.4084084323945092
 21
102.5756989396157053
 31
0.0
  0
LINE
  5
200B
  8
0
 10
153.4084084323941966
 20
111.5756989396156058
 30
0.0
 11
153.4084084323945092
 21
103.5756989396156058
 31
0.0
  0
LINE
  5
200C
  8
0
 10
154.4084084323941966
 20
112.5756989396156058
 30
0.0
 11
153.4084084323941966
 21
111.5756989396156058
 31
0.0
  0
LINE
  5
200D
  8
1
 10
268.8029532765352201
 20
107.5756989396157053
 30
0.0
 11
285.1232704668749989
 21
107.5756989396156058
 31
0.0
  0
LINE
  5
200E
  8
0
 10
253.7895830596065991
 20
112.5756989396157053
 30
0.0
 11
252.7895830596065991
 21
111.5756989396156058
 31
0.0
  0
LINE
  5
200F
  8
0
 10
252.7895830596065991
 20
111.5756989396156058
 30
0.0
 11
252.7895830596067128
 21
103.5756989396157053
 31
0.0
  0
LINE
  5
2010
  8
0
 10
252.7895830596067128
 20
103.5756989396157053
 30
0.0
 11
253.7895830596067128
 21
102.5756989396157053
 31
0.0
  0
LINE
  5
2011
  8
0
 10
253.7895830596065991
 20
112.5756989396157053
 30
0.0
 11
281.7895830596066844
 21
112.5756989396156058
 31
0.0
  0
LINE
  5
2014
  8
0
 10
252.7895830596067128
 20
103.5756989396157053
 30
0.0
 11
273.9423652893191274
 21
103.5756989396157053
 31
0.0
  0
LINE
  5
2017
  8
0
 10
182.4084084323945092
 20
112.5756989396156058
 30
0.0
 11
183.4084084323943955
 21
111.5756989396156058
 31
0.0
  0
LINE
  5
2018
  8
0
 10
183.4084084323943955
 20
103.5756989396156058
 30
0.0
 11
182.4084084323945092
 21
102.5756989396157053
 31
0.0
  0
LINE
  5
2019
  8
0
 10
183.4084084323943955
 20
111.5756989396156058
 30
0.0
 11
183.4084084323943955
 21
103.5756989396156058
 31
0.0
  0
LINE
  5
21E7
  8
1
 10
58.096301204972967
 20
107.5756989396156058
 30
0.0
 11
51.5272338051818721
 21
107.5756989396156058
 31
0.0
  0
LINE
  5
21E9
  8
0
 10
83.0272338051820498
 20
112.5756989396156058
 30
0.0
 11
84.0272338051820498
 21
111.5756989396155063
 31
0.0
  0
LINE
  5
21EA
  8
0
 10
83.0272338051820498
 20
112.5756989396156058
 30
0.0
 11
55.0272338051819432
 21
112.5756989396156058
 31
0.0
  0
LINE
  5
21EB
  8
0
 10
54.708323381166899
 20
111.5756989396156058
 30
0.0
 11
84.0272338051820498
 21
111.5756989396155063
 31
0.0
  0
LINE
  5
21EC
  8
0
 10
54.027233805181929
 20
103.5756989396155063
 30
0.0
 11
55.0272338051819432
 21
102.5756989396155063
 31
0.0
  0
LINE
  5
21ED
  8
0
 10
54.0272338051818224
 20
111.5756989396155063
 30
0.0
 11
54.027233805181929
 21
103.5756989396155063
 31
0.0
  0
LINE
  5
21EE
  8
0
 10
55.0272338051818224
 20
112.5756989396156058
 30
0.0
 11
54.0272338051818224
 21
111.5756989396155063
 31
0.0
  0
POLYLINE
  5
21EF
  8
0
 10
54.2766842864177761
 20
111.8251494208515879
 30
0.0
 66
     1
 70
     8
  0
VERTEX
  8
0
  5
3ED7
 10
54.2767
 20
111.825
 30
0.00000
  70
    32
  0
VERTEX
  8
0
  5
3ED8
 10
54.3093
 20
111.822
 30
0.00000
  70
    32
  0
VERTEX
  8
0
  5
3ED9
 10
54.3418
 20
111.817
 30
0.00000
  70
    32
  0
VERTEX
  8
0
  5
3EDA
 10
54.3743
 20
111.809
 30
0.00000
  70
    32
  0
VERTEX
  8
0
  5
3EDB
 10
54.4067
 20
111.798
 30
0.00000
  70
    32
  0
VERTEX
  8
0
  5
3EDC
 10
54.4390
 20
111.786
 30
0.00000
  70
    32
  0
VERTEX
  8
0
  5
3EDD
 10
54.4712
 20
111.770
 30
0.00000
  70
    32
  0
VERTEX
  8
0
  5
3EDE
 10
54.5033
 20
111.752
 30
0.00000
  70
    32
  0
VERTEX
  8
0
  5
3EDF
 10
54.5353
 20
111.732
 30
0.00000
  70
    32
  0
VERTEX
  8
0
  5
3EE0
 10
54.5670
 20
111.709
 30
0.00000
  70
    32
  0
VERTEX
  8
0
  5
3EE1
 10
54.5986
 20
111.684
 30
0.00000
  70
    32
  0
VERTEX
  8
0
  5
3EE2
 10
54.6300
 20
111.656
 30
0.00000
  70
    32
  0
VERTEX
  8
0
  5
3EE3
 10
54.6612
 20
111.626
 30
0.00000
  70
    32
  0
VERTEX
  8
0
  5
3EE4
 10
54.6921
 20
111.594
 30
0.00000
  70
    32
  0
VERTEX
  8
0
  5
3EE5
 10
54.7228
 20
111.559
 30
0.00000
  70
    32
  0
VERTEX
  8
0
  5
3EE6
 10
54.7532
 20
111.522
 30
0.00000
  70
    32
  0
VERTEX
  8
0
  5
3EE7
 10
54.7833
 20
111.482
 30
0.00000
  70
    32
  0
VERTEX
  8
0
  5
3EE8
 10
54.8131
 20
111.440
 30
0.00000
  70
    32
  0
VERTEX
  8
0
  5
3EE9
 10
54.8425
 20
111.396
 30
0.00000
  70
    32
  0
VERTEX
  8
0
  5
3EEA
 10
54.8716
 20
111.350
 30
0.00000
  70
    32
  0
VERTEX
  8
0
  5
3EEB
 10
54.9004
 20
111.301
 30
0.00000
  70
    32
  0
VERTEX
  8
0
  5
3EEC
 10
54.9288
 20
111.251
 30
0.00000
  70
    32
  0
VERTEX
  8
0
  5
3EED
 10
54.9567
 20
111.198
 30
0.00000
  70
    32
  0
VERTEX
  8
0
  5
3EEE
 10
54.9843
 20
111.143
 30
0.00000
  70
    32
  0
VERTEX
  8
0
  5
3EEF
 10
55.0114
 20
111.086
 30
0.00000
  70
    32
  0
VERTEX
  8
0
  5
3EF0
 10
55.0381
 20
111.026
 30
0.00000
  70
    32
  0
VERTEX
  8
0
  5
3EF1
 10
55.0643
 20
110.965
 30
0.00000
  70
    32
  0
VERTEX
  8
0
  5
3EF2
 10
55.0900
 20
110.902
 30
0.00000
  70
    32
  0
VERTEX
  8
0
  5
3EF3
 10
55.1153
 20
110.836
 30
0.00000
  70
    32
  0
VERTEX
  8
0
  5
3EF4
 10
55.1400
 20
110.769
 30
0.00000
  70
    32
  0
VERTEX
  8
0
  5
3EF5
 10
55.1643
 20
110.700
 30
0.00000
  70
    32
  0
VERTEX
  8
0
  5
3EF6
 10
55.1879
 20
110.629
 30
0.00000
  70
    32
  0
VERTEX
  8
0
  5
3EF7
 10
55.2111
 20
110.557
 30
0.00000
  70
    32
  0
VERTEX
  8
0
  5
3EF8
 10
55.2336
 20
110.482
 30
0.00000
  70
    32
  0
VERTEX
  8
0
  5
3EF9
 10
55.2556
 20
110.406
 30
0.00000
  70
    32
  0
VERTEX
  8
0
  5
3EFA
 10
55.2770
 20
110.328
 30
0.00000
  70
    32
  0
VERTEX
  8
0
  5
3EFB
 10
55.2978
 20
110.249
 30
0.00000
  70
    32
  0
VERTEX
  8
0
  5
3EFC
 10
55.3180
 20
110.168
 30
0.00000
  70
    32
  0
VERTEX
  8
0
  5
3EFD
 10
55.3376
 20
110.085
 30
0.00000
  70
    32
  0
VERTEX
  8
0
  5
3EFE
 10
55.3565
 20
110.001
 30
0.00000
  70
    32
  0
VERTEX
  8
0
  5
3EFF
 10
55.3747
 20
109.916
 30
0.00000
  70
    32
  0
VERTEX
  8
0
  5
3F00
 10
55.3923
 20
109.829
 30
0.00000
  70
    32
  0
VERTEX
  8
0
  5
3F01
 10
55.4093
 20
109.740
 30
0.00000
  70
    32
  0
VERTEX
  8
0
  5
3F02
 10
55.4255
 20
109.651
 30
0.00000
  70
    32
  0
VERTEX
  8
0
  5
3F03
 10
55.4411
 20
109.560
 30
0.00000
  70
    32
  0
VERTEX
  8
0
  5
3F04
 10
55.4560
 20
109.468
 30
0.00000
  70
    32
  0
VERTEX
  8
0
  5
3F05
 10
55.4701
 20
109.375
 30
0.00000
  70
    32
  0
VERTEX
  8
0
  5
3F06
 10
55.4835
 20
109.281
 30
0.00000
  70
    32
  0
VERTEX
  8
0
  5
3F07
 10
55.4963
 20
109.186
 30
0.00000
  70
    32
  0
VERTEX
  8
0
  5
3F08
 10
55.5082
 20
109.090
 30
0.00000
  70
    32
  0
VERTEX
  8
0
  5
3F09
 10
55.5195
 20
108.993
 30
0.00000
  70
    32
  0
VERTEX
  8
0
  5
3F0A
 10
55.5300
 20
108.896
 30
0.00000
  70
    32
  0
VERTEX
  8
0
  5
3F0B
 10
55.5397
 20
108.797
 30
0.00000
  70
    32
  0
VERTEX
  8
0
  5
3F0C
 10
55.5487
 20
108.698
 30
0.00000
  70
    32
  0
VERTEX
  8
0
  5
3F0D
 10
55.5569
 20
108.598
 30
0.00000
  70
    32
  0
VERTEX
  8
0
  5
3F0E
 10
55.5644
 20
108.497
 30
0.00000
  70
    32
  0
VERTEX
  8
0
  5
3F0F
 10
55.5711
 20
108.396
 30
0.00000
  70
    32
  0
VERTEX
  8
0
  5
3F10
 10
55.5770
 20
108.295
 30
0.00000
  70
    32
  0
VERTEX
  8
0
  5
3F11
 10
55.5821
 20
108.193
 30
0.00000
  70
    32
  0
VERTEX
  8
0
  5
3F12
 10
55.5864
 20
108.091
 30
0.00000
  70
    32
  0
VERTEX
  8
0
  5
3F13
 10
55.5900
 20
107.988
 30
0.00000
  70
    32
  0
VERTEX
  8
0
  5
3F14
 10
55.5927
 20
107.885
 30
0.00000
  70
    32
  0
VERTEX
  8
0
  5
3F15
 10
55.5947
 20
107.782
 30
0.00000
  70
    32
  0
VERTEX
  8
0
  5
3F16
 10
55.5959
 20
107.679
 30
0.00000
  70
    32
  0
VERTEX
  8
0
  5
3F17
 10
55.5963
 20
107.576
 30
0.00000
  70
    32
  0
VERTEX
  8
0
  5
3F18
 10
55.5959
 20
107.472
 30
0.00000
  70
    32
  0
VERTEX
  8
0
  5
3F19
 10
55.5947
 20
107.369
 30
0.00000
  70
    32
  0
VERTEX
  8
0
  5
3F1A
 10
55.5927
 20
107.266
 30
0.00000
  70
    32
  0
VERTEX
  8
0
  5
3F1B
 10
55.5900
 20
107.163
 30
0.00000
  70
    32
  0
VERTEX
  8
0
  5
3F1C
 10
55.5864
 20
107.061
 30
0.00000
  70
    32
  0
VERTEX
  8
0
  5
3F1D
 10
55.5821
 20
106.958
 30
0.00000
  70
    32
  0
VERTEX
  8
0
  5
3F1E
 10
55.5770
 20
106.856
 30
0.00000
  70
    32
  0
VERTEX
  8
0
  5
3F1F
 10
55.5711
 20
106.755
 30
0.00000
  70
    32
  0
VERTEX
  8
0
  5
3F20
 10
55.5644
 20
106.654
 30
0.00000
  70
    32
  0
VERTEX
  8
0
  5
3F21
 10
55.5569
 20
106.553
 30
0.00000
  70
    32
  0
VERTEX
  8
0
  5
3F22
 10
55.5487
 20
106.453
 30
0.00000
  70
    32
  0
VERTEX
  8
0
  5
3F23
 10
55.5397
 20
106.354
 30
0.00000
  70
    32
  0
VERTEX
  8
0
  5
3F24
 10
55.5300
 20
106.256
 30
0.00000
  70
    32
  0
VERTEX
  8
0
  5
3F25
 10
55.5195
 20
106.158
 30
0.00000
  70
    32
  0
VERTEX
  8
0
  5
3F26
 10
55.5082
 20
106.061
 30
0.00000
  70
    32
  0
VERTEX
  8
0
  5
3F27
 10
55.4963
 20
105.965
 30
0.00000
  70
    32
  0
VERTEX
  8
0
  5
3F28
 10
55.4835
 20
105.870
 30
0.00000
  70
    32
  0
VERTEX
  8
0
  5
3F29
 10
55.4701
 20
105.776
 30
0.00000
  70
    32
  0
VERTEX
  8
0
  5
3F2A
 10
55.4560
 20
105.683
 30
0.00000
  70
    32
  0
VERTEX
  8
0
  5
3F2B
 10
55.4411
 20
105.591
 30
0.00000
  70
    32
  0
VERTEX
  8
0
  5
3F2C
 10
55.4255
 20
105.500
 30
0.00000
  70
    32
  0
VERTEX
  8
0
  5
3F2D
 10
55.4093
 20
105.411
 30
0.00000
  70
    32
  0
VERTEX
  8
0
  5
3F2E
 10
55.3923
 20
105.323
 30
0.00000
  70
    32
  0
VERTEX
  8
0
  5
3F2F
 10
55.3747
 20
105.236
 30
0.00000
  70
    32
  0
VERTEX
  8
0
  5
3F30
 10
55.3565
 20
105.150
 30
0.00000
  70
    32
  0
VERTEX
  8
0
  5
3F31
 10
55.3376
 20
105.066
 30
0.00000
  70
    32
  0
VERTEX
  8
0
  5
3F32
 10
55.3180
 20
104.984
 30
0.00000
  70
    32
  0
VERTEX
  8
0
  5
3F33
 10
55.2978
 20
104.903
 30
0.00000
  70
    32
  0
VERTEX
  8
0
  5
3F34
 10
55.2770
 20
104.823
 30
0.00000
  70
    32
  0
VERTEX
  8
0
  5
3F35
 10
55.2556
 20
104.745
 30
0.00000
  70
    32
  0
VERTEX
  8
0
  5
3F36
 10
55.2336
 20
104.669
 30
0.00000
  70
    32
  0
VERTEX
  8
0
  5
3F37
 10
55.2111
 20
104.595
 30
0.00000
  70
    32
  0
VERTEX
  8
0
  5
3F38
 10
55.1879
 20
104.522
 30
0.00000
  70
    32
  0
VERTEX
  8
0
  5
3F39
 10
55.1643
 20
104.451
 30
0.00000
  70
    32
  0
VERTEX
  8
0
  5
3F3A
 10
55.1400
 20
104.382
 30
0.00000
  70
    32
  0
VERTEX
  8
0
  5
3F3B
 10
55.1153
 20
104.315
 30
0.00000
  70
    32
  0
VERTEX
  8
0
  5
3F3C
 10
55.0900
 20
104.250
 30
0.00000
  70
    32
  0
VERTEX
  8
0
  5
3F3D
 10
55.0643
 20
104.186
 30
0.00000
  70
    32
  0
VERTEX
  8
0
  5
3F3E
 10
55.0381
 20
104.125
 30
0.00000
  70
    32
  0
VERTEX
  8
0
  5
3F3F
 10
55.0114
 20
104.066
 30
0.00000
  70
    32
  0
VERTEX
  8
0
  5
3F40
 10
54.9843
 20
104.009
 30
0.00000
  70
    32
  0
VERTEX
  8
0
  5
3F41
 10
54.9567
 20
103.954
 30
0.00000
  70
    32
  0
VERTEX
  8
0
  5
3F42
 10
54.9288
 20
103.901
 30
0.00000
  70
    32
  0
VERTEX
  8
0
  5
3F43
 10
54.9004
 20
103.850
 30
0.00000
  70
    32
  0
VERTEX
  8
0
  5
3F44
 10
54.8716
 20
103.801
 30
0.00000
  70
    32
  0
VERTEX
  8
0
  5
3F45
 10
54.8425
 20
103.755
 30
0.00000
  70
    32
  0
VERTEX
  8
0
  5
3F46
 10
54.8131
 20
103.711
 30
0.00000
  70
    32
  0
VERTEX
  8
0
  5
3F47
 10
54.7833
 20
103.669
 30
0.00000
  70
    32
  0
VERTEX
  8
0
  5
3F48
 10
54.7532
 20
103.630
 30
0.00000
  70
    32
  0
VERTEX
  8
0
  5
3F49
 10
54.7228
 20
103.592
 30
0.00000
  70
    32
  0
VERTEX
  8
0
  5
3F4A
 10
54.6921
 20
103.558
 30
0.00000
  70
    32
  0
VERTEX
  8
0
  5
3F4B
 10
54.6612
 20
103.525
 30
0.00000
  70
    32
  0
VERTEX
  8
0
  5
3F4C
 10
54.6300
 20
103.495
 30
0.00000
  70
    32
  0
VERTEX
  8
0
  5
3F4D
 10
54.5986
 20
103.467
 30
0.00000
  70
    32
  0
VERTEX
  8
0
  5
3F4E
 10
54.5670
 20
103.442
 30
0.00000
  70
    32
  0
VERTEX
  8
0
  5
3F4F
 10
54.5353
 20
103.419
 30
0.00000
  70
    32
  0
VERTEX
  8
0
  5
3F50
 10
54.5033
 20
103.399
 30
0.00000
  70
    32
  0
VERTEX
  8
0
  5
3F51
 10
54.4712
 20
103.381
 30
0.00000
  70
    32
  0
VERTEX
  8
0
  5
3F52
 10
54.4390
 20
103.366
 30
0.00000
  70
    32
  0
VERTEX
  8
0
  5
3F53
 10
54.4067
 20
103.353
 30
0.00000
  70
    32
  0
VERTEX
  8
0
  5
3F54
 10
54.3743
 20
103.343
 30
0.00000
  70
    32
  0
VERTEX
  8
0
  5
3F55
 10
54.3418
 20
103.335
 30
0.00000
  70
    32
  0
VERTEX
  8
0
  5
3F56
 10
54.3093
 20
103.329
 30
0.00000
  70
    32
  0
VERTEX
  8
0
  5
3F57
 10
54.2767
 20
103.326
 30
0.00000
  70
    32
  0
SEQEND
  8
0
  5
3F58
  0
POLYLINE
  5
21F0
  8
3
 10
55.2404858086533679
 20
110.0756989396156058
 30
0.0
 66
     1
 70
     8
  0
VERTEX
  8
3
  5
3F59
 10
55.2405
 20
110.076
 30
0.00000
  70
    32
  0
VERTEX
  8
3
  5
3F5A
 10
55.2413
 20
110.076
 30
0.00000
  70
    32
  0
VERTEX
  8
3
  5
3F5B
 10
55.2421
 20
110.076
 30
0.00000
  70
    32
  0
VERTEX
  8
3
  5
3F5C
 10
55.2429
 20
110.076
 30
0.00000
  70
    32
  0
VERTEX
  8
3
  5
3F5D
 10
55.2437
 20
110.076
 30
0.00000
  70
    32
  0
VERTEX
  8
3
  5
3F5E
 10
55.2446
 20
110.076
 30
0.00000
  70
    32
  0
VERTEX
  8
3
  5
3F5F
 10
55.2454
 20
110.076
 30
0.00000
  70
    32
  0
VERTEX
  8
3
  5
3F60
 10
55.2462
 20
110.076
 30
0.00000
  70
    32
  0
VERTEX
  8
3
  5
3F61
 10
55.2470
 20
110.076
 30
0.00000
  70
    32
  0
VERTEX
  8
3
  5
3F62
 10
55.2478
 20
110.076
 30
0.00000
  70
    32
  0
VERTEX
  8
3
  5
3F63
 10
55.2486
 20
110.076
 30
0.00000
  70
    32
  0
VERTEX
  8
3
  5
3F64
 10
55.2495
 20
110.076
 30
0.00000
  70
    32
  0
VERTEX
  8
3
  5
3F65
 10
55.2503
 20
110.076
 30
0.00000
  70
    32
  0
VERTEX
  8
3
  5
3F66
 10
55.2511
 20
110.075
 30
0.00000
  70
    32
  0
VERTEX
  8
3
  5
3F67
 10
55.2519
 20
110.075
 30
0.00000
  70
    32
  0
VERTEX
  8
3
  5
3F68
 10
55.2527
 20
110.075
 30
0.00000
  70
    32
  0
VERTEX
  8
3
  5
3F69
 10
55.2535
 20
110.075
 30
0.00000
  70
    32
  0
VERTEX
  8
3
  5
3F6A
 10
55.2544
 20
110.075
 30
0.00000
  70
    32
  0
VERTEX
  8
3
  5
3F6B
 10
55.2552
 20
110.075
 30
0.00000
  70
    32
  0
VERTEX
  8
3
  5
3F6C
 10
55.2560
 20
110.075
 30
0.00000
  70
    32
  0
VERTEX
  8
3
  5
3F6D
 10
55.2568
 20
110.075
 30
0.00000
  70
    32
  0
VERTEX
  8
3
  5
3F6E
 10
55.2576
 20
110.075
 30
0.00000
  70
    32
  0
VERTEX
  8
3
  5
3F6F
 10
55.2584
 20
110.075
 30
0.00000
  70
    32
  0
VERTEX
  8
3
  5
3F70
 10
55.2593
 20
110.075
 30
0.00000
  70
    32
  0
VERTEX
  8
3
  5
3F71
 10
55.2601
 20
110.075
 30
0.00000
  70
    32
  0
VERTEX
  8
3
  5
3F72
 10
55.2609
 20
110.075
 30
0.00000
  70
    32
  0
VERTEX
  8
3
  5
3F73
 10
55.2617
 20
110.075
 30
0.00000
  70
    32
  0
VERTEX
  8
3
  5
3F74
 10
55.2625
 20
110.075
 30
0.00000
  70
    32
  0
VERTEX
  8
3
  5
3F75
 10
55.2633
 20
110.075
 30
0.00000
  70
    32
  0
VERTEX
  8
3
  5
3F76
 10
55.2641
 20
110.075
 30
0.00000
  70
    32
  0
VERTEX
  8
3
  5
3F77
 10
55.2650
 20
110.075
 30
0.00000
  70
    32
  0
VERTEX
  8
3
  5
3F78
 10
55.2658
 20
110.074
 30
0.00000
  70
    32
  0
VERTEX
  8
3
  5
3F79
 10
55.2666
 20
110.074
 30
0.00000
  70
    32
  0
VERTEX
  8
3
  5
3F7A
 10
55.2674
 20
110.074
 30
0.00000
  70
    32
  0
VERTEX
  8
3
  5
3F7B
 10
55.2682
 20
110.074
 30
0.00000
  70
    32
  0
VERTEX
  8
3
  5
3F7C
 10
55.2690
 20
110.074
 30
0.00000
  70
    32
  0
VERTEX
  8
3
  5
3F7D
 10
55.2699
 20
110.074
 30
0.00000
  70
    32
  0
VERTEX
  8
3
  5
3F7E
 10
55.2707
 20
110.074
 30
0.00000
  70
    32
  0
VERTEX
  8
3
  5
3F7F
 10
55.2715
 20
110.074
 30
0.00000
  70
    32
  0
VERTEX
  8
3
  5
3F80
 10
55.2723
 20
110.074
 30
0.00000
  70
    32
  0
VERTEX
  8
3
  5
3F81
 10
55.2731
 20
110.074
 30
0.00000
  70
    32
  0
VERTEX
  8
3
  5
3F82
 10
55.2739
 20
110.073
 30
0.00000
  70
    32
  0
VERTEX
  8
3
  5
3F83
 10
55.2747
 20
110.073
 30
0.00000
  70
    32
  0
VERTEX
  8
3
  5
3F84
 10
55.2756
 20
110.073
 30
0.00000
  70
    32
  0
VERTEX
  8
3
  5
3F85
 10
55.2764
 20
110.073
 30
0.00000
  70
    32
  0
VERTEX
  8
3
  5
3F86
 10
55.2772
 20
110.073
 30
0.00000
  70
    32
  0
VERTEX
  8
3
  5
3F87
 10
55.2780
 20
110.073
 30
0.00000
  70
    32
  0
VERTEX
  8
3
  5
3F88
 10
55.2788
 20
110.073
 30
0.00000
  70
    32
  0
VERTEX
  8
3
  5
3F89
 10
55.2796
 20
110.073
 30
0.00000
  70
    32
  0
VERTEX
  8
3
  5
3F8A
 10
55.2805
 20
110.073
 30
0.00000
  70
    32
  0
VERTEX
  8
3
  5
3F8B
 10
55.2813
 20
110.072
 30
0.00000
  70
    32
  0
VERTEX
  8
3
  5
3F8C
 10
55.2821
 20
110.072
 30
0.00000
  70
    32
  0
VERTEX
  8
3
  5
3F8D
 10
55.2829
 20
110.072
 30
0.00000
  70
    32
  0
VERTEX
  8
3
  5
3F8E
 10
55.2837
 20
110.072
 30
0.00000
  70
    32
  0
VERTEX
  8
3
  5
3F8F
 10
55.2845
 20
110.072
 30
0.00000
  70
    32
  0
VERTEX
  8
3
  5
3F90
 10
55.2853
 20
110.072
 30
0.00000
  70
    32
  0
VERTEX
  8
3
  5
3F91
 10
55.2862
 20
110.072
 30
0.00000
  70
    32
  0
VERTEX
  8
3
  5
3F92
 10
55.2870
 20
110.071
 30
0.00000
  70
    32
  0
VERTEX
  8
3
  5
3F93
 10
55.2878
 20
110.071
 30
0.00000
  70
    32
  0
VERTEX
  8
3
  5
3F94
 10
55.2886
 20
110.071
 30
0.00000
  70
    32
  0
VERTEX
  8
3
  5
3F95
 10
55.2894
 20
110.071
 30
0.00000
  70
    32
  0
VERTEX
  8
3
  5
3F96
 10
55.2902
 20
110.071
 30
0.00000
  70
    32
  0
VERTEX
  8
3
  5
3F97
 10
55.2910
 20
110.071
 30
0.00000
  70
    32
  0
VERTEX
  8
3
  5
3F98
 10
55.2919
 20
110.070
 30
0.00000
  70
    32
  0
VERTEX
  8
3
  5
3F99
 10
55.2927
 20
110.070
 30
0.00000
  70
    32
  0
VERTEX
  8
3
  5
3F9A
 10
55.2935
 20
110.070
 30
0.00000
  70
    32
  0
VERTEX
  8
3
  5
3F9B
 10
55.2943
 20
110.070
 30
0.00000
  70
    32
  0
VERTEX
  8
3
  5
3F9C
 10
55.2951
 20
110.070
 30
0.00000
  70
    32
  0
VERTEX
  8
3
  5
3F9D
 10
55.2959
 20
110.070
 30
0.00000
  70
    32
  0
VERTEX
  8
3
  5
3F9E
 10
55.2967
 20
110.069
 30
0.00000
  70
    32
  0
VERTEX
  8
3
  5
3F9F
 10
55.2976
 20
110.069
 30
0.00000
  70
    32
  0
VERTEX
  8
3
  5
3FA0
 10
55.2984
 20
110.069
 30
0.00000
  70
    32
  0
VERTEX
  8
3
  5
3FA1
 10
55.2992
 20
110.069
 30
0.00000
  70
    32
  0
VERTEX
  8
3
  5
3FA2
 10
55.3000
 20
110.069
 30
0.00000
  70
    32
  0
VERTEX
  8
3
  5
3FA3
 10
55.3008
 20
110.068
 30
0.00000
  70
    32
  0
VERTEX
  8
3
  5
3FA4
 10
55.3016
 20
110.068
 30
0.00000
  70
    32
  0
VERTEX
  8
3
  5
3FA5
 10
55.3024
 20
110.068
 30
0.00000
  70
    32
  0
VERTEX
  8
3
  5
3FA6
 10
55.3033
 20
110.068
 30
0.00000
  70
    32
  0
VERTEX
  8
3
  5
3FA7
 10
55.3041
 20
110.068
 30
0.00000
  70
    32
  0
VERTEX
  8
3
  5
3FA8
 10
55.3049
 20
110.067
 30
0.00000
  70
    32
  0
VERTEX
  8
3
  5
3FA9
 10
55.3057
 20
110.067
 30
0.00000
  70
    32
  0
VERTEX
  8
3
  5
3FAA
 10
55.3065
 20
110.067
 30
0.00000
  70
    32
  0
VERTEX
  8
3
  5
3FAB
 10
55.3073
 20
110.067
 30
0.00000
  70
    32
  0
VERTEX
  8
3
  5
3FAC
 10
55.3081
 20
110.067
 30
0.00000
  70
    32
  0
VERTEX
  8
3
  5
3FAD
 10
55.3089
 20
110.066
 30
0.00000
  70
    32
  0
VERTEX
  8
3
  5
3FAE
 10
55.3098
 20
110.066
 30
0.00000
  70
    32
  0
VERTEX
  8
3
  5
3FAF
 10
55.3106
 20
110.066
 30
0.00000
  70
    32
  0
VERTEX
  8
3
  5
3FB0
 10
55.3114
 20
110.066
 30
0.00000
  70
    32
  0
VERTEX
  8
3
  5
3FB1
 10
55.3122
 20
110.065
 30
0.00000
  70
    32
  0
VERTEX
  8
3
  5
3FB2
 10
55.3130
 20
110.065
 30
0.00000
  70
    32
  0
VERTEX
  8
3
  5
3FB3
 10
55.3138
 20
110.065
 30
0.00000
  70
    32
  0
VERTEX
  8
3
  5
3FB4
 10
55.3146
 20
110.065
 30
0.00000
  70
    32
  0
VERTEX
  8
3
  5
3FB5
 10
55.3154
 20
110.065
 30
0.00000
  70
    32
  0
VERTEX
  8
3
  5
3FB6
 10
55.3163
 20
110.064
 30
0.00000
  70
    32
  0
VERTEX
  8
3
  5
3FB7
 10
55.3171
 20
110.064
 30
0.00000
  70
    32
  0
VERTEX
  8
3
  5
3FB8
 10
55.3179
 20
110.064
 30
0.00000
  70
    32
  0
VERTEX
  8
3
  5
3FB9
 10
55.3187
 20
110.064
 30
0.00000
  70
    32
  0
VERTEX
  8
3
  5
3FBA
 10
55.3195
 20
110.063
 30
0.00000
  70
    32
  0
VERTEX
  8
3
  5
3FBB
 10
55.3203
 20
110.063
 30
0.00000
  70
    32
  0
VERTEX
  8
3
  5
3FBC
 10
55.3211
 20
110.063
 30
0.00000
  70
    32
  0
VERTEX
  8
3
  5
3FBD
 10
55.3219
 20
110.063
 30
0.00000
  70
    32
  0
VERTEX
  8
3
  5
3FBE
 10
55.3228
 20
110.062
 30
0.00000
  70
    32
  0
VERTEX
  8
3
  5
3FBF
 10
55.3236
 20
110.062
 30
0.00000
  70
    32
  0
VERTEX
  8
3
  5
3FC0
 10
55.3244
 20
110.062
 30
0.00000
  70
    32
  0
VERTEX
  8
3
  5
3FC1
 10
55.3252
 20
110.061
 30
0.00000
  70
    32
  0
VERTEX
  8
3
  5
3FC2
 10
55.3260
 20
110.061
 30
0.00000
  70
    32
  0
VERTEX
  8
3
  5
3FC3
 10
55.3268
 20
110.061
 30
0.00000
  70
    32
  0
VERTEX
  8
3
  5
3FC4
 10
55.3276
 20
110.061
 30
0.00000
  70
    32
  0
VERTEX
  8
3
  5
3FC5
 10
55.3284
 20
110.060
 30
0.00000
  70
    32
  0
VERTEX
  8
3
  5
3FC6
 10
55.3292
 20
110.060
 30
0.00000
  70
    32
  0
VERTEX
  8
3
  5
3FC7
 10
55.3301
 20
110.060
 30
0.00000
  70
    32
  0
VERTEX
  8
3
  5
3FC8
 10
55.3309
 20
110.059
 30
0.00000
  70
    32
  0
VERTEX
  8
3
  5
3FC9
 10
55.3317
 20
110.059
 30
0.00000
  70
    32
  0
VERTEX
  8
3
  5
3FCA
 10
55.3325
 20
110.059
 30
0.00000
  70
    32
  0
VERTEX
  8
3
  5
3FCB
 10
55.3333
 20
110.059
 30
0.00000
  70
    32
  0
VERTEX
  8
3
  5
3FCC
 10
55.3341
 20
110.058
 30
0.00000
  70
    32
  0
VERTEX
  8
3
  5
3FCD
 10
55.3349
 20
110.058
 30
0.00000
  70
    32
  0
VERTEX
  8
3
  5
3FCE
 10
55.3357
 20
110.058
 30
0.00000
  70
    32
  0
VERTEX
  8
3
  5
3FCF
 10
55.3365
 20
110.057
 30
0.00000
  70
    32
  0
VERTEX
  8
3
  5
3FD0
 10
55.3374
 20
110.057
 30
0.00000
  70
    32
  0
VERTEX
  8
3
  5
3FD1
 10
55.3382
 20
110.057
 30
0.00000
  70
    32
  0
VERTEX
  8
3
  5
3FD2
 10
55.3390
 20
110.056
 30
0.00000
  70
    32
  0
VERTEX
  8
3
  5
3FD3
 10
55.3398
 20
110.056
 30
0.00000
  70
    32
  0
VERTEX
  8
3
  5
3FD4
 10
55.3406
 20
110.056
 30
0.00000
  70
    32
  0
VERTEX
  8
3
  5
3FD5
 10
55.3414
 20
110.055
 30
0.00000
  70
    32
  0
VERTEX
  8
3
  5
3FD6
 10
55.3422
 20
110.055
 30
0.00000
  70
    32
  0
VERTEX
  8
3
  5
3FD7
 10
55.3430
 20
110.055
 30
0.00000
  70
    32
  0
VERTEX
  8
3
  5
3FD8
 10
55.3438
 20
110.054
 30
0.00000
  70
    32
  0
VERTEX
  8
3
  5
3FD9
 10
55.3446
 20
110.054
 30
0.00000
  70
    32
  0
SEQEND
  8
3
  5
3FDA
  0
POLYLINE
  5
21F1
  8
3
 10
55.2404858086533679
 20
105.0756989396156058
 30
0.0
 66
     1
 70
     8
  0
VERTEX
  8
3
  5
3FDB
 10
55.2405
 20
105.076
 30
0.00000
  70
    32
  0
VERTEX
  8
3
  5
3FDC
 10
55.2387
 20
105.076
 30
0.00000
  70
    32
  0
VERTEX
  8
3
  5
3FDD
 10
55.2369
 20
105.079
 30
0.00000
  70
    32
  0
VERTEX
  8
3
  5
3FDE
 10
55.2351
 20
105.082
 30
0.00000
  70
    32
  0
VERTEX
  8
3
  5
3FDF
 10
55.2332
 20
105.088
 30
0.00000
  70
    32
  0
VERTEX
  8
3
  5
3FE0
 10
55.2314
 20
105.095
 30
0.00000
  70
    32
  0
VERTEX
  8
3
  5
3FE1
 10
55.2297
 20
105.103
 30
0.00000
  70
    32
  0
VERTEX
  8
3
  5
3FE2
 10
55.2279
 20
105.113
 30
0.00000
  70
    32
  0
VERTEX
  8
3
  5
3FE3
 10
55.2261
 20
105.124
 30
0.00000
  70
    32
  0
VERTEX
  8
3
  5
3FE4
 10
55.2243
 20
105.136
 30
0.00000
  70
    32
  0
VERTEX
  8
3
  5
3FE5
 10
55.2225
 20
105.151
 30
0.00000
  70
    32
  0
VERTEX
  8
3
  5
3FE6
 10
55.2208
 20
105.166
 30
0.00000
  70
    32
  0
VERTEX
  8
3
  5
3FE7
 10
55.2191
 20
105.183
 30
0.00000
  70
    32
  0
VERTEX
  8
3
  5
3FE8
 10
55.2173
 20
105.202
 30
0.00000
  70
    32
  0
VERTEX
  8
3
  5
3FE9
 10
55.2156
 20
105.222
 30
0.00000
  70
    32
  0
VERTEX
  8
3
  5
3FEA
 10
55.2139
 20
105.243
 30
0.00000
  70
    32
  0
VERTEX
  8
3
  5
3FEB
 10
55.2122
 20
105.266
 30
0.00000
  70
    32
  0
VERTEX
  8
3
  5
3FEC
 10
55.2106
 20
105.290
 30
0.00000
  70
    32
  0
VERTEX
  8
3
  5
3FED
 10
55.2089
 20
105.316
 30
0.00000
  70
    32
  0
VERTEX
  8
3
  5
3FEE
 10
55.2073
 20
105.343
 30
0.00000
  70
    32
  0
VERTEX
  8
3
  5
3FEF
 10
55.2057
 20
105.371
 30
0.00000
  70
    32
  0
VERTEX
  8
3
  5
3FF0
 10
55.2041
 20
105.400
 30
0.00000
  70
    32
  0
VERTEX
  8
3
  5
3FF1
 10
55.2025
 20
105.431
 30
0.00000
  70
    32
  0
VERTEX
  8
3
  5
3FF2
 10
55.2010
 20
105.464
 30
0.00000
  70
    32
  0
VERTEX
  8
3
  5
3FF3
 10
55.1995
 20
105.497
 30
0.00000
  70
    32
  0
VERTEX
  8
3
  5
3FF4
 10
55.1980
 20
105.532
 30
0.00000
  70
    32
  0
VERTEX
  8
3
  5
3FF5
 10
55.1965
 20
105.568
 30
0.00000
  70
    32
  0
VERTEX
  8
3
  5
3FF6
 10
55.1951
 20
105.605
 30
0.00000
  70
    32
  0
VERTEX
  8
3
  5
3FF7
 10
55.1937
 20
105.643
 30
0.00000
  70
    32
  0
VERTEX
  8
3
  5
3FF8
 10
55.1923
 20
105.683
 30
0.00000
  70
    32
  0
VERTEX
  8
3
  5
3FF9
 10
55.1909
 20
105.723
 30
0.00000
  70
    32
  0
VERTEX
  8
3
  5
3FFA
 10
55.1896
 20
105.765
 30
0.00000
  70
    32
  0
VERTEX
  8
3
  5
3FFB
 10
55.1883
 20
105.808
 30
0.00000
  70
    32
  0
VERTEX
  8
3
  5
3FFC
 10
55.1870
 20
105.852
 30
0.00000
  70
    32
  0
VERTEX
  8
3
  5
3FFD
 10
55.1858
 20
105.897
 30
0.00000
  70
    32
  0
VERTEX
  8
3
  5
3FFE
 10
55.1846
 20
105.943
 30
0.00000
  70
    32
  0
VERTEX
  8
3
  5
3FFF
 10
55.1834
 20
105.990
 30
0.00000
  70
    32
  0
VERTEX
  8
3
  5
4000
 10
55.1823
 20
106.038
 30
0.00000
  70
    32
  0
VERTEX
  8
3
  5
4001
 10
55.1812
 20
106.086
 30
0.00000
  70
    32
  0
VERTEX
  8
3
  5
4002
 10
55.1801
 20
106.136
 30
0.00000
  70
    32
  0
VERTEX
  8
3
  5
4003
 10
55.1791
 20
106.187
 30
0.00000
  70
    32
  0
VERTEX
  8
3
  5
4004
 10
55.1781
 20
106.238
 30
0.00000
  70
    32
  0
VERTEX
  8
3
  5
4005
 10
55.1772
 20
106.290
 30
0.00000
  70
    32
  0
VERTEX
  8
3
  5
4006
 10
55.1763
 20
106.343
 30
0.00000
  70
    32
  0
VERTEX
  8
3
  5
4007
 10
55.1754
 20
106.397
 30
0.00000
  70
    32
  0
VERTEX
  8
3
  5
4008
 10
55.1745
 20
106.452
 30
0.00000
  70
    32
  0
VERTEX
  8
3
  5
4009
 10
55.1738
 20
106.507
 30
0.00000
  70
    32
  0
VERTEX
  8
3
  5
400A
 10
55.1730
 20
106.563
 30
0.00000
  70
    32
  0
VERTEX
  8
3
  5
400B
 10
55.1723
 20
106.619
 30
0.00000
  70
    32
  0
VERTEX
  8
3
  5
400C
 10
55.1716
 20
106.676
 30
0.00000
  70
    32
  0
VERTEX
  8
3
  5
400D
 10
55.1710
 20
106.733
 30
0.00000
  70
    32
  0
VERTEX
  8
3
  5
400E
 10
55.1704
 20
106.791
 30
0.00000
  70
    32
  0
VERTEX
  8
3
  5
400F
 10
55.1698
 20
106.850
 30
0.00000
  70
    32
  0
VERTEX
  8
3
  5
4010
 10
55.1693
 20
106.909
 30
0.00000
  70
    32
  0
VERTEX
  8
3
  5
4011
 10
55.1689
 20
106.968
 30
0.00000
  70
    32
  0
VERTEX
  8
3
  5
4012
 10
55.1685
 20
107.028
 30
0.00000
  70
    32
  0
VERTEX
  8
3
  5
4013
 10
55.1681
 20
107.088
 30
0.00000
  70
    32
  0
VERTEX
  8
3
  5
4014
 10
55.1677
 20
107.148
 30
0.00000
  70
    32
  0
VERTEX
  8
3
  5
4015
 10
55.1675
 20
107.209
 30
0.00000
  70
    32
  0
VERTEX
  8
3
  5
4016
 10
55.1672
 20
107.270
 30
0.00000
  70
    32
  0
VERTEX
  8
3
  5
4017
 10
55.1670
 20
107.331
 30
0.00000
  70
    32
  0
VERTEX
  8
3
  5
4018
 10
55.1669
 20
107.392
 30
0.00000
  70
    32
  0
VERTEX
  8
3
  5
4019
 10
55.1668
 20
107.453
 30
0.00000
  70
    32
  0
VERTEX
  8
3
  5
401A
 10
55.1667
 20
107.514
 30
0.00000
  70
    32
  0
VERTEX
  8
3
  5
401B
 10
55.1667
 20
107.576
 30
0.00000
  70
    32
  0
VERTEX
  8
3
  5
401C
 10
55.1667
 20
107.637
 30
0.00000
  70
    32
  0
VERTEX
  8
3
  5
401D
 10
55.1668
 20
107.698
 30
0.00000
  70
    32
  0
VERTEX
  8
3
  5
401E
 10
55.1669
 20
107.760
 30
0.00000
  70
    32
  0
VERTEX
  8
3
  5
401F
 10
55.1670
 20
107.821
 30
0.00000
  70
    32
  0
VERTEX
  8
3
  5
4020
 10
55.1672
 20
107.882
 30
0.00000
  70
    32
  0
VERTEX
  8
3
  5
4021
 10
55.1675
 20
107.943
 30
0.00000
  70
    32
  0
VERTEX
  8
3
  5
4022
 10
55.1677
 20
108.003
 30
0.00000
  70
    32
  0
VERTEX
  8
3
  5
4023
 10
55.1681
 20
108.063
 30
0.00000
  70
    32
  0
VERTEX
  8
3
  5
4024
 10
55.1685
 20
108.123
 30
0.00000
  70
    32
  0
VERTEX
  8
3
  5
4025
 10
55.1689
 20
108.183
 30
0.00000
  70
    32
  0
VERTEX
  8
3
  5
4026
 10
55.1693
 20
108.242
 30
0.00000
  70
    32
  0
VERTEX
  8
3
  5
4027
 10
55.1698
 20
108.301
 30
0.00000
  70
    32
  0
VERTEX
  8
3
  5
4028
 10
55.1704
 20
108.360
 30
0.00000
  70
    32
  0
VERTEX
  8
3
  5
4029
 10
55.1710
 20
108.418
 30
0.00000
  70
    32
  0
VERTEX
  8
3
  5
402A
 10
55.1716
 20
108.475
 30
0.00000
  70
    32
  0
VERTEX
  8
3
  5
402B
 10
55.1723
 20
108.532
 30
0.00000
  70
    32
  0
VERTEX
  8
3
  5
402C
 10
55.1730
 20
108.589
 30
0.00000
  70
    32
  0
VERTEX
  8
3
  5
402D
 10
55.1738
 20
108.645
 30
0.00000
  70
    32
  0
VERTEX
  8
3
  5
402E
 10
55.1745
 20
108.700
 30
0.00000
  70
    32
  0
VERTEX
  8
3
  5
402F
 10
55.1754
 20
108.754
 30
0.00000
  70
    32
  0
VERTEX
  8
3
  5
4030
 10
55.1763
 20
108.808
 30
0.00000
  70
    32
  0
VERTEX
  8
3
  5
4031
 10
55.1772
 20
108.861
 30
0.00000
  70
    32
  0
VERTEX
  8
3
  5
4032
 10
55.1781
 20
108.913
 30
0.00000
  70
    32
  0
VERTEX
  8
3
  5
4033
 10
55.1791
 20
108.965
 30
0.00000
  70
    32
  0
VERTEX
  8
3
  5
4034
 10
55.1801
 20
109.015
 30
0.00000
  70
    32
  0
VERTEX
  8
3
  5
4035
 10
55.1812
 20
109.065
 30
0.00000
  70
    32
  0
VERTEX
  8
3
  5
4036
 10
55.1823
 20
109.114
 30
0.00000
  70
    32
  0
VERTEX
  8
3
  5
4037
 10
55.1834
 20
109.162
 30
0.00000
  70
    32
  0
VERTEX
  8
3
  5
4038
 10
55.1846
 20
109.209
 30
0.00000
  70
    32
  0
VERTEX
  8
3
  5
4039
 10
55.1858
 20
109.255
 30
0.00000
  70
    32
  0
VERTEX
  8
3
  5
403A
 10
55.1870
 20
109.300
 30
0.00000
  70
    32
  0
VERTEX
  8
3
  5
403B
 10
55.1883
 20
109.343
 30
0.00000
  70
    32
  0
VERTEX
  8
3
  5
403C
 10
55.1896
 20
109.386
 30
0.00000
  70
    32
  0
VERTEX
  8
3
  5
403D
 10
55.1909
 20
109.428
 30
0.00000
  70
    32
  0
VERTEX
  8
3
  5
403E
 10
55.1923
 20
109.469
 30
0.00000
  70
    32
  0
VERTEX
  8
3
  5
403F
 10
55.1937
 20
109.508
 30
0.00000
  70
    32
  0
VERTEX
  8
3
  5
4040
 10
55.1951
 20
109.547
 30
0.00000
  70
    32
  0
VERTEX
  8
3
  5
4041
 10
55.1965
 20
109.584
 30
0.00000
  70
    32
  0
VERTEX
  8
3
  5
4042
 10
55.1980
 20
109.620
 30
0.00000
  70
    32
  0
VERTEX
  8
3
  5
4043
 10
55.1995
 20
109.654
 30
0.00000
  70
    32
  0
VERTEX
  8
3
  5
4044
 10
55.2010
 20
109.688
 30
0.00000
  70
    32
  0
VERTEX
  8
3
  5
4045
 10
55.2025
 20
109.720
 30
0.00000
  70
    32
  0
VERTEX
  8
3
  5
4046
 10
55.2041
 20
109.751
 30
0.00000
  70
    32
  0
VERTEX
  8
3
  5
4047
 10
55.2057
 20
109.781
 30
0.00000
  70
    32
  0
VERTEX
  8
3
  5
4048
 10
55.2073
 20
109.809
 30
0.00000
  70
    32
  0
VERTEX
  8
3
  5
4049
 10
55.2089
 20
109.836
 30
0.00000
  70
    32
  0
VERTEX
  8
3
  5
404A
 10
55.2106
 20
109.861
 30
0.00000
  70
    32
  0
VERTEX
  8
3
  5
404B
 10
55.2122
 20
109.885
 30
0.00000
  70
    32
  0
VERTEX
  8
3
  5
404C
 10
55.2139
 20
109.908
 30
0.00000
  70
    32
  0
VERTEX
  8
3
  5
404D
 10
55.2156
 20
109.930
 30
0.00000
  70
    32
  0
VERTEX
  8
3
  5
404E
 10
55.2173
 20
109.950
 30
0.00000
  70
    32
  0
VERTEX
  8
3
  5
404F
 10
55.2191
 20
109.968
 30
0.00000
  70
    32
  0
VERTEX
  8
3
  5
4050
 10
55.2208
 20
109.985
 30
0.00000
  70
    32
  0
VERTEX
  8
3
  5
4051
 10
55.2225
 20
110.001
 30
0.00000
  70
    32
  0
VERTEX
  8
3
  5
4052
 10
55.2243
 20
110.015
 30
0.00000
  70
    32
  0
VERTEX
  8
3
  5
4053
 10
55.2261
 20
110.028
 30
0.00000
  70
    32
  0
VERTEX
  8
3
  5
4054
 10
55.2279
 20
110.039
 30
0.00000
  70
    32
  0
VERTEX
  8
3
  5
4055
 10
55.2297
 20
110.049
 30
0.00000
  70
    32
  0
VERTEX
  8
3
  5
4056
 10
55.2314
 20
110.057
 30
0.00000
  70
    32
  0
VERTEX
  8
3
  5
4057
 10
55.2332
 20
110.064
 30
0.00000
  70
    32
  0
VERTEX
  8
3
  5
4058
 10
55.2351
 20
110.069
 30
0.00000
  70
    32
  0
VERTEX
  8
3
  5
4059
 10
55.2369
 20
110.073
 30
0.00000
  70
    32
  0
VERTEX
  8
3
  5
405A
 10
55.2387
 20
110.075
 30
0.00000
  70
    32
  0
VERTEX
  8
3
  5
405B
 10
55.2405
 20
110.076
 30
0.00000
  70
    32
  0
SEQEND
  8
3
  5
405C
  0
POLYLINE
  5
21F2
  8
3
 10
55.3446379204843737
 20
105.0972777303004051
 30
0.0
 66
     1
 70
     8
  0
VERTEX
  8
3
  5
405D
 10
55.3446
 20
105.097
 30
0.00000
  70
    32
  0
VERTEX
  8
3
  5
405E
 10
55.3438
 20
105.097
 30
0.00000
  70
    32
  0
VERTEX
  8
3
  5
405F
 10
55.3430
 20
105.097
 30
0.00000
  70
    32
  0
VERTEX
  8
3
  5
4060
 10
55.3422
 20
105.096
 30
0.00000
  70
    32
  0
VERTEX
  8
3
  5
4061
 10
55.3414
 20
105.096
 30
0.00000
  70
    32
  0
VERTEX
  8
3
  5
4062
 10
55.3406
 20
105.096
 30
0.00000
  70
    32
  0
VERTEX
  8
3
  5
4063
 10
55.3398
 20
105.095
 30
0.00000
  70
    32
  0
VERTEX
  8
3
  5
4064
 10
55.3390
 20
105.095
 30
0.00000
  70
    32
  0
VERTEX
  8
3
  5
4065
 10
55.3382
 20
105.095
 30
0.00000
  70
    32
  0
VERTEX
  8
3
  5
4066
 10
55.3374
 20
105.094
 30
0.00000
  70
    32
  0
VERTEX
  8
3
  5
4067
 10
55.3365
 20
105.094
 30
0.00000
  70
    32
  0
VERTEX
  8
3
  5
4068
 10
55.3357
 20
105.094
 30
0.00000
  70
    32
  0
VERTEX
  8
3
  5
4069
 10
55.3349
 20
105.093
 30
0.00000
  70
    32
  0
VERTEX
  8
3
  5
406A
 10
55.3341
 20
105.093
 30
0.00000
  70
    32
  0
VERTEX
  8
3
  5
406B
 10
55.3333
 20
105.093
 30
0.00000
  70
    32
  0
VERTEX
  8
3
  5
406C
 10
55.3325
 20
105.093
 30
0.00000
  70
    32
  0
VERTEX
  8
3
  5
406D
 10
55.3317
 20
105.092
 30
0.00000
  70
    32
  0
VERTEX
  8
3
  5
406E
 10
55.3309
 20
105.092
 30
0.00000
  70
    32
  0
VERTEX
  8
3
  5
406F
 10
55.3301
 20
105.092
 30
0.00000
  70
    32
  0
VERTEX
  8
3
  5
4070
 10
55.3292
 20
105.091
 30
0.00000
  70
    32
  0
VERTEX
  8
3
  5
4071
 10
55.3284
 20
105.091
 30
0.00000
  70
    32
  0
VERTEX
  8
3
  5
4072
 10
55.3276
 20
105.091
 30
0.00000
  70
    32
  0
VERTEX
  8
3
  5
4073
 10
55.3268
 20
105.091
 30
0.00000
  70
    32
  0
VERTEX
  8
3
  5
4074
 10
55.3260
 20
105.090
 30
0.00000
  70
    32
  0
VERTEX
  8
3
  5
4075
 10
55.3252
 20
105.090
 30
0.00000
  70
    32
  0
VERTEX
  8
3
  5
4076
 10
55.3244
 20
105.090
 30
0.00000
  70
    32
  0
VERTEX
  8
3
  5
4077
 10
55.3236
 20
105.089
 30
0.00000
  70
    32
  0
VERTEX
  8
3
  5
4078
 10
55.3228
 20
105.089
 30
0.00000
  70
    32
  0
VERTEX
  8
3
  5
4079
 10
55.3219
 20
105.089
 30
0.00000
  70
    32
  0
VERTEX
  8
3
  5
407A
 10
55.3211
 20
105.089
 30
0.00000
  70
    32
  0
VERTEX
  8
3
  5
407B
 10
55.3203
 20
105.088
 30
0.00000
  70
    32
  0
VERTEX
  8
3
  5
407C
 10
55.3195
 20
105.088
 30
0.00000
  70
    32
  0
VERTEX
  8
3
  5
407D
 10
55.3187
 20
105.088
 30
0.00000
  70
    32
  0
VERTEX
  8
3
  5
407E
 10
55.3179
 20
105.088
 30
0.00000
  70
    32
  0
VERTEX
  8
3
  5
407F
 10
55.3171
 20
105.087
 30
0.00000
  70
    32
  0
VERTEX
  8
3
  5
4080
 10
55.3163
 20
105.087
 30
0.00000
  70
    32
  0
VERTEX
  8
3
  5
4081
 10
55.3154
 20
105.087
 30
0.00000
  70
    32
  0
VERTEX
  8
3
  5
4082
 10
55.3146
 20
105.087
 30
0.00000
  70
    32
  0
VERTEX
  8
3
  5
4083
 10
55.3138
 20
105.086
 30
0.00000
  70
    32
  0
VERTEX
  8
3
  5
4084
 10
55.3130
 20
105.086
 30
0.00000
  70
    32
  0
VERTEX
  8
3
  5
4085
 10
55.3122
 20
105.086
 30
0.00000
  70
    32
  0
VERTEX
  8
3
  5
4086
 10
55.3114
 20
105.086
 30
0.00000
  70
    32
  0
VERTEX
  8
3
  5
4087
 10
55.3106
 20
105.085
 30
0.00000
  70
    32
  0
VERTEX
  8
3
  5
4088
 10
55.3098
 20
105.085
 30
0.00000
  70
    32
  0
VERTEX
  8
3
  5
4089
 10
55.3089
 20
105.085
 30
0.00000
  70
    32
  0
VERTEX
  8
3
  5
408A
 10
55.3081
 20
105.085
 30
0.00000
  70
    32
  0
VERTEX
  8
3
  5
408B
 10
55.3073
 20
105.085
 30
0.00000
  70
    32
  0
VERTEX
  8
3
  5
408C
 10
55.3065
 20
105.084
 30
0.00000
  70
    32
  0
VERTEX
  8
3
  5
408D
 10
55.3057
 20
105.084
 30
0.00000
  70
    32
  0
VERTEX
  8
3
  5
408E
 10
55.3049
 20
105.084
 30
0.00000
  70
    32
  0
VERTEX
  8
3
  5
408F
 10
55.3041
 20
105.084
 30
0.00000
  70
    32
  0
VERTEX
  8
3
  5
4090
 10
55.3033
 20
105.084
 30
0.00000
  70
    32
  0
VERTEX
  8
3
  5
4091
 10
55.3024
 20
105.083
 30
0.00000
  70
    32
  0
VERTEX
  8
3
  5
4092
 10
55.3016
 20
105.083
 30
0.00000
  70
    32
  0
VERTEX
  8
3
  5
4093
 10
55.3008
 20
105.083
 30
0.00000
  70
    32
  0
VERTEX
  8
3
  5
4094
 10
55.3000
 20
105.083
 30
0.00000
  70
    32
  0
VERTEX
  8
3
  5
4095
 10
55.2992
 20
105.083
 30
0.00000
  70
    32
  0
VERTEX
  8
3
  5
4096
 10
55.2984
 20
105.082
 30
0.00000
  70
    32
  0
VERTEX
  8
3
  5
4097
 10
55.2976
 20
105.082
 30
0.00000
  70
    32
  0
VERTEX
  8
3
  5
4098
 10
55.2967
 20
105.082
 30
0.00000
  70
    32
  0
VERTEX
  8
3
  5
4099
 10
55.2959
 20
105.082
 30
0.00000
  70
    32
  0
VERTEX
  8
3
  5
409A
 10
55.2951
 20
105.082
 30
0.00000
  70
    32
  0
VERTEX
  8
3
  5
409B
 10
55.2943
 20
105.081
 30
0.00000
  70
    32
  0
VERTEX
  8
3
  5
409C
 10
55.2935
 20
105.081
 30
0.00000
  70
    32
  0
VERTEX
  8
3
  5
409D
 10
55.2927
 20
105.081
 30
0.00000
  70
    32
  0
VERTEX
  8
3
  5
409E
 10
55.2919
 20
105.081
 30
0.00000
  70
    32
  0
VERTEX
  8
3
  5
409F
 10
55.2910
 20
105.081
 30
0.00000
  70
    32
  0
VERTEX
  8
3
  5
40A0
 10
55.2902
 20
105.081
 30
0.00000
  70
    32
  0
VERTEX
  8
3
  5
40A1
 10
55.2894
 20
105.080
 30
0.00000
  70
    32
  0
VERTEX
  8
3
  5
40A2
 10
55.2886
 20
105.080
 30
0.00000
  70
    32
  0
VERTEX
  8
3
  5
40A3
 10
55.2878
 20
105.080
 30
0.00000
  70
    32
  0
VERTEX
  8
3
  5
40A4
 10
55.2870
 20
105.080
 30
0.00000
  70
    32
  0
VERTEX
  8
3
  5
40A5
 10
55.2862
 20
105.080
 30
0.00000
  70
    32
  0
VERTEX
  8
3
  5
40A6
 10
55.2853
 20
105.080
 30
0.00000
  70
    32
  0
VERTEX
  8
3
  5
40A7
 10
55.2845
 20
105.080
 30
0.00000
  70
    32
  0
VERTEX
  8
3
  5
40A8
 10
55.2837
 20
105.079
 30
0.00000
  70
    32
  0
VERTEX
  8
3
  5
40A9
 10
55.2829
 20
105.079
 30
0.00000
  70
    32
  0
VERTEX
  8
3
  5
40AA
 10
55.2821
 20
105.079
 30
0.00000
  70
    32
  0
VERTEX
  8
3
  5
40AB
 10
55.2813
 20
105.079
 30
0.00000
  70
    32
  0
VERTEX
  8
3
  5
40AC
 10
55.2805
 20
105.079
 30
0.00000
  70
    32
  0
VERTEX
  8
3
  5
40AD
 10
55.2796
 20
105.079
 30
0.00000
  70
    32
  0
VERTEX
  8
3
  5
40AE
 10
55.2788
 20
105.079
 30
0.00000
  70
    32
  0
VERTEX
  8
3
  5
40AF
 10
55.2780
 20
105.078
 30
0.00000
  70
    32
  0
VERTEX
  8
3
  5
40B0
 10
55.2772
 20
105.078
 30
0.00000
  70
    32
  0
VERTEX
  8
3
  5
40B1
 10
55.2764
 20
105.078
 30
0.00000
  70
    32
  0
VERTEX
  8
3
  5
40B2
 10
55.2756
 20
105.078
 30
0.00000
  70
    32
  0
VERTEX
  8
3
  5
40B3
 10
55.2747
 20
105.078
 30
0.00000
  70
    32
  0
VERTEX
  8
3
  5
40B4
 10
55.2739
 20
105.078
 30
0.00000
  70
    32
  0
VERTEX
  8
3
  5
40B5
 10
55.2731
 20
105.078
 30
0.00000
  70
    32
  0
VERTEX
  8
3
  5
40B6
 10
55.2723
 20
105.078
 30
0.00000
  70
    32
  0
VERTEX
  8
3
  5
40B7
 10
55.2715
 20
105.078
 30
0.00000
  70
    32
  0
VERTEX
  8
3
  5
40B8
 10
55.2707
 20
105.078
 30
0.00000
  70
    32
  0
VERTEX
  8
3
  5
40B9
 10
55.2699
 20
105.077
 30
0.00000
  70
    32
  0
VERTEX
  8
3
  5
40BA
 10
55.2690
 20
105.077
 30
0.00000
  70
    32
  0
VERTEX
  8
3
  5
40BB
 10
55.2682
 20
105.077
 30
0.00000
  70
    32
  0
VERTEX
  8
3
  5
40BC
 10
55.2674
 20
105.077
 30
0.00000
  70
    32
  0
VERTEX
  8
3
  5
40BD
 10
55.2666
 20
105.077
 30
0.00000
  70
    32
  0
VERTEX
  8
3
  5
40BE
 10
55.2658
 20
105.077
 30
0.00000
  70
    32
  0
VERTEX
  8
3
  5
40BF
 10
55.2650
 20
105.077
 30
0.00000
  70
    32
  0
VERTEX
  8
3
  5
40C0
 10
55.2641
 20
105.077
 30
0.00000
  70
    32
  0
VERTEX
  8
3
  5
40C1
 10
55.2633
 20
105.077
 30
0.00000
  70
    32
  0
VERTEX
  8
3
  5
40C2
 10
55.2625
 20
105.077
 30
0.00000
  70
    32
  0
VERTEX
  8
3
  5
40C3
 10
55.2617
 20
105.077
 30
0.00000
  70
    32
  0
VERTEX
  8
3
  5
40C4
 10
55.2609
 20
105.077
 30
0.00000
  70
    32
  0
VERTEX
  8
3
  5
40C5
 10
55.2601
 20
105.076
 30
0.00000
  70
    32
  0
VERTEX
  8
3
  5
40C6
 10
55.2593
 20
105.076
 30
0.00000
  70
    32
  0
VERTEX
  8
3
  5
40C7
 10
55.2584
 20
105.076
 30
0.00000
  70
    32
  0
VERTEX
  8
3
  5
40C8
 10
55.2576
 20
105.076
 30
0.00000
  70
    32
  0
VERTEX
  8
3
  5
40C9
 10
55.2568
 20
105.076
 30
0.00000
  70
    32
  0
VERTEX
  8
3
  5
40CA
 10
55.2560
 20
105.076
 30
0.00000
  70
    32
  0
VERTEX
  8
3
  5
40CB
 10
55.2552
 20
105.076
 30
0.00000
  70
    32
  0
VERTEX
  8
3
  5
40CC
 10
55.2544
 20
105.076
 30
0.00000
  70
    32
  0
VERTEX
  8
3
  5
40CD
 10
55.2535
 20
105.076
 30
0.00000
  70
    32
  0
VERTEX
  8
3
  5
40CE
 10
55.2527
 20
105.076
 30
0.00000
  70
    32
  0
VERTEX
  8
3
  5
40CF
 10
55.2519
 20
105.076
 30
0.00000
  70
    32
  0
VERTEX
  8
3
  5
40D0
 10
55.2511
 20
105.076
 30
0.00000
  70
    32
  0
VERTEX
  8
3
  5
40D1
 10
55.2503
 20
105.076
 30
0.00000
  70
    32
  0
VERTEX
  8
3
  5
40D2
 10
55.2495
 20
105.076
 30
0.00000
  70
    32
  0
VERTEX
  8
3
  5
40D3
 10
55.2486
 20
105.076
 30
0.00000
  70
    32
  0
VERTEX
  8
3
  5
40D4
 10
55.2478
 20
105.076
 30
0.00000
  70
    32
  0
VERTEX
  8
3
  5
40D5
 10
55.2470
 20
105.076
 30
0.00000
  70
    32
  0
VERTEX
  8
3
  5
40D6
 10
55.2462
 20
105.076
 30
0.00000
  70
    32
  0
VERTEX
  8
3
  5
40D7
 10
55.2454
 20
105.076
 30
0.00000
  70
    32
  0
VERTEX
  8
3
  5
40D8
 10
55.2446
 20
105.076
 30
0.00000
  70
    32
  0
VERTEX
  8
3
  5
40D9
 10
55.2437
 20
105.076
 30
0.00000
  70
    32
  0
VERTEX
  8
3
  5
40DA
 10
55.2429
 20
105.076
 30
0.00000
  70
    32
  0
VERTEX
  8
3
  5
40DB
 10
55.2421
 20
105.076
 30
0.00000
  70
    32
  0
VERTEX
  8
3
  5
40DC
 10
55.2413
 20
105.076
 30
0.00000
  70
    32
  0
VERTEX
  8
3
  5
40DD
 10
55.2405
 20
105.076
 30
0.00000
  70
    32
  0
SEQEND
  8
3
  5
40DE
  0
LINE
  5
21F3
  8
0
 10
84.0272338051820498
 20
111.5756989396155063
 30
0.0
 11
84.0272338051819361
 21
103.5756989396155063
 31
0.0
  0
LINE
  5
21F4
  8
0
 10
84.0272338051819361
 20
103.5756989396155063
 30
0.0
 11
83.0272338051819361
 21
102.5756989396155063
 31
0.0
  0
LINE
  5
21F5
  8
0
 10
84.0272338051819361
 20
103.5756989396155063
 30
0.0
 11
54.708323381166899
 21
103.5756989396155063
 31
0.0
  0
LINE
  5
2217
  8
0
 10
82.5272338051821635
 20
57.0756988353074917
 30
0.0
 11
82.0272338051821635
 21
56.5756988353074917
 31
0.0
  0
LINE
  5
2218
  8
0
 10
56.0272338051821706
 20
56.5756988353074917
 30
0.0
 11
55.5272338051821635
 21
57.0756988353074917
 31
0.0
  0
LINE
  5
2219
  8
0
 10
55.5272338051821635
 20
57.0756988353074917
 30
0.0
 11
55.5272338051821635
 21
63.5756915623946313
 31
0.0
  0
LINE
  5
221A
  8
0
 10
82.5272338051822771
 20
63.5757061082204018
 30
0.0
 11
82.5272338051821635
 21
57.0756988353074917
 31
0.0
  0
LINE
  5
221B
  8
0
 10
56.0272338051821706
 20
56.5756988353074917
 30
0.0
 11
82.0272338051821635
 21
56.5756988353074917
 31
0.0
  0
LINE
  5
221C
  8
0
 10
82.5272338051821635
 20
57.0756988353074917
 30
0.0
 11
55.5272338051821635
 21
57.0756988353074917
 31
0.0
  0
LINE
  5
221D
  8
1
 10
69.0272338051821635
 20
51.5756988353074917
 30
0.0
 11
69.0272338051821635
 21
117.5756989396155063
 31
0.0
  0
LINE
  5
221F
  8
0
 10
54.0272341404582903
 20
90.3756915674469354
 30
0.0
 11
54.2272338007118222
 21
90.5756915623945247
 31
0.0
  0
LINE
  5
2220
  8
0
 10
54.0272341404582903
 20
90.3756915674469354
 30
0.0
 11
54.0272341404582903
 21
63.7756923849386794
 31
0.0
  0
LINE
  5
2221
  8
0
 10
54.2272338007118222
 20
63.5756908620400125
 30
0.0
 11
54.0272341404582903
 21
63.7756923849386794
 31
0.0
  0
LINE
  5
2222
  8
0
 10
54.2272338007118222
 20
63.5756908620400125
 30
0.0
 11
83.8272497560475358
 21
63.5757068085835613
 31
0.0
  0
LINE
  5
2223
  8
0
 10
84.0272334699060366
 20
63.7756923849386794
 30
0.0
 11
83.8272338096524976
 21
63.5756908620400125
 31
0.0
  0
LINE
  5
2224
  8
0
 10
84.0272334699060366
 20
63.7756923849386794
 30
0.0
 11
84.0272334699060366
 21
90.3756915674470633
 31
0.0
  0
LINE
  5
2241
  8
0
 10
84.0272334699060366
 20
90.3756915674470633
 30
0.0
 11
54.0272341404582903
 21
90.3756915674469354
 31
0.0
  0
LINE
  5
2242
  8
0
 10
54.0272341404582903
 20
63.7756923849386794
 30
0.0
 11
84.0272334699060366
 21
63.7756923849387292
 31
0.0
  0
LINE
  5
22A0
  8
1
 10
360.5352120538137228
 20
107.5756989396156058
 30
0.0
 11
334.2681376555256065
 21
107.5756989396156058
 31
0.0
  0
LINE
  5
22A2
  8
0
 10
336.3511922753854719
 20
103.5756989396156058
 30
0.0
 11
337.3511922753854719
 21
102.5756989396157053
 31
0.0
  0
LINE
  5
22A3
  8
0
 10
337.3511922753854151
 20
112.5756989396156058
 30
0.0
 11
336.3511922753854151
 21
111.5756989396156058
 31
0.0
  0
LINE
  5
22A4
  8
0
 10
365.3511922753855856
 20
112.5756989396156058
 30
0.0
 11
366.3511922753856993
 21
111.5756989396156058
 31
0.0
  0
LINE
  5
22A5
  8
0
 10
366.3511922753856993
 20
111.5756989396156058
 30
0.0
 11
366.3511922753854719
 21
103.5756989396156058
 31
0.0
  0
LINE
  5
22A6
  8
0
 10
366.3511922753854719
 20
103.5756989396156058
 30
0.0
 11
365.3511922753854719
 21
102.5756989396157053
 31
0.0
  0
LINE
  5
22A7
  8
0
 10
365.3511922753855856
 20
112.5756989396156058
 30
0.0
 11
337.3511922753854719
 21
112.5756989396156058
 31
0.0
  0
LINE
  5
22A8
  8
0
 10
336.3511922753854151
 20
111.5756989396156058
 30
0.0
 11
337.8338679531105981
 21
111.5756989396156058
 31
0.0
  0
LINE
  5
22A9
  8
0
 10
366.3511922753854719
 20
103.5756989396156058
 30
0.0
 11
355.3332996354578768
 21
103.5756989396156058
 31
0.0
  0
LINE
  5
22C9
  8
0
 10
336.3511926106617125
 20
63.7756923849386794
 30
0.0
 11
366.3511919401094019
 21
63.7756923849387292
 31
0.0
  0
LINE
  5
22CC
  8
0
 10
366.3511919401094019
 20
63.7756923849386794
 30
0.0
 11
366.3511919401094019
 21
90.3756915674470633
 31
0.0
  0
LINE
  5
22CD
  8
0
 10
366.3511919401094019
 20
63.7756923849386794
 30
0.0
 11
366.1511922798558771
 21
63.5756908620400125
 31
0.0
  0
LINE
  5
22CE
  8
0
 10
336.5511922709151804
 20
63.5756908620400125
 30
0.0
 11
366.1512082262510148
 21
63.5757068085835613
 31
0.0
  0
LINE
  5
22CF
  8
0
 10
336.5511922709151804
 20
63.5756908620400125
 30
0.0
 11
336.3511926106617125
 21
63.7756923849386794
 31
0.0
  0
LINE
  5
22D0
  8
0
 10
336.3511926106617125
 20
90.3756915674470065
 30
0.0
 11
336.3511926106617125
 21
63.7756923849386794
 31
0.0
  0
LINE
  5
22D3
  8
1
 10
351.3511922753854719
 20
51.5756988353074917
 30
0.0
 11
351.3511922753854719
 21
117.5756989396155063
 31
0.0
  0
LINE
  5
22D4
  8
0
 10
364.8511922753855856
 20
57.0756988353074917
 30
0.0
 11
337.8511922753854719
 21
57.0756988353074917
 31
0.0
  0
LINE
  5
22D5
  8
0
 10
338.3511922753854719
 20
56.5756988353074917
 30
0.0
 11
364.3511922753856993
 21
56.5756988353074917
 31
0.0
  0
LINE
  5
22D6
  8
0
 10
364.851192275385813
 20
63.5757061082204018
 30
0.0
 11
364.8511922753855856
 21
57.0756988353074917
 31
0.0
  0
LINE
  5
22D7
  8
0
 10
337.8511922753854719
 20
57.0756988353074917
 30
0.0
 11
337.8511922753855856
 21
63.5756915623946313
 31
0.0
  0
LINE
  5
22D8
  8
0
 10
338.3511922753854719
 20
56.5756988353074917
 30
0.0
 11
337.8511922753854719
 21
57.0756988353074917
 31
0.0
  0
LINE
  5
22D9
  8
0
 10
364.8511922753855856
 20
57.0756988353074917
 30
0.0
 11
364.3511922753856993
 21
56.5756988353074917
 31
0.0
  0
POLYLINE
  5
256F
  8
0
 66
     1
 10
0.0
 20
0.0
 30
0.0
  0
VERTEX
  5
2570
  8
0
 10
353.9559149403889933
 20
103.3256987086478063
 30
0.0
 42
0.1022043465889152
  0
VERTEX
  5
2571
  8
0
 10
355.5088728192617964
 20
103.6464876736502987
 30
0.0
 42
0.0999525827554545
  0
VERTEX
  5
2572
  8
0
 10
356.8404135917663211
 20
104.5704949562538957
 30
0.0
 42
0.0969246487631242
 70
     2
 50
46.1740725289086598
  0
VERTEX
  5
2573
  8
0
 10
357.7222082281630264
 20
105.9412002073776051
 30
0.0
 42
0.0948870961146523
 50
46.1740725289086598
  0
VERTEX
  5
2574
  8
0
 10
358.0352120538137228
 20
107.5756989396158048
 30
0.0
 42
0.0948870961148295
  0
VERTEX
  5
2575
  8
0
 10
357.7222082281624012
 20
109.2101976718544023
 30
0.0
 42
0.0969246487632256
  0
VERTEX
  5
2576
  8
0
 10
356.8404135917663211
 20
110.5809029229776002
 30
0.0
 42
0.0999525827554142
 70
     2
 50
133.8259274710912905
  0
VERTEX
  5
2577
  8
0
 10
355.5088728192620238
 20
111.5049102055811971
 30
0.0
 42
0.1022043465889006
 50
133.8259274710912905
  0
VERTEX
  5
2578
  8
0
 10
353.9559149403889933
 20
111.8256991705838033
 30
0.0
 42
0.1022043465889214
  0
SEQEND
  5
2579
  8
0
  0
POLYLINE
  5
257A
  8
0
 66
     1
 10
0.0
 20
0.0
 30
0.0
  0
VERTEX
  5
257B
  8
0
 10
353.9559149403889933
 20
103.3256987086478063
 30
0.0
 42
0.1022043465889152
  0
VERTEX
  5
257C
  8
0
 10
355.5088728192617964
 20
103.6464876736502987
 30
0.0
 42
0.0999525827554545
  0
VERTEX
  5
257D
  8
0
 10
356.8404135917663211
 20
104.5704949562538957
 30
0.0
 42
0.0969246487631242
 70
     2
 50
46.1740725289086598
  0
VERTEX
  5
257E
  8
0
 10
357.7222082281630264
 20
105.9412002073776051
 30
0.0
 42
0.0948870961146523
 50
46.1740725289086598
  0
VERTEX
  5
257F
  8
0
 10
358.0352120538137228
 20
107.5756989396158048
 30
0.0
 42
0.0948870961148295
  0
VERTEX
  5
2580
  8
0
 10
357.7222082281624012
 20
109.2101976718544023
 30
0.0
 42
0.0969246487632256
  0
VERTEX
  5
2581
  8
0
 10
356.8404135917663211
 20
110.5809029229776002
 30
0.0
 42
0.0999525827554142
 70
     2
 50
133.8259274710912905
  0
VERTEX
  5
2582
  8
0
 10
355.5088728192620238
 20
111.5049102055811971
 30
0.0
 42
0.1022043465888975
 50
133.8259274710912905
  0
VERTEX
  5
2583
  8
0
 10
353.9559149403889933
 20
111.8256991705838033
 30
0.0
 42
0.1022043465889214
  0
SEQEND
  5
2584
  8
0
  0
POLYLINE
  5
2585
  8
0
 66
     1
 10
0.0
 20
0.0
 30
0.0
  0
VERTEX
  5
2586
  8
0
 10
353.9559149403889933
 20
111.8256991705838033
 30
0.0
 42
0.0976258198763456
  0
VERTEX
  5
2587
  8
0
 10
352.3116287838311109
 20
111.5015602993098014
 30
0.0
 42
0.0981286416929715
  0
VERTEX
  5
2588
  8
0
 10
350.9213179400630906
 20
110.5809029229776002
 30
0.0
 42
0.0988482120037866
 70
     2
 50
224.7211692026062906
  0
VERTEX
  5
2589
  8
0
 10
349.9903823046358866
 20
109.2001279268043987
 30
0.0
 42
0.0993631123209296
 50
224.7211692026062906
  0
VERTEX
  5
258A
  8
0
 10
349.6643467061912816
 20
107.5756989396158048
 30
0.0
 42
0.0993631123208347
  0
VERTEX
  5
258B
  8
0
 10
349.990382304635375
 20
105.9512699524277934
 30
0.0
 42
0.098848212003788
  0
VERTEX
  5
258C
  8
0
 10
350.9213179400630906
 20
104.5704949562538957
 30
0.0
 42
0.0981286416928954
 70
     2
 50
315.2788307973937094
  0
VERTEX
  5
258D
  8
0
 10
352.3116287838305993
 20
103.6498375799216944
 30
0.0
 42
0.09762581987632
 50
315.2788307973937094
  0
VERTEX
  5
258E
  8
0
 10
353.9559149403889933
 20
103.3256987086478063
 30
0.0
 42
0.0976258198763262
  0
SEQEND
  5
258F
  8
0
  0
POLYLINE
  5
2590
  8
0
 66
     1
 10
0.0
 20
0.0
 30
0.0
 70
     1
  0
VERTEX
  5
2591
  8
0
 10
353.7807135831831147
 20
110.4756989027354024
 30
0.0
 42
0.0998161775597635
  0
VERTEX
  5
2592
  8
0
 10
352.6892178849238917
 20
110.2556082231776031
 30
0.0
 42
0.0990303044399048
  0
VERTEX
  5
2593
  8
0
 10
351.7601589950074867
 20
109.6263085789783958
 30
0.0
 42
0.0979388031780009
 70
     2
 50
225.4229739227533003
  0
VERTEX
  5
2594
  8
0
 10
351.1413691891236795
 20
108.6874989719966038
 30
0.0
 42
0.0971807251504692
 50
225.4229739227533003
  0
VERTEX
  5
2595
  8
0
 10
350.9232178810698883
 20
107.5756989396158048
 30
0.0
 42
0.09718072515021
  0
VERTEX
  5
2596
  8
0
 10
351.1413691891229973
 20
106.4638989072353041
 30
0.0
 42
0.0979388031778571
  0
VERTEX
  5
2597
  8
0
 10
351.7601589950074867
 20
105.5250893002531001
 30
0.0
 42
0.0990303044401347
 70
     2
 50
314.5770260772466145
  0
VERTEX
  5
2598
  8
0
 10
352.6892178849248012
 20
104.8957896560539069
 30
0.0
 42
0.099816177559845
 50
314.5770260772466145
  0
VERTEX
  5
2599
  8
0
 10
353.7807135831831147
 20
104.6756989764960935
 30
0.0
 42
0.0998161775598042
  0
VERTEX
  5
259A
  8
0
 10
354.8722092814418829
 20
104.8957896560539069
 30
0.0
 42
0.09903030444002
  0
VERTEX
  5
259B
  8
0
 10
355.8012681713586858
 20
105.5250893002531001
 30
0.0
 42
0.0979388031781419
 70
     2
 50
45.4229739227533713
  0
VERTEX
  5
259C
  8
0
 10
356.4200579772423225
 20
106.4638989072351052
 30
0.0
 42
0.0971807251505881
 50
45.4229739227533713
  0
VERTEX
  5
259D
  8
0
 10
356.6382092852963979
 20
107.5756989396158048
 30
0.0
 42
0.0971807251504088
  0
VERTEX
  5
259E
  8
0
 10
356.4200579772427773
 20
108.6874989719962059
 30
0.0
 42
0.0979388031780276
  0
VERTEX
  5
259F
  8
0
 10
355.8012681713586858
 20
109.6263085789783958
 30
0.0
 42
0.0990303044398055
 70
     2
 50
134.5770260772465861
  0
VERTEX
  5
25A0
  8
0
 10
354.8722092814426219
 20
110.2556082231777026
 30
0.0
 42
0.0998161775596926
 50
134.5770260772465861
  0
SEQEND
  5
25A1
  8
0
  0
POLYLINE
  5
25A2
  8
3
 66
     1
 10
0.0
 20
0.0
 30
0.0
 70
     1
  0
VERTEX
  5
25A3
  8
3
 10
353.7128074916553828
 20
110.0756989396158048
 30
0.0
 42
0.0998652311581154
  0
VERTEX
  5
25A4
  8
3
 10
352.7724390194875923
 20
109.8859866975151931
 30
0.0
 42
0.0990498824558336
  0
VERTEX
  5
25A5
  8
3
 10
351.9718968908554757
 20
109.3434658925821026
 30
0.0
 42
0.0979181976966268
 70
     2
 50
225.4385485867443037
  0
VERTEX
  5
25A6
  8
3
 10
351.4387673922378781
 20
108.5342107857084955
 30
0.0
 42
0.0971327287891391
 50
225.4385485867443037
  0
VERTEX
  5
25A7
  8
3
 10
351.2507881091250965
 20
107.5756989396158048
 30
0.0
 42
0.0971327287889537
  0
VERTEX
  5
25A8
  8
3
 10
351.4387673922374233
 20
106.6171870935234978
 30
0.0
 42
0.0979181976965587
  0
VERTEX
  5
25A9
  8
3
 10
351.9718968908554757
 20
105.8079319866493933
 30
0.0
 42
0.0990498824558168
 70
     2
 50
314.561451413255611
  0
VERTEX
  5
25AA
  8
3
 10
352.7724390194874218
 20
105.2654111817164022
 30
0.0
 42
0.0998652311581504
 50
314.561451413255611
  0
VERTEX
  5
25AB
  8
3
 10
353.7128074916553828
 20
105.0756989396158048
 30
0.0
 42
0.0998652311580454
  0
VERTEX
  5
25AC
  8
3
 10
354.6531759638227754
 20
105.2654111817161038
 30
0.0
 42
0.0990498824558687
  0
VERTEX
  5
25AD
  8
3
 10
355.4537180924552899
 20
105.8079319866493933
 30
0.0
 42
0.097918197696494
 70
     2
 50
45.4385485867443535
  0
VERTEX
  5
25AE
  8
3
 10
355.9868475910735128
 20
106.6171870935232988
 30
0.0
 42
0.0971327287889311
 50
45.4385485867443535
  0
VERTEX
  5
25AF
  8
3
 10
356.1748268741857828
 20
107.5756989396158048
 30
0.0
 42
0.0971327287889085
  0
VERTEX
  5
25B0
  8
3
 10
355.9868475910735128
 20
108.5342107857084955
 30
0.0
 42
0.0979181976964289
  0
VERTEX
  5
25B1
  8
3
 10
355.4537180924552899
 20
109.3434658925821026
 30
0.0
 42
0.0990498824559495
 70
     2
 50
134.561451413255611
  0
VERTEX
  5
25B2
  8
3
 10
354.6531759638231165
 20
109.8859866975150936
 30
0.0
 42
0.0998652311581978
 50
134.561451413255611
  0
SEQEND
  5
25B3
  8
3
  0
POLYLINE
  5
25B4
  8
0
 66
     1
 10
0.0
 20
0.0
 30
0.0
 70
     1
  0
VERTEX
  5
25B5
  8
0
 10
353.6433482085807896
 20
109.6756989396158986
 30
0.0
 42
0.099865230634072
  0
VERTEX
  5
25B6
  8
0
 10
352.853438686793595
 20
109.5163406560622974
 30
0.0
 42
0.0990498822468826
  0
VERTEX
  5
25B7
  8
0
 10
352.1809832954180024
 20
109.0606231801075978
 30
0.0
 42
0.0979181979165839
 70
     2
 50
225.4385484204287877
  0
VERTEX
  5
25B8
  8
0
 10
351.7331545137985813
 20
108.3808488897635982
 30
0.0
 42
0.0971327293011444
 50
225.4385484204287877
  0
VERTEX
  5
25B9
  8
0
 10
351.5752519152475202
 20
107.5756989396158048
 30
0.0
 42
0.0971327293014754
  0
VERTEX
  5
25BA
  8
0
 10
351.7331545137992066
 20
106.7705489894673008
 30
0.0
 42
0.0979181979167043
  0
VERTEX
  5
25BB
  8
0
 10
352.1809832954180024
 20
106.090774699123898
 30
0.0
 42
0.0990498822469581
 70
     2
 50
314.561451579571326
  0
VERTEX
  5
25BC
  8
0
 10
352.8534386867931971
 20
105.6350572231696958
 30
0.0
 42
0.099865230634295
 50
314.561451579571326
  0
VERTEX
  5
25BD
  8
0
 10
353.6433482085807896
 20
105.4756989396155973
 30
0.0
 42
0.099865230634072
  0
VERTEX
  5
25BE
  8
0
 10
354.4332577303680978
 20
105.6350572231692979
 30
0.0
 42
0.0990498822468824
  0
VERTEX
  5
25BF
  8
0
 10
355.1057131217436904
 20
106.090774699123898
 30
0.0
 42
0.097918197916742
 70
     2
 50
45.438548420428738
  0
VERTEX
  5
25C0
  8
0
 10
355.5535419033627136
 20
106.7705489894677982
 30
0.0
 42
0.097132729301392
 50
45.438548420428738
  0
VERTEX
  5
25C1
  8
0
 10
355.7114445019141726
 20
107.5756989396158048
 30
0.0
 42
0.097132729301583
  0
VERTEX
  5
25C2
  8
0
 10
355.5535419033624862
 20
108.3808488897632998
 30
0.0
 42
0.0979181979170155
  0
VERTEX
  5
25C3
  8
0
 10
355.1057131217436904
 20
109.0606231801075978
 30
0.0
 42
0.0990498822468194
 70
     2
 50
134.5614515795712975
  0
VERTEX
  5
25C4
  8
0
 10
354.4332577303687231
 20
109.5163406560618995
 30
0.0
 42
0.099865230634197
 50
134.5614515795712975
  0
SEQEND
  5
25C5
  8
0
  0
LINE
  5
25C6
  8
0
 10
355.3332996354590136
 20
111.5756989396156058
 30
0.0
 11
366.3511922753856993
 21
111.5756989396156058
 31
0.0
  0
LINE
  5
25C9
  8
0
 10
352.505612755614095
 20
103.5756989396156058
 30
0.0
 11
346.4004138078627193
 21
103.5756989396156058
 31
0.0
  0
LINE
  5
263D
  8
0
 10
336.3511926106612009
 20
90.3756915674470065
 30
0.0
 11
366.3511919401091745
 21
90.3756915674470065
 31
0.0
  0
LINE
  5
263E
  8
0
 10
366.1511850069550746
 20
90.5756988353074348
 30
0.0
 11
336.5511995438155282
 21
90.5756988353074348
 31
0.0
  0
LINE
  5
263F
  8
0
 10
366.3511919401091745
 20
90.3756915674470065
 30
0.0
 11
366.1511922798557066
 21
90.5756915623945673
 31
0.0
  0
LINE
  5
2640
  8
0
 10
336.5511922709150099
 20
90.5756915623945673
 30
0.0
 11
336.3511926106614283
 21
90.3756915674470065
 31
0.0
  0
LINE
  5
29B9
  8
0
 10
282.7895830596069118
 20
111.5756989396156058
 30
0.0
 11
282.7895830596067981
 21
103.5756989396157053
 31
0.0
  0
POLYLINE
  5
29BA
  8
0
 10
281.3841998651561767
 20
103.3256989396157053
 30
0.0
 66
     1
 70
     8
  0
VERTEX
  8
0
  5
40DF
 10
281.384
 20
103.326
 30
0.00000
  70
    32
  0
VERTEX
  8
0
  5
40E0
 10
281.415
 20
103.327
 30
0.00000
  70
    32
  0
VERTEX
  8
0
  5
40E1
 10
281.445
 20
103.331
 30
0.00000
  70
    32
  0
VERTEX
  8
0
  5
40E2
 10
281.475
 20
103.337
 30
0.00000
  70
    32
  0
VERTEX
  8
0
  5
40E3
 10
281.506
 20
103.346
 30
0.00000
  70
    32
  0
VERTEX
  8
0
  5
40E4
 10
281.536
 20
103.358
 30
0.00000
  70
    32
  0
VERTEX
  8
0
  5
40E5
 10
281.566
 20
103.372
 30
0.00000
  70
    32
  0
VERTEX
  8
0
  5
40E6
 10
281.596
 20
103.388
 30
0.00000
  70
    32
  0
VERTEX
  8
0
  5
40E7
 10
281.626
 20
103.407
 30
0.00000
  70
    32
  0
VERTEX
  8
0
  5
40E8
 10
281.656
 20
103.429
 30
0.00000
  70
    32
  0
VERTEX
  8
0
  5
40E9
 10
281.685
 20
103.453
 30
0.00000
  70
    32
  0
VERTEX
  8
0
  5
40EA
 10
281.715
 20
103.480
 30
0.00000
  70
    32
  0
VERTEX
  8
0
  5
40EB
 10
281.744
 20
103.509
 30
0.00000
  70
    32
  0
VERTEX
  8
0
  5
40EC
 10
281.773
 20
103.540
 30
0.00000
  70
    32
  0
VERTEX
  8
0
  5
40ED
 10
281.802
 20
103.574
 30
0.00000
  70
    32
  0
VERTEX
  8
0
  5
40EE
 10
281.830
 20
103.610
 30
0.00000
  70
    32
  0
VERTEX
  8
0
  5
40EF
 10
281.858
 20
103.649
 30
0.00000
  70
    32
  0
VERTEX
  8
0
  5
40F0
 10
281.886
 20
103.690
 30
0.00000
  70
    32
  0
VERTEX
  8
0
  5
40F1
 10
281.914
 20
103.734
 30
0.00000
  70
    32
  0
VERTEX
  8
0
  5
40F2
 10
281.941
 20
103.779
 30
0.00000
  70
    32
  0
VERTEX
  8
0
  5
40F3
 10
281.968
 20
103.828
 30
0.00000
  70
    32
  0
VERTEX
  8
0
  5
40F4
 10
281.995
 20
103.878
 30
0.00000
  70
    32
  0
VERTEX
  8
0
  5
40F5
 10
282.021
 20
103.930
 30
0.00000
  70
    32
  0
VERTEX
  8
0
  5
40F6
 10
282.047
 20
103.985
 30
0.00000
  70
    32
  0
VERTEX
  8
0
  5
40F7
 10
282.073
 20
104.042
 30
0.00000
  70
    32
  0
VERTEX
  8
0
  5
40F8
 10
282.098
 20
104.101
 30
0.00000
  70
    32
  0
VERTEX
  8
0
  5
40F9
 10
282.122
 20
104.162
 30
0.00000
  70
    32
  0
VERTEX
  8
0
  5
40FA
 10
282.146
 20
104.225
 30
0.00000
  70
    32
  0
VERTEX
  8
0
  5
40FB
 10
282.170
 20
104.290
 30
0.00000
  70
    32
  0
VERTEX
  8
0
  5
40FC
 10
282.194
 20
104.358
 30
0.00000
  70
    32
  0
VERTEX
  8
0
  5
40FD
 10
282.216
 20
104.427
 30
0.00000
  70
    32
  0
VERTEX
  8
0
  5
40FE
 10
282.239
 20
104.498
 30
0.00000
  70
    32
  0
VERTEX
  8
0
  5
40FF
 10
282.260
 20
104.570
 30
0.00000
  70
    32
  0
VERTEX
  8
0
  5
4100
 10
282.282
 20
104.645
 30
0.00000
  70
    32
  0
VERTEX
  8
0
  5
4101
 10
282.302
 20
104.722
 30
0.00000
  70
    32
  0
VERTEX
  8
0
  5
4102
 10
282.322
 20
104.800
 30
0.00000
  70
    32
  0
VERTEX
  8
0
  5
4103
 10
282.342
 20
104.880
 30
0.00000
  70
    32
  0
VERTEX
  8
0
  5
4104
 10
282.361
 20
104.961
 30
0.00000
  70
    32
  0
VERTEX
  8
0
  5
4105
 10
282.379
 20
105.044
 30
0.00000
  70
    32
  0
VERTEX
  8
0
  5
4106
 10
282.397
 20
105.129
 30
0.00000
  70
    32
  0
VERTEX
  8
0
  5
4107
 10
282.414
 20
105.215
 30
0.00000
  70
    32
  0
VERTEX
  8
0
  5
4108
 10
282.431
 20
105.302
 30
0.00000
  70
    32
  0
VERTEX
  8
0
  5
4109
 10
282.447
 20
105.391
 30
0.00000
  70
    32
  0
VERTEX
  8
0
  5
410A
 10
282.462
 20
105.481
 30
0.00000
  70
    32
  0
VERTEX
  8
0
  5
410B
 10
282.477
 20
105.572
 30
0.00000
  70
    32
  0
VERTEX
  8
0
  5
410C
 10
282.491
 20
105.665
 30
0.00000
  70
    32
  0
VERTEX
  8
0
  5
410D
 10
282.504
 20
105.759
 30
0.00000
  70
    32
  0
VERTEX
  8
0
  5
410E
 10
282.517
 20
105.853
 30
0.00000
  70
    32
  0
VERTEX
  8
0
  5
410F
 10
282.529
 20
105.949
 30
0.00000
  70
    32
  0
VERTEX
  8
0
  5
4110
 10
282.540
 20
106.046
 30
0.00000
  70
    32
  0
VERTEX
  8
0
  5
4111
 10
282.551
 20
106.144
 30
0.00000
  70
    32
  0
VERTEX
  8
0
  5
4112
 10
282.561
 20
106.243
 30
0.00000
  70
    32
  0
VERTEX
  8
0
  5
4113
 10
282.570
 20
106.342
 30
0.00000
  70
    32
  0
VERTEX
  8
0
  5
4114
 10
282.578
 20
106.442
 30
0.00000
  70
    32
  0
VERTEX
  8
0
  5
4115
 10
282.586
 20
106.543
 30
0.00000
  70
    32
  0
VERTEX
  8
0
  5
4116
 10
282.593
 20
106.645
 30
0.00000
  70
    32
  0
VERTEX
  8
0
  5
4117
 10
282.599
 20
106.747
 30
0.00000
  70
    32
  0
VERTEX
  8
0
  5
4118
 10
282.605
 20
106.849
 30
0.00000
  70
    32
  0
VERTEX
  8
0
  5
4119
 10
282.610
 20
106.952
 30
0.00000
  70
    32
  0
VERTEX
  8
0
  5
411A
 10
282.614
 20
107.055
 30
0.00000
  70
    32
  0
VERTEX
  8
0
  5
411B
 10
282.617
 20
107.159
 30
0.00000
  70
    32
  0
VERTEX
  8
0
  5
411C
 10
282.620
 20
107.263
 30
0.00000
  70
    32
  0
VERTEX
  8
0
  5
411D
 10
282.622
 20
107.367
 30
0.00000
  70
    32
  0
VERTEX
  8
0
  5
411E
 10
282.623
 20
107.471
 30
0.00000
  70
    32
  0
VERTEX
  8
0
  5
411F
 10
282.623
 20
107.576
 30
0.00000
  70
    32
  0
VERTEX
  8
0
  5
4120
 10
282.623
 20
107.680
 30
0.00000
  70
    32
  0
VERTEX
  8
0
  5
4121
 10
282.622
 20
107.784
 30
0.00000
  70
    32
  0
VERTEX
  8
0
  5
4122
 10
282.620
 20
107.888
 30
0.00000
  70
    32
  0
VERTEX
  8
0
  5
4123
 10
282.617
 20
107.992
 30
0.00000
  70
    32
  0
VERTEX
  8
0
  5
4124
 10
282.614
 20
108.096
 30
0.00000
  70
    32
  0
VERTEX
  8
0
  5
4125
 10
282.610
 20
108.199
 30
0.00000
  70
    32
  0
VERTEX
  8
0
  5
4126
 10
282.605
 20
108.302
 30
0.00000
  70
    32
  0
VERTEX
  8
0
  5
4127
 10
282.599
 20
108.405
 30
0.00000
  70
    32
  0
VERTEX
  8
0
  5
4128
 10
282.593
 20
108.507
 30
0.00000
  70
    32
  0
VERTEX
  8
0
  5
4129
 10
282.586
 20
108.608
 30
0.00000
  70
    32
  0
VERTEX
  8
0
  5
412A
 10
282.578
 20
108.709
 30
0.00000
  70
    32
  0
VERTEX
  8
0
  5
412B
 10
282.570
 20
108.809
 30
0.00000
  70
    32
  0
VERTEX
  8
0
  5
412C
 10
282.561
 20
108.909
 30
0.00000
  70
    32
  0
VERTEX
  8
0
  5
412D
 10
282.551
 20
109.007
 30
0.00000
  70
    32
  0
VERTEX
  8
0
  5
412E
 10
282.540
 20
109.105
 30
0.00000
  70
    32
  0
VERTEX
  8
0
  5
412F
 10
282.529
 20
109.202
 30
0.00000
  70
    32
  0
VERTEX
  8
0
  5
4130
 10
282.517
 20
109.298
 30
0.00000
  70
    32
  0
VERTEX
  8
0
  5
4131
 10
282.504
 20
109.393
 30
0.00000
  70
    32
  0
VERTEX
  8
0
  5
4132
 10
282.491
 20
109.487
 30
0.00000
  70
    32
  0
VERTEX
  8
0
  5
4133
 10
282.477
 20
109.579
 30
0.00000
  70
    32
  0
VERTEX
  8
0
  5
4134
 10
282.462
 20
109.671
 30
0.00000
  70
    32
  0
VERTEX
  8
0
  5
4135
 10
282.447
 20
109.761
 30
0.00000
  70
    32
  0
VERTEX
  8
0
  5
4136
 10
282.431
 20
109.849
 30
0.00000
  70
    32
  0
VERTEX
  8
0
  5
4137
 10
282.414
 20
109.937
 30
0.00000
  70
    32
  0
VERTEX
  8
0
  5
4138
 10
282.397
 20
110.023
 30
0.00000
  70
    32
  0
VERTEX
  8
0
  5
4139
 10
282.379
 20
110.107
 30
0.00000
  70
    32
  0
VERTEX
  8
0
  5
413A
 10
282.361
 20
110.190
 30
0.00000
  70
    32
  0
VERTEX
  8
0
  5
413B
 10
282.342
 20
110.272
 30
0.00000
  70
    32
  0
VERTEX
  8
0
  5
413C
 10
282.322
 20
110.352
 30
0.00000
  70
    32
  0
VERTEX
  8
0
  5
413D
 10
282.302
 20
110.430
 30
0.00000
  70
    32
  0
VERTEX
  8
0
  5
413E
 10
282.282
 20
110.506
 30
0.00000
  70
    32
  0
VERTEX
  8
0
  5
413F
 10
282.260
 20
110.581
 30
0.00000
  70
    32
  0
VERTEX
  8
0
  5
4140
 10
282.239
 20
110.654
 30
0.00000
  70
    32
  0
VERTEX
  8
0
  5
4141
 10
282.216
 20
110.725
 30
0.00000
  70
    32
  0
VERTEX
  8
0
  5
4142
 10
282.194
 20
110.794
 30
0.00000
  70
    32
  0
VERTEX
  8
0
  5
4143
 10
282.170
 20
110.861
 30
0.00000
  70
    32
  0
VERTEX
  8
0
  5
4144
 10
282.146
 20
110.926
 30
0.00000
  70
    32
  0
VERTEX
  8
0
  5
4145
 10
282.122
 20
110.989
 30
0.00000
  70
    32
  0
VERTEX
  8
0
  5
4146
 10
282.098
 20
111.050
 30
0.00000
  70
    32
  0
VERTEX
  8
0
  5
4147
 10
282.073
 20
111.109
 30
0.00000
  70
    32
  0
VERTEX
  8
0
  5
4148
 10
282.047
 20
111.166
 30
0.00000
  70
    32
  0
VERTEX
  8
0
  5
4149
 10
282.021
 20
111.221
 30
0.00000
  70
    32
  0
VERTEX
  8
0
  5
414A
 10
281.995
 20
111.274
 30
0.00000
  70
    32
  0
VERTEX
  8
0
  5
414B
 10
281.968
 20
111.324
 30
0.00000
  70
    32
  0
VERTEX
  8
0
  5
414C
 10
281.941
 20
111.372
 30
0.00000
  70
    32
  0
VERTEX
  8
0
  5
414D
 10
281.914
 20
111.418
 30
0.00000
  70
    32
  0
VERTEX
  8
0
  5
414E
 10
281.886
 20
111.461
 30
0.00000
  70
    32
  0
VERTEX
  8
0
  5
414F
 10
281.858
 20
111.502
 30
0.00000
  70
    32
  0
VERTEX
  8
0
  5
4150
 10
281.830
 20
111.541
 30
0.00000
  70
    32
  0
VERTEX
  8
0
  5
4151
 10
281.802
 20
111.577
 30
0.00000
  70
    32
  0
VERTEX
  8
0
  5
4152
 10
281.773
 20
111.611
 30
0.00000
  70
    32
  0
VERTEX
  8
0
  5
4153
 10
281.744
 20
111.643
 30
0.00000
  70
    32
  0
VERTEX
  8
0
  5
4154
 10
281.715
 20
111.672
 30
0.00000
  70
    32
  0
VERTEX
  8
0
  5
4155
 10
281.685
 20
111.698
 30
0.00000
  70
    32
  0
VERTEX
  8
0
  5
4156
 10
281.656
 20
111.722
 30
0.00000
  70
    32
  0
VERTEX
  8
0
  5
4157
 10
281.626
 20
111.744
 30
0.00000
  70
    32
  0
VERTEX
  8
0
  5
4158
 10
281.596
 20
111.763
 30
0.00000
  70
    32
  0
VERTEX
  8
0
  5
4159
 10
281.566
 20
111.780
 30
0.00000
  70
    32
  0
VERTEX
  8
0
  5
415A
 10
281.536
 20
111.794
 30
0.00000
  70
    32
  0
VERTEX
  8
0
  5
415B
 10
281.506
 20
111.805
 30
0.00000
  70
    32
  0
VERTEX
  8
0
  5
415C
 10
281.475
 20
111.814
 30
0.00000
  70
    32
  0
VERTEX
  8
0
  5
415D
 10
281.445
 20
111.821
 30
0.00000
  70
    32
  0
VERTEX
  8
0
  5
415E
 10
281.415
 20
111.824
 30
0.00000
  70
    32
  0
VERTEX
  8
0
  5
415F
 10
281.384
 20
111.826
 30
0.00000
  70
    32
  0
SEQEND
  8
0
  5
4160
  0
POLYLINE
  5
29BB
  8
0
 10
281.3841998651561767
 20
111.8256989396157053
 30
0.0
 66
     1
 70
     8
  0
VERTEX
  8
0
  5
4161
 10
281.384
 20
111.826
 30
0.00000
  70
    32
  0
VERTEX
  8
0
  5
4162
 10
281.326
 20
111.824
 30
0.00000
  70
    32
  0
VERTEX
  8
0
  5
4163
 10
281.269
 20
111.821
 30
0.00000
  70
    32
  0
VERTEX
  8
0
  5
4164
 10
281.211
 20
111.814
 30
0.00000
  70
    32
  0
VERTEX
  8
0
  5
4165
 10
281.154
 20
111.805
 30
0.00000
  70
    32
  0
VERTEX
  8
0
  5
4166
 10
281.096
 20
111.794
 30
0.00000
  70
    32
  0
VERTEX
  8
0
  5
4167
 10
281.039
 20
111.780
 30
0.00000
  70
    32
  0
VERTEX
  8
0
  5
4168
 10
280.982
 20
111.763
 30
0.00000
  70
    32
  0
VERTEX
  8
0
  5
4169
 10
280.925
 20
111.744
 30
0.00000
  70
    32
  0
VERTEX
  8
0
  5
416A
 10
280.869
 20
111.722
 30
0.00000
  70
    32
  0
VERTEX
  8
0
  5
416B
 10
280.813
 20
111.698
 30
0.00000
  70
    32
  0
VERTEX
  8
0
  5
416C
 10
280.757
 20
111.672
 30
0.00000
  70
    32
  0
VERTEX
  8
0
  5
416D
 10
280.702
 20
111.643
 30
0.00000
  70
    32
  0
VERTEX
  8
0
  5
416E
 10
280.647
 20
111.611
 30
0.00000
  70
    32
  0
VERTEX
  8
0
  5
416F
 10
280.592
 20
111.577
 30
0.00000
  70
    32
  0
VERTEX
  8
0
  5
4170
 10
280.538
 20
111.541
 30
0.00000
  70
    32
  0
VERTEX
  8
0
  5
4171
 10
280.484
 20
111.502
 30
0.00000
  70
    32
  0
VERTEX
  8
0
  5
4172
 10
280.431
 20
111.461
 30
0.00000
  70
    32
  0
VERTEX
  8
0
  5
4173
 10
280.379
 20
111.418
 30
0.00000
  70
    32
  0
VERTEX
  8
0
  5
4174
 10
280.327
 20
111.372
 30
0.00000
  70
    32
  0
VERTEX
  8
0
  5
4175
 10
280.276
 20
111.324
 30
0.00000
  70
    32
  0
VERTEX
  8
0
  5
4176
 10
280.225
 20
111.274
 30
0.00000
  70
    32
  0
VERTEX
  8
0
  5
4177
 10
280.175
 20
111.221
 30
0.00000
  70
    32
  0
VERTEX
  8
0
  5
4178
 10
280.126
 20
111.166
 30
0.00000
  70
    32
  0
VERTEX
  8
0
  5
4179
 10
280.078
 20
111.109
 30
0.00000
  70
    32
  0
VERTEX
  8
0
  5
417A
 10
280.030
 20
111.050
 30
0.00000
  70
    32
  0
VERTEX
  8
0
  5
417B
 10
279.984
 20
110.989
 30
0.00000
  70
    32
  0
VERTEX
  8
0
  5
417C
 10
279.938
 20
110.926
 30
0.00000
  70
    32
  0
VERTEX
  8
0
  5
417D
 10
279.893
 20
110.861
 30
0.00000
  70
    32
  0
VERTEX
  8
0
  5
417E
 10
279.848
 20
110.794
 30
0.00000
  70
    32
  0
VERTEX
  8
0
  5
417F
 10
279.805
 20
110.725
 30
0.00000
  70
    32
  0
VERTEX
  8
0
  5
4180
 10
279.763
 20
110.654
 30
0.00000
  70
    32
  0
VERTEX
  8
0
  5
4181
 10
279.722
 20
110.581
 30
0.00000
  70
    32
  0
VERTEX
  8
0
  5
4182
 10
279.681
 20
110.506
 30
0.00000
  70
    32
  0
VERTEX
  8
0
  5
4183
 10
279.642
 20
110.430
 30
0.00000
  70
    32
  0
VERTEX
  8
0
  5
4184
 10
279.604
 20
110.352
 30
0.00000
  70
    32
  0
VERTEX
  8
0
  5
4185
 10
279.567
 20
110.272
 30
0.00000
  70
    32
  0
VERTEX
  8
0
  5
4186
 10
279.531
 20
110.190
 30
0.00000
  70
    32
  0
VERTEX
  8
0
  5
4187
 10
279.496
 20
110.107
 30
0.00000
  70
    32
  0
VERTEX
  8
0
  5
4188
 10
279.462
 20
110.023
 30
0.00000
  70
    32
  0
VERTEX
  8
0
  5
4189
 10
279.429
 20
109.937
 30
0.00000
  70
    32
  0
VERTEX
  8
0
  5
418A
 10
279.398
 20
109.849
 30
0.00000
  70
    32
  0
VERTEX
  8
0
  5
418B
 10
279.367
 20
109.761
 30
0.00000
  70
    32
  0
VERTEX
  8
0
  5
418C
 10
279.338
 20
109.671
 30
0.00000
  70
    32
  0
VERTEX
  8
0
  5
418D
 10
279.311
 20
109.579
 30
0.00000
  70
    32
  0
VERTEX
  8
0
  5
418E
 10
279.284
 20
109.487
 30
0.00000
  70
    32
  0
VERTEX
  8
0
  5
418F
 10
279.259
 20
109.393
 30
0.00000
  70
    32
  0
VERTEX
  8
0
  5
4190
 10
279.235
 20
109.298
 30
0.00000
  70
    32
  0
VERTEX
  8
0
  5
4191
 10
279.212
 20
109.202
 30
0.00000
  70
    32
  0
VERTEX
  8
0
  5
4192
 10
279.191
 20
109.105
 30
0.00000
  70
    32
  0
VERTEX
  8
0
  5
4193
 10
279.170
 20
109.007
 30
0.00000
  70
    32
  0
VERTEX
  8
0
  5
4194
 10
279.152
 20
108.909
 30
0.00000
  70
    32
  0
VERTEX
  8
0
  5
4195
 10
279.134
 20
108.809
 30
0.00000
  70
    32
  0
VERTEX
  8
0
  5
4196
 10
279.118
 20
108.709
 30
0.00000
  70
    32
  0
VERTEX
  8
0
  5
4197
 10
279.103
 20
108.608
 30
0.00000
  70
    32
  0
VERTEX
  8
0
  5
4198
 10
279.090
 20
108.507
 30
0.00000
  70
    32
  0
VERTEX
  8
0
  5
4199
 10
279.078
 20
108.405
 30
0.00000
  70
    32
  0
VERTEX
  8
0
  5
419A
 10
279.068
 20
108.302
 30
0.00000
  70
    32
  0
VERTEX
  8
0
  5
419B
 10
279.058
 20
108.199
 30
0.00000
  70
    32
  0
VERTEX
  8
0
  5
419C
 10
279.051
 20
108.096
 30
0.00000
  70
    32
  0
VERTEX
  8
0
  5
419D
 10
279.044
 20
107.992
 30
0.00000
  70
    32
  0
VERTEX
  8
0
  5
419E
 10
279.039
 20
107.888
 30
0.00000
  70
    32
  0
VERTEX
  8
0
  5
419F
 10
279.036
 20
107.784
 30
0.00000
  70
    32
  0
VERTEX
  8
0
  5
41A0
 10
279.034
 20
107.680
 30
0.00000
  70
    32
  0
VERTEX
  8
0
  5
41A1
 10
279.033
 20
107.576
 30
0.00000
  70
    32
  0
VERTEX
  8
0
  5
41A2
 10
279.034
 20
107.471
 30
0.00000
  70
    32
  0
VERTEX
  8
0
  5
41A3
 10
279.036
 20
107.367
 30
0.00000
  70
    32
  0
VERTEX
  8
0
  5
41A4
 10
279.039
 20
107.263
 30
0.00000
  70
    32
  0
VERTEX
  8
0
  5
41A5
 10
279.044
 20
107.159
 30
0.00000
  70
    32
  0
VERTEX
  8
0
  5
41A6
 10
279.051
 20
107.055
 30
0.00000
  70
    32
  0
VERTEX
  8
0
  5
41A7
 10
279.058
 20
106.952
 30
0.00000
  70
    32
  0
VERTEX
  8
0
  5
41A8
 10
279.068
 20
106.849
 30
0.00000
  70
    32
  0
VERTEX
  8
0
  5
41A9
 10
279.078
 20
106.747
 30
0.00000
  70
    32
  0
VERTEX
  8
0
  5
41AA
 10
279.090
 20
106.645
 30
0.00000
  70
    32
  0
VERTEX
  8
0
  5
41AB
 10
279.103
 20
106.543
 30
0.00000
  70
    32
  0
VERTEX
  8
0
  5
41AC
 10
279.118
 20
106.442
 30
0.00000
  70
    32
  0
VERTEX
  8
0
  5
41AD
 10
279.134
 20
106.342
 30
0.00000
  70
    32
  0
VERTEX
  8
0
  5
41AE
 10
279.152
 20
106.243
 30
0.00000
  70
    32
  0
VERTEX
  8
0
  5
41AF
 10
279.170
 20
106.144
 30
0.00000
  70
    32
  0
VERTEX
  8
0
  5
41B0
 10
279.191
 20
106.046
 30
0.00000
  70
    32
  0
VERTEX
  8
0
  5
41B1
 10
279.212
 20
105.949
 30
0.00000
  70
    32
  0
VERTEX
  8
0
  5
41B2
 10
279.235
 20
105.853
 30
0.00000
  70
    32
  0
VERTEX
  8
0
  5
41B3
 10
279.259
 20
105.759
 30
0.00000
  70
    32
  0
VERTEX
  8
0
  5
41B4
 10
279.284
 20
105.665
 30
0.00000
  70
    32
  0
VERTEX
  8
0
  5
41B5
 10
279.311
 20
105.572
 30
0.00000
  70
    32
  0
VERTEX
  8
0
  5
41B6
 10
279.338
 20
105.481
 30
0.00000
  70
    32
  0
VERTEX
  8
0
  5
41B7
 10
279.367
 20
105.391
 30
0.00000
  70
    32
  0
VERTEX
  8
0
  5
41B8
 10
279.398
 20
105.302
 30
0.00000
  70
    32
  0
VERTEX
  8
0
  5
41B9
 10
279.429
 20
105.215
 30
0.00000
  70
    32
  0
VERTEX
  8
0
  5
41BA
 10
279.462
 20
105.129
 30
0.00000
  70
    32
  0
VERTEX
  8
0
  5
41BB
 10
279.496
 20
105.044
 30
0.00000
  70
    32
  0
VERTEX
  8
0
  5
41BC
 10
279.531
 20
104.961
 30
0.00000
  70
    32
  0
VERTEX
  8
0
  5
41BD
 10
279.567
 20
104.880
 30
0.00000
  70
    32
  0
VERTEX
  8
0
  5
41BE
 10
279.604
 20
104.800
 30
0.00000
  70
    32
  0
VERTEX
  8
0
  5
41BF
 10
279.642
 20
104.722
 30
0.00000
  70
    32
  0
VERTEX
  8
0
  5
41C0
 10
279.681
 20
104.645
 30
0.00000
  70
    32
  0
VERTEX
  8
0
  5
41C1
 10
279.722
 20
104.570
 30
0.00000
  70
    32
  0
VERTEX
  8
0
  5
41C2
 10
279.763
 20
104.498
 30
0.00000
  70
    32
  0
VERTEX
  8
0
  5
41C3
 10
279.805
 20
104.427
 30
0.00000
  70
    32
  0
VERTEX
  8
0
  5
41C4
 10
279.848
 20
104.358
 30
0.00000
  70
    32
  0
VERTEX
  8
0
  5
41C5
 10
279.893
 20
104.290
 30
0.00000
  70
    32
  0
VERTEX
  8
0
  5
41C6
 10
279.938
 20
104.225
 30
0.00000
  70
    32
  0
VERTEX
  8
0
  5
41C7
 10
279.984
 20
104.162
 30
0.00000
  70
    32
  0
VERTEX
  8
0
  5
41C8
 10
280.030
 20
104.101
 30
0.00000
  70
    32
  0
VERTEX
  8
0
  5
41C9
 10
280.078
 20
104.042
 30
0.00000
  70
    32
  0
VERTEX
  8
0
  5
41CA
 10
280.126
 20
103.985
 30
0.00000
  70
    32
  0
VERTEX
  8
0
  5
41CB
 10
280.175
 20
103.930
 30
0.00000
  70
    32
  0
VERTEX
  8
0
  5
41CC
 10
280.225
 20
103.878
 30
0.00000
  70
    32
  0
VERTEX
  8
0
  5
41CD
 10
280.276
 20
103.828
 30
0.00000
  70
    32
  0
VERTEX
  8
0
  5
41CE
 10
280.327
 20
103.779
 30
0.00000
  70
    32
  0
VERTEX
  8
0
  5
41CF
 10
280.379
 20
103.734
 30
0.00000
  70
    32
  0
VERTEX
  8
0
  5
41D0
 10
280.431
 20
103.690
 30
0.00000
  70
    32
  0
VERTEX
  8
0
  5
41D1
 10
280.484
 20
103.649
 30
0.00000
  70
    32
  0
VERTEX
  8
0
  5
41D2
 10
280.538
 20
103.610
 30
0.00000
  70
    32
  0
VERTEX
  8
0
  5
41D3
 10
280.592
 20
103.574
 30
0.00000
  70
    32
  0
VERTEX
  8
0
  5
41D4
 10
280.647
 20
103.540
 30
0.00000
  70
    32
  0
VERTEX
  8
0
  5
41D5
 10
280.702
 20
103.509
 30
0.00000
  70
    32
  0
VERTEX
  8
0
  5
41D6
 10
280.757
 20
103.480
 30
0.00000
  70
    32
  0
VERTEX
  8
0
  5
41D7
 10
280.813
 20
103.453
 30
0.00000
  70
    32
  0
VERTEX
  8
0
  5
41D8
 10
280.869
 20
103.429
 30
0.00000
  70
    32
  0
VERTEX
  8
0
  5
41D9
 10
280.925
 20
103.407
 30
0.00000
  70
    32
  0
VERTEX
  8
0
  5
41DA
 10
280.982
 20
103.388
 30
0.00000
  70
    32
  0
VERTEX
  8
0
  5
41DB
 10
281.039
 20
103.372
 30
0.00000
  70
    32
  0
VERTEX
  8
0
  5
41DC
 10
281.096
 20
103.358
 30
0.00000
  70
    32
  0
VERTEX
  8
0
  5
41DD
 10
281.154
 20
103.346
 30
0.00000
  70
    32
  0
VERTEX
  8
0
  5
41DE
 10
281.211
 20
103.337
 30
0.00000
  70
    32
  0
VERTEX
  8
0
  5
41DF
 10
281.269
 20
103.331
 30
0.00000
  70
    32
  0
VERTEX
  8
0
  5
41E0
 10
281.326
 20
103.327
 30
0.00000
  70
    32
  0
VERTEX
  8
0
  5
41E1
 10
281.384
 20
103.326
 30
0.00000
  70
    32
  0
SEQEND
  8
0
  5
41E2
  0
POLYLINE
  5
29BC
  8
3
 10
279.8545660081243227
 20
105.0818668379591543
 30
0.0
 66
     1
 70
     8
  0
VERTEX
  8
3
  5
41E3
 10
279.855
 20
105.082
 30
0.00000
  70
    32
  0
VERTEX
  8
3
  5
41E4
 10
279.888
 20
105.087
 30
0.00000
  70
    32
  0
VERTEX
  8
3
  5
41E5
 10
279.922
 20
105.093
 30
0.00000
  70
    32
  0
VERTEX
  8
3
  5
41E6
 10
279.956
 20
105.100
 30
0.00000
  70
    32
  0
VERTEX
  8
3
  5
41E7
 10
279.989
 20
105.109
 30
0.00000
  70
    32
  0
VERTEX
  8
3
  5
41E8
 10
280.023
 20
105.120
 30
0.00000
  70
    32
  0
VERTEX
  8
3
  5
41E9
 10
280.056
 20
105.131
 30
0.00000
  70
    32
  0
VERTEX
  8
3
  5
41EA
 10
280.089
 20
105.144
 30
0.00000
  70
    32
  0
VERTEX
  8
3
  5
41EB
 10
280.122
 20
105.158
 30
0.00000
  70
    32
  0
VERTEX
  8
3
  5
41EC
 10
280.155
 20
105.174
 30
0.00000
  70
    32
  0
VERTEX
  8
3
  5
41ED
 10
280.188
 20
105.191
 30
0.00000
  70
    32
  0
VERTEX
  8
3
  5
41EE
 10
280.220
 20
105.209
 30
0.00000
  70
    32
  0
VERTEX
  8
3
  5
41EF
 10
280.252
 20
105.229
 30
0.00000
  70
    32
  0
VERTEX
  8
3
  5
41F0
 10
280.284
 20
105.249
 30
0.00000
  70
    32
  0
VERTEX
  8
3
  5
41F1
 10
280.315
 20
105.272
 30
0.00000
  70
    32
  0
VERTEX
  8
3
  5
41F2
 10
280.346
 20
105.295
 30
0.00000
  70
    32
  0
VERTEX
  8
3
  5
41F3
 10
280.377
 20
105.320
 30
0.00000
  70
    32
  0
VERTEX
  8
3
  5
41F4
 10
280.408
 20
105.345
 30
0.00000
  70
    32
  0
VERTEX
  8
3
  5
41F5
 10
280.438
 20
105.373
 30
0.00000
  70
    32
  0
VERTEX
  8
3
  5
41F6
 10
280.467
 20
105.401
 30
0.00000
  70
    32
  0
VERTEX
  8
3
  5
41F7
 10
280.497
 20
105.430
 30
0.00000
  70
    32
  0
VERTEX
  8
3
  5
41F8
 10
280.526
 20
105.461
 30
0.00000
  70
    32
  0
VERTEX
  8
3
  5
41F9
 10
280.554
 20
105.493
 30
0.00000
  70
    32
  0
VERTEX
  8
3
  5
41FA
 10
280.582
 20
105.526
 30
0.00000
  70
    32
  0
VERTEX
  8
3
  5
41FB
 10
280.610
 20
105.560
 30
0.00000
  70
    32
  0
VERTEX
  8
3
  5
41FC
 10
280.637
 20
105.595
 30
0.00000
  70
    32
  0
VERTEX
  8
3
  5
41FD
 10
280.664
 20
105.632
 30
0.00000
  70
    32
  0
VERTEX
  8
3
  5
41FE
 10
280.690
 20
105.669
 30
0.00000
  70
    32
  0
VERTEX
  8
3
  5
41FF
 10
280.716
 20
105.707
 30
0.00000
  70
    32
  0
VERTEX
  8
3
  5
4200
 10
280.741
 20
105.747
 30
0.00000
  70
    32
  0
VERTEX
  8
3
  5
4201
 10
280.765
 20
105.787
 30
0.00000
  70
    32
  0
VERTEX
  8
3
  5
4202
 10
280.789
 20
105.829
 30
0.00000
  70
    32
  0
VERTEX
  8
3
  5
4203
 10
280.813
 20
105.871
 30
0.00000
  70
    32
  0
VERTEX
  8
3
  5
4204
 10
280.836
 20
105.914
 30
0.00000
  70
    32
  0
VERTEX
  8
3
  5
4205
 10
280.858
 20
105.959
 30
0.00000
  70
    32
  0
VERTEX
  8
3
  5
4206
 10
280.880
 20
106.004
 30
0.00000
  70
    32
  0
VERTEX
  8
3
  5
4207
 10
280.901
 20
106.050
 30
0.00000
  70
    32
  0
VERTEX
  8
3
  5
4208
 10
280.921
 20
106.097
 30
0.00000
  70
    32
  0
VERTEX
  8
3
  5
4209
 10
280.941
 20
106.144
 30
0.00000
  70
    32
  0
VERTEX
  8
3
  5
420A
 10
280.960
 20
106.193
 30
0.00000
  70
    32
  0
VERTEX
  8
3
  5
420B
 10
280.978
 20
106.242
 30
0.00000
  70
    32
  0
VERTEX
  8
3
  5
420C
 10
280.996
 20
106.292
 30
0.00000
  70
    32
  0
VERTEX
  8
3
  5
420D
 10
281.013
 20
106.343
 30
0.00000
  70
    32
  0
VERTEX
  8
3
  5
420E
 10
281.030
 20
106.394
 30
0.00000
  70
    32
  0
VERTEX
  8
3
  5
420F
 10
281.045
 20
106.446
 30
0.00000
  70
    32
  0
VERTEX
  8
3
  5
4210
 10
281.060
 20
106.498
 30
0.00000
  70
    32
  0
VERTEX
  8
3
  5
4211
 10
281.075
 20
106.552
 30
0.00000
  70
    32
  0
VERTEX
  8
3
  5
4212
 10
281.088
 20
106.605
 30
0.00000
  70
    32
  0
VERTEX
  8
3
  5
4213
 10
281.101
 20
106.660
 30
0.00000
  70
    32
  0
VERTEX
  8
3
  5
4214
 10
281.113
 20
106.714
 30
0.00000
  70
    32
  0
VERTEX
  8
3
  5
4215
 10
281.124
 20
106.770
 30
0.00000
  70
    32
  0
VERTEX
  8
3
  5
4216
 10
281.135
 20
106.825
 30
0.00000
  70
    32
  0
VERTEX
  8
3
  5
4217
 10
281.145
 20
106.882
 30
0.00000
  70
    32
  0
VERTEX
  8
3
  5
4218
 10
281.154
 20
106.938
 30
0.00000
  70
    32
  0
VERTEX
  8
3
  5
4219
 10
281.162
 20
106.995
 30
0.00000
  70
    32
  0
VERTEX
  8
3
  5
421A
 10
281.170
 20
107.052
 30
0.00000
  70
    32
  0
VERTEX
  8
3
  5
421B
 10
281.176
 20
107.110
 30
0.00000
  70
    32
  0
VERTEX
  8
3
  5
421C
 10
281.182
 20
107.167
 30
0.00000
  70
    32
  0
VERTEX
  8
3
  5
421D
 10
281.188
 20
107.225
 30
0.00000
  70
    32
  0
VERTEX
  8
3
  5
421E
 10
281.192
 20
107.283
 30
0.00000
  70
    32
  0
VERTEX
  8
3
  5
421F
 10
281.195
 20
107.342
 30
0.00000
  70
    32
  0
VERTEX
  8
3
  5
4220
 10
281.198
 20
107.400
 30
0.00000
  70
    32
  0
VERTEX
  8
3
  5
4221
 10
281.200
 20
107.459
 30
0.00000
  70
    32
  0
VERTEX
  8
3
  5
4222
 10
281.201
 20
107.517
 30
0.00000
  70
    32
  0
VERTEX
  8
3
  5
4223
 10
281.202
 20
107.576
 30
0.00000
  70
    32
  0
VERTEX
  8
3
  5
4224
 10
281.201
 20
107.634
 30
0.00000
  70
    32
  0
VERTEX
  8
3
  5
4225
 10
281.200
 20
107.693
 30
0.00000
  70
    32
  0
VERTEX
  8
3
  5
4226
 10
281.198
 20
107.751
 30
0.00000
  70
    32
  0
VERTEX
  8
3
  5
4227
 10
281.195
 20
107.810
 30
0.00000
  70
    32
  0
VERTEX
  8
3
  5
4228
 10
281.192
 20
107.868
 30
0.00000
  70
    32
  0
VERTEX
  8
3
  5
4229
 10
281.188
 20
107.926
 30
0.00000
  70
    32
  0
VERTEX
  8
3
  5
422A
 10
281.182
 20
107.984
 30
0.00000
  70
    32
  0
VERTEX
  8
3
  5
422B
 10
281.176
 20
108.042
 30
0.00000
  70
    32
  0
VERTEX
  8
3
  5
422C
 10
281.170
 20
108.099
 30
0.00000
  70
    32
  0
VERTEX
  8
3
  5
422D
 10
281.162
 20
108.156
 30
0.00000
  70
    32
  0
VERTEX
  8
3
  5
422E
 10
281.154
 20
108.213
 30
0.00000
  70
    32
  0
VERTEX
  8
3
  5
422F
 10
281.145
 20
108.270
 30
0.00000
  70
    32
  0
VERTEX
  8
3
  5
4230
 10
281.135
 20
108.326
 30
0.00000
  70
    32
  0
VERTEX
  8
3
  5
4231
 10
281.124
 20
108.382
 30
0.00000
  70
    32
  0
VERTEX
  8
3
  5
4232
 10
281.113
 20
108.437
 30
0.00000
  70
    32
  0
VERTEX
  8
3
  5
4233
 10
281.101
 20
108.492
 30
0.00000
  70
    32
  0
VERTEX
  8
3
  5
4234
 10
281.088
 20
108.546
 30
0.00000
  70
    32
  0
VERTEX
  8
3
  5
4235
 10
281.075
 20
108.600
 30
0.00000
  70
    32
  0
VERTEX
  8
3
  5
4236
 10
281.060
 20
108.653
 30
0.00000
  70
    32
  0
VERTEX
  8
3
  5
4237
 10
281.045
 20
108.706
 30
0.00000
  70
    32
  0
VERTEX
  8
3
  5
4238
 10
281.030
 20
108.757
 30
0.00000
  70
    32
  0
VERTEX
  8
3
  5
4239
 10
281.013
 20
108.809
 30
0.00000
  70
    32
  0
VERTEX
  8
3
  5
423A
 10
280.996
 20
108.859
 30
0.00000
  70
    32
  0
VERTEX
  8
3
  5
423B
 10
280.978
 20
108.909
 30
0.00000
  70
    32
  0
VERTEX
  8
3
  5
423C
 10
280.960
 20
108.959
 30
0.00000
  70
    32
  0
VERTEX
  8
3
  5
423D
 10
280.941
 20
109.007
 30
0.00000
  70
    32
  0
VERTEX
  8
3
  5
423E
 10
280.921
 20
109.055
 30
0.00000
  70
    32
  0
VERTEX
  8
3
  5
423F
 10
280.901
 20
109.102
 30
0.00000
  70
    32
  0
VERTEX
  8
3
  5
4240
 10
280.880
 20
109.148
 30
0.00000
  70
    32
  0
VERTEX
  8
3
  5
4241
 10
280.858
 20
109.193
 30
0.00000
  70
    32
  0
VERTEX
  8
3
  5
4242
 10
280.836
 20
109.237
 30
0.00000
  70
    32
  0
VERTEX
  8
3
  5
4243
 10
280.813
 20
109.280
 30
0.00000
  70
    32
  0
VERTEX
  8
3
  5
4244
 10
280.789
 20
109.323
 30
0.00000
  70
    32
  0
VERTEX
  8
3
  5
4245
 10
280.765
 20
109.364
 30
0.00000
  70
    32
  0
VERTEX
  8
3
  5
4246
 10
280.741
 20
109.405
 30
0.00000
  70
    32
  0
VERTEX
  8
3
  5
4247
 10
280.716
 20
109.444
 30
0.00000
  70
    32
  0
VERTEX
  8
3
  5
4248
 10
280.690
 20
109.482
 30
0.00000
  70
    32
  0
VERTEX
  8
3
  5
4249
 10
280.664
 20
109.520
 30
0.00000
  70
    32
  0
VERTEX
  8
3
  5
424A
 10
280.637
 20
109.556
 30
0.00000
  70
    32
  0
VERTEX
  8
3
  5
424B
 10
280.610
 20
109.591
 30
0.00000
  70
    32
  0
VERTEX
  8
3
  5
424C
 10
280.582
 20
109.626
 30
0.00000
  70
    32
  0
VERTEX
  8
3
  5
424D
 10
280.554
 20
109.659
 30
0.00000
  70
    32
  0
VERTEX
  8
3
  5
424E
 10
280.526
 20
109.690
 30
0.00000
  70
    32
  0
VERTEX
  8
3
  5
424F
 10
280.497
 20
109.721
 30
0.00000
  70
    32
  0
VERTEX
  8
3
  5
4250
 10
280.467
 20
109.751
 30
0.00000
  70
    32
  0
VERTEX
  8
3
  5
4251
 10
280.438
 20
109.779
 30
0.00000
  70
    32
  0
VERTEX
  8
3
  5
4252
 10
280.408
 20
109.806
 30
0.00000
  70
    32
  0
VERTEX
  8
3
  5
4253
 10
280.377
 20
109.832
 30
0.00000
  70
    32
  0
VERTEX
  8
3
  5
4254
 10
280.346
 20
109.856
 30
0.00000
  70
    32
  0
VERTEX
  8
3
  5
4255
 10
280.315
 20
109.880
 30
0.00000
  70
    32
  0
VERTEX
  8
3
  5
4256
 10
280.284
 20
109.902
 30
0.00000
  70
    32
  0
VERTEX
  8
3
  5
4257
 10
280.252
 20
109.923
 30
0.00000
  70
    32
  0
VERTEX
  8
3
  5
4258
 10
280.220
 20
109.942
 30
0.00000
  70
    32
  0
VERTEX
  8
3
  5
4259
 10
280.188
 20
109.961
 30
0.00000
  70
    32
  0
VERTEX
  8
3
  5
425A
 10
280.155
 20
109.977
 30
0.00000
  70
    32
  0
VERTEX
  8
3
  5
425B
 10
280.122
 20
109.993
 30
0.00000
  70
    32
  0
VERTEX
  8
3
  5
425C
 10
280.089
 20
110.007
 30
0.00000
  70
    32
  0
VERTEX
  8
3
  5
425D
 10
280.056
 20
110.020
 30
0.00000
  70
    32
  0
VERTEX
  8
3
  5
425E
 10
280.023
 20
110.032
 30
0.00000
  70
    32
  0
VERTEX
  8
3
  5
425F
 10
279.989
 20
110.042
 30
0.00000
  70
    32
  0
VERTEX
  8
3
  5
4260
 10
279.956
 20
110.051
 30
0.00000
  70
    32
  0
VERTEX
  8
3
  5
4261
 10
279.922
 20
110.059
 30
0.00000
  70
    32
  0
VERTEX
  8
3
  5
4262
 10
279.888
 20
110.065
 30
0.00000
  70
    32
  0
VERTEX
  8
3
  5
4263
 10
279.855
 20
110.070
 30
0.00000
  70
    32
  0
SEQEND
  8
3
  5
4264
  0
POLYLINE
  5
29BE
  8
0
 10
279.6135952599815937
 20
105.5298522489832038
 30
0.0
 66
     1
 70
     8
  0
VERTEX
  8
0
  5
4265
 10
279.614
 20
105.530
 30
0.00000
  70
    32
  0
VERTEX
  8
0
  5
4266
 10
279.637
 20
105.522
 30
0.00000
  70
    32
  0
VERTEX
  8
0
  5
4267
 10
279.660
 20
105.515
 30
0.00000
  70
    32
  0
VERTEX
  8
0
  5
4268
 10
279.684
 20
105.510
 30
0.00000
  70
    32
  0
VERTEX
  8
0
  5
4269
 10
279.708
 20
105.506
 30
0.00000
  70
    32
  0
VERTEX
  8
0
  5
426A
 10
279.731
 20
105.504
 30
0.00000
  70
    32
  0
VERTEX
  8
0
  5
426B
 10
279.755
 20
105.503
 30
0.00000
  70
    32
  0
VERTEX
  8
0
  5
426C
 10
279.778
 20
105.504
 30
0.00000
  70
    32
  0
VERTEX
  8
0
  5
426D
 10
279.802
 20
105.507
 30
0.00000
  70
    32
  0
VERTEX
  8
0
  5
426E
 10
279.826
 20
105.511
 30
0.00000
  70
    32
  0
VERTEX
  8
0
  5
426F
 10
279.849
 20
105.516
 30
0.00000
  70
    32
  0
VERTEX
  8
0
  5
4270
 10
279.872
 20
105.523
 30
0.00000
  70
    32
  0
VERTEX
  8
0
  5
4271
 10
279.896
 20
105.531
 30
0.00000
  70
    32
  0
VERTEX
  8
0
  5
4272
 10
279.919
 20
105.541
 30
0.00000
  70
    32
  0
VERTEX
  8
0
  5
4273
 10
279.942
 20
105.553
 30
0.00000
  70
    32
  0
VERTEX
  8
0
  5
4274
 10
279.965
 20
105.566
 30
0.00000
  70
    32
  0
VERTEX
  8
0
  5
4275
 10
279.988
 20
105.580
 30
0.00000
  70
    32
  0
VERTEX
  8
0
  5
4276
 10
280.011
 20
105.596
 30
0.00000
  70
    32
  0
VERTEX
  8
0
  5
4277
 10
280.033
 20
105.613
 30
0.00000
  70
    32
  0
VERTEX
  8
0
  5
4278
 10
280.055
 20
105.632
 30
0.00000
  70
    32
  0
VERTEX
  8
0
  5
4279
 10
280.078
 20
105.652
 30
0.00000
  70
    32
  0
VERTEX
  8
0
  5
427A
 10
280.099
 20
105.673
 30
0.00000
  70
    32
  0
VERTEX
  8
0
  5
427B
 10
280.121
 20
105.696
 30
0.00000
  70
    32
  0
VERTEX
  8
0
  5
427C
 10
280.142
 20
105.721
 30
0.00000
  70
    32
  0
VERTEX
  8
0
  5
427D
 10
280.163
 20
105.746
 30
0.00000
  70
    32
  0
VERTEX
  8
0
  5
427E
 10
280.184
 20
105.773
 30
0.00000
  70
    32
  0
VERTEX
  8
0
  5
427F
 10
280.204
 20
105.802
 30
0.00000
  70
    32
  0
VERTEX
  8
0
  5
4280
 10
280.224
 20
105.831
 30
0.00000
  70
    32
  0
VERTEX
  8
0
  5
4281
 10
280.244
 20
105.862
 30
0.00000
  70
    32
  0
VERTEX
  8
0
  5
4282
 10
280.263
 20
105.894
 30
0.00000
  70
    32
  0
VERTEX
  8
0
  5
4283
 10
280.282
 20
105.928
 30
0.00000
  70
    32
  0
VERTEX
  8
0
  5
4284
 10
280.301
 20
105.962
 30
0.00000
  70
    32
  0
VERTEX
  8
0
  5
4285
 10
280.319
 20
105.998
 30
0.00000
  70
    32
  0
VERTEX
  8
0
  5
4286
 10
280.337
 20
106.035
 30
0.00000
  70
    32
  0
VERTEX
  8
0
  5
4287
 10
280.354
 20
106.073
 30
0.00000
  70
    32
  0
VERTEX
  8
0
  5
4288
 10
280.371
 20
106.112
 30
0.00000
  70
    32
  0
VERTEX
  8
0
  5
4289
 10
280.388
 20
106.152
 30
0.00000
  70
    32
  0
VERTEX
  8
0
  5
428A
 10
280.404
 20
106.193
 30
0.00000
  70
    32
  0
VERTEX
  8
0
  5
428B
 10
280.419
 20
106.236
 30
0.00000
  70
    32
  0
VERTEX
  8
0
  5
428C
 10
280.434
 20
106.279
 30
0.00000
  70
    32
  0
VERTEX
  8
0
  5
428D
 10
280.449
 20
106.323
 30
0.00000
  70
    32
  0
VERTEX
  8
0
  5
428E
 10
280.463
 20
106.368
 30
0.00000
  70
    32
  0
VERTEX
  8
0
  5
428F
 10
280.476
 20
106.414
 30
0.00000
  70
    32
  0
VERTEX
  8
0
  5
4290
 10
280.489
 20
106.461
 30
0.00000
  70
    32
  0
VERTEX
  8
0
  5
4291
 10
280.502
 20
106.509
 30
0.00000
  70
    32
  0
VERTEX
  8
0
  5
4292
 10
280.514
 20
106.557
 30
0.00000
  70
    32
  0
VERTEX
  8
0
  5
4293
 10
280.525
 20
106.606
 30
0.00000
  70
    32
  0
VERTEX
  8
0
  5
4294
 10
280.536
 20
106.656
 30
0.00000
  70
    32
  0
VERTEX
  8
0
  5
4295
 10
280.546
 20
106.707
 30
0.00000
  70
    32
  0
VERTEX
  8
0
  5
4296
 10
280.555
 20
106.758
 30
0.00000
  70
    32
  0
VERTEX
  8
0
  5
4297
 10
280.565
 20
106.810
 30
0.00000
  70
    32
  0
VERTEX
  8
0
  5
4298
 10
280.573
 20
106.862
 30
0.00000
  70
    32
  0
VERTEX
  8
0
  5
4299
 10
280.581
 20
106.915
 30
0.00000
  70
    32
  0
VERTEX
  8
0
  5
429A
 10
280.588
 20
106.968
 30
0.00000
  70
    32
  0
VERTEX
  8
0
  5
429B
 10
280.595
 20
107.022
 30
0.00000
  70
    32
  0
VERTEX
  8
0
  5
429C
 10
280.601
 20
107.076
 30
0.00000
  70
    32
  0
VERTEX
  8
0
  5
429D
 10
280.606
 20
107.131
 30
0.00000
  70
    32
  0
VERTEX
  8
0
  5
429E
 10
280.611
 20
107.186
 30
0.00000
  70
    32
  0
VERTEX
  8
0
  5
429F
 10
280.615
 20
107.241
 30
0.00000
  70
    32
  0
VERTEX
  8
0
  5
42A0
 10
280.618
 20
107.296
 30
0.00000
  70
    32
  0
VERTEX
  8
0
  5
42A1
 10
280.621
 20
107.352
 30
0.00000
  70
    32
  0
VERTEX
  8
0
  5
42A2
 10
280.624
 20
107.408
 30
0.00000
  70
    32
  0
VERTEX
  8
0
  5
42A3
 10
280.625
 20
107.464
 30
0.00000
  70
    32
  0
VERTEX
  8
0
  5
42A4
 10
280.626
 20
107.520
 30
0.00000
  70
    32
  0
VERTEX
  8
0
  5
42A5
 10
280.626
 20
107.576
 30
0.00000
  70
    32
  0
VERTEX
  8
0
  5
42A6
 10
280.626
 20
107.632
 30
0.00000
  70
    32
  0
VERTEX
  8
0
  5
42A7
 10
280.625
 20
107.688
 30
0.00000
  70
    32
  0
VERTEX
  8
0
  5
42A8
 10
280.624
 20
107.744
 30
0.00000
  70
    32
  0
VERTEX
  8
0
  5
42A9
 10
280.621
 20
107.799
 30
0.00000
  70
    32
  0
VERTEX
  8
0
  5
42AA
 10
280.618
 20
107.855
 30
0.00000
  70
    32
  0
VERTEX
  8
0
  5
42AB
 10
280.615
 20
107.911
 30
0.00000
  70
    32
  0
VERTEX
  8
0
  5
42AC
 10
280.611
 20
107.966
 30
0.00000
  70
    32
  0
VERTEX
  8
0
  5
42AD
 10
280.606
 20
108.021
 30
0.00000
  70
    32
  0
VERTEX
  8
0
  5
42AE
 10
280.601
 20
108.075
 30
0.00000
  70
    32
  0
VERTEX
  8
0
  5
42AF
 10
280.595
 20
108.129
 30
0.00000
  70
    32
  0
VERTEX
  8
0
  5
42B0
 10
280.588
 20
108.183
 30
0.00000
  70
    32
  0
VERTEX
  8
0
  5
42B1
 10
280.581
 20
108.237
 30
0.00000
  70
    32
  0
VERTEX
  8
0
  5
42B2
 10
280.573
 20
108.289
 30
0.00000
  70
    32
  0
VERTEX
  8
0
  5
42B3
 10
280.565
 20
108.342
 30
0.00000
  70
    32
  0
VERTEX
  8
0
  5
42B4
 10
280.555
 20
108.394
 30
0.00000
  70
    32
  0
VERTEX
  8
0
  5
42B5
 10
280.546
 20
108.445
 30
0.00000
  70
    32
  0
VERTEX
  8
0
  5
42B6
 10
280.536
 20
108.495
 30
0.00000
  70
    32
  0
VERTEX
  8
0
  5
42B7
 10
280.525
 20
108.545
 30
0.00000
  70
    32
  0
VERTEX
  8
0
  5
42B8
 10
280.514
 20
108.594
 30
0.00000
  70
    32
  0
VERTEX
  8
0
  5
42B9
 10
280.502
 20
108.643
 30
0.00000
  70
    32
  0
VERTEX
  8
0
  5
42BA
 10
280.489
 20
108.690
 30
0.00000
  70
    32
  0
VERTEX
  8
0
  5
42BB
 10
280.476
 20
108.737
 30
0.00000
  70
    32
  0
VERTEX
  8
0
  5
42BC
 10
280.463
 20
108.783
 30
0.00000
  70
    32
  0
VERTEX
  8
0
  5
42BD
 10
280.449
 20
108.828
 30
0.00000
  70
    32
  0
VERTEX
  8
0
  5
42BE
 10
280.434
 20
108.873
 30
0.00000
  70
    32
  0
VERTEX
  8
0
  5
42BF
 10
280.419
 20
108.916
 30
0.00000
  70
    32
  0
VERTEX
  8
0
  5
42C0
 10
280.404
 20
108.958
 30
0.00000
  70
    32
  0
VERTEX
  8
0
  5
42C1
 10
280.388
 20
108.999
 30
0.00000
  70
    32
  0
VERTEX
  8
0
  5
42C2
 10
280.371
 20
109.039
 30
0.00000
  70
    32
  0
VERTEX
  8
0
  5
42C3
 10
280.354
 20
109.079
 30
0.00000
  70
    32
  0
VERTEX
  8
0
  5
42C4
 10
280.337
 20
109.117
 30
0.00000
  70
    32
  0
VERTEX
  8
0
  5
42C5
 10
280.319
 20
109.154
 30
0.00000
  70
    32
  0
VERTEX
  8
0
  5
42C6
 10
280.301
 20
109.189
 30
0.00000
  70
    32
  0
VERTEX
  8
0
  5
42C7
 10
280.282
 20
109.224
 30
0.00000
  70
    32
  0
VERTEX
  8
0
  5
42C8
 10
280.263
 20
109.257
 30
0.00000
  70
    32
  0
VERTEX
  8
0
  5
42C9
 10
280.244
 20
109.289
 30
0.00000
  70
    32
  0
VERTEX
  8
0
  5
42CA
 10
280.224
 20
109.320
 30
0.00000
  70
    32
  0
VERTEX
  8
0
  5
42CB
 10
280.204
 20
109.350
 30
0.00000
  70
    32
  0
VERTEX
  8
0
  5
42CC
 10
280.184
 20
109.378
 30
0.00000
  70
    32
  0
VERTEX
  8
0
  5
42CD
 10
280.163
 20
109.405
 30
0.00000
  70
    32
  0
VERTEX
  8
0
  5
42CE
 10
280.142
 20
109.431
 30
0.00000
  70
    32
  0
VERTEX
  8
0
  5
42CF
 10
280.121
 20
109.455
 30
0.00000
  70
    32
  0
VERTEX
  8
0
  5
42D0
 10
280.099
 20
109.478
 30
0.00000
  70
    32
  0
VERTEX
  8
0
  5
42D1
 10
280.078
 20
109.500
 30
0.00000
  70
    32
  0
VERTEX
  8
0
  5
42D2
 10
280.055
 20
109.520
 30
0.00000
  70
    32
  0
VERTEX
  8
0
  5
42D3
 10
280.033
 20
109.538
 30
0.00000
  70
    32
  0
VERTEX
  8
0
  5
42D4
 10
280.011
 20
109.556
 30
0.00000
  70
    32
  0
VERTEX
  8
0
  5
42D5
 10
279.988
 20
109.572
 30
0.00000
  70
    32
  0
VERTEX
  8
0
  5
42D6
 10
279.965
 20
109.586
 30
0.00000
  70
    32
  0
VERTEX
  8
0
  5
42D7
 10
279.942
 20
109.599
 30
0.00000
  70
    32
  0
VERTEX
  8
0
  5
42D8
 10
279.919
 20
109.610
 30
0.00000
  70
    32
  0
VERTEX
  8
0
  5
42D9
 10
279.896
 20
109.620
 30
0.00000
  70
    32
  0
VERTEX
  8
0
  5
42DA
 10
279.872
 20
109.629
 30
0.00000
  70
    32
  0
VERTEX
  8
0
  5
42DB
 10
279.849
 20
109.635
 30
0.00000
  70
    32
  0
VERTEX
  8
0
  5
42DC
 10
279.826
 20
109.641
 30
0.00000
  70
    32
  0
VERTEX
  8
0
  5
42DD
 10
279.802
 20
109.645
 30
0.00000
  70
    32
  0
VERTEX
  8
0
  5
42DE
 10
279.778
 20
109.647
 30
0.00000
  70
    32
  0
VERTEX
  8
0
  5
42DF
 10
279.755
 20
109.648
 30
0.00000
  70
    32
  0
VERTEX
  8
0
  5
42E0
 10
279.731
 20
109.647
 30
0.00000
  70
    32
  0
VERTEX
  8
0
  5
42E1
 10
279.708
 20
109.645
 30
0.00000
  70
    32
  0
VERTEX
  8
0
  5
42E2
 10
279.684
 20
109.642
 30
0.00000
  70
    32
  0
VERTEX
  8
0
  5
42E3
 10
279.660
 20
109.636
 30
0.00000
  70
    32
  0
VERTEX
  8
0
  5
42E4
 10
279.637
 20
109.630
 30
0.00000
  70
    32
  0
VERTEX
  8
0
  5
42E5
 10
279.614
 20
109.622
 30
0.00000
  70
    32
  0
SEQEND
  8
0
  5
42E6
  0
LINE
  5
29C2
  8
0
 10
280.5896846913803984
 20
111.5756989396157053
 30
0.0
 11
276.429462852532879
 21
111.5756989396157053
 31
0.0
  0
LINE
  5
29C3
  8
0
 10
281.8028907425971852
 20
103.5756989396157053
 30
0.0
 11
282.7895830596069118
 21
103.5756989396157053
 31
0.0
  0
LINE
  5
29C7
  8
0
 10
336.3511922753854151
 20
111.5756989396156058
 30
0.0
 11
336.3511922753854719
 21
103.5756989396156058
 31
0.0
  0
POLYLINE
  5
29C9
  8
0
 66
     1
 10
0.0
 20
0.0
 30
0.0
  0
VERTEX
  5
29CA
  8
0
 10
338.3608112186187213
 20
103.3256987086477068
 30
0.0
 42
0.1473256884481574
  0
VERTEX
  5
29CB
  8
0
 10
339.3040825079198726
 20
103.6098012993512043
 30
0.0
 42
0.1071373878280996
  0
VERTEX
  5
29CC
  8
0
 10
340.2398247943704064
 20
104.5704949562538957
 30
0.0
 42
0.0764889341664651
 70
     2
 50
57.9841834598885626
  0
VERTEX
  5
29CD
  8
0
 10
340.8017821317196194
 20
105.8773624843486942
 30
0.0
 42
0.0634399673700871
 50
57.9841834598885626
  0
VERTEX
  5
29CE
  8
0
 10
341.0181377013299766
 20
107.5756989396157053
 30
0.0
 42
0.0634399673701196
  0
VERTEX
  5
29CF
  8
0
 10
340.8017821317193921
 20
109.2740353948836969
 30
0.0
 42
0.0764889341664119
  0
VERTEX
  5
29D0
  8
0
 10
340.2398247943704064
 20
110.5809029229776002
 30
0.0
 42
0.1071373878279469
 70
     2
 50
122.0158165401114019
  0
VERTEX
  5
29D1
  8
0
 10
339.3040825079203842
 20
111.5415965798804052
 30
0.0
 42
0.1473256884480329
 50
122.0158165401114019
  0
VERTEX
  5
29D2
  8
0
 10
338.3608112186187213
 20
111.8256991705837038
 30
0.0
 42
0.1473256884481574
  0
SEQEND
  5
29D3
  8
0
  0
POLYLINE
  5
29D4
  8
0
 66
     1
 10
0.0
 20
0.0
 30
0.0
  0
VERTEX
  5
29D5
  8
0
 10
338.3608112186187213
 20
103.3256987086477068
 30
0.0
 42
0.1473256884481574
  0
VERTEX
  5
29D6
  8
0
 10
339.3040825079198726
 20
103.6098012993512043
 30
0.0
 42
0.1071373878280996
  0
VERTEX
  5
29D7
  8
0
 10
340.2398247943704064
 20
104.5704949562538957
 30
0.0
 42
0.0764889341664651
 70
     2
 50
57.9841834598885626
  0
VERTEX
  5
29D8
  8
0
 10
340.8017821317196194
 20
105.8773624843486942
 30
0.0
 42
0.0634399673700871
 50
57.9841834598885626
  0
VERTEX
  5
29D9
  8
0
 10
341.0181377013299766
 20
107.5756989396157053
 30
0.0
 42
0.0634399673701196
  0
VERTEX
  5
29DA
  8
0
 10
340.8017821317193921
 20
109.2740353948836969
 30
0.0
 42
0.0764889341664119
  0
VERTEX
  5
29DB
  8
0
 10
340.2398247943704064
 20
110.5809029229776002
 30
0.0
 42
0.1071373878279469
 70
     2
 50
122.0158165401114019
  0
VERTEX
  5
29DC
  8
0
 10
339.3040825079203842
 20
111.5415965798804052
 30
0.0
 42
0.1473256884480296
 50
122.0158165401114019
  0
VERTEX
  5
29DD
  8
0
 10
338.3608112186187213
 20
111.8256991705837038
 30
0.0
 42
0.1473256884481574
  0
SEQEND
  5
29DE
  8
0
  0
POLYLINE
  5
29DF
  8
0
 66
     1
 10
0.0
 20
0.0
 30
0.0
 70
     1
  0
VERTEX
  5
29E0
  8
0
 10
339.225223971897492
 20
110.4756989027354024
 30
0.0
 42
0.1748453498593685
  0
VERTEX
  5
29E1
  8
0
 10
338.7346934948943726
 20
110.2987556429408045
 30
0.0
 42
0.1041772284685958
  0
VERTEX
  5
29E2
  8
0
 10
338.2010592142663086
 20
109.6263085789784952
 30
0.0
 42
0.0648918548135216
 70
     2
 50
243.4604379332282065
  0
VERTEX
  5
29E3
  8
0
 10
337.8968886830858196
 20
108.7486059180581037
 30
0.0
 42
0.0510439485154489
 50
243.4604379332282065
  0
VERTEX
  5
29E4
  8
0
 10
337.7768362815506862
 20
107.5756989396158048
 30
0.0
 42
0.0510439485155688
  0
VERTEX
  5
29E5
  8
0
 10
337.8968886830859901
 20
106.4027919611734063
 30
0.0
 42
0.0648918548136345
  0
VERTEX
  5
29E6
  8
0
 10
338.2010592142660244
 20
105.5250893002531996
 30
0.0
 42
0.104177228468529
 70
     2
 50
296.5395620667628123
  0
VERTEX
  5
29E7
  8
0
 10
338.7346934948939179
 20
104.852642236290805
 30
0.0
 42
0.1748453498592686
 50
296.5395620667628123
  0
VERTEX
  5
29E8
  8
0
 10
339.2252239718970941
 20
104.6756989764960935
 30
0.0
 42
0.1748453498594448
  0
VERTEX
  5
29E9
  8
0
 10
339.7157544488999861
 20
104.8526422362907056
 30
0.0
 42
0.1041772284687008
  0
VERTEX
  5
29EA
  8
0
 10
340.2493887295283912
 20
105.5250893002530006
 30
0.0
 42
0.0648918548135215
 70
     2
 50
63.460437933228242
  0
VERTEX
  5
29EB
  8
0
 10
340.5535592607088802
 20
106.4027919611734063
 30
0.0
 42
0.0510439485154489
 50
63.460437933228242
  0
VERTEX
  5
29EC
  8
0
 10
340.6736116622440136
 20
107.5756989396156058
 30
0.0
 42
0.051043948515512
  0
VERTEX
  5
29ED
  8
0
 10
340.5535592607088802
 20
108.7486059180571942
 30
0.0
 42
0.0648918548136792
  0
VERTEX
  5
29EE
  8
0
 10
340.2493887295286186
 20
109.6263085789781968
 30
0.0
 42
0.1041772284686756
 70
     2
 50
116.5395620667626986
  0
VERTEX
  5
29EF
  8
0
 10
339.7157544489004977
 20
110.298755642940506
 30
0.0
 42
0.1748453498594505
 50
116.5395620667626986
  0
SEQEND
  5
29F0
  8
0
  0
POLYLINE
  5
29F1
  8
3
 66
     1
 10
0.0
 20
0.0
 30
0.0
  0
VERTEX
  5
29F2
  8
3
 10
340.1944553716314203
 20
109.7318870509122064
 30
0.0
 42
0.0383623919748078
 70
     2
 50
116.5650511770686961
  0
VERTEX
  5
29F3
  8
3
 10
339.9966930950602091
 20
109.9230849353055959
 30
0.0
 42
0.1747045211891356
 50
116.5650511770686961
  0
VERTEX
  5
29F4
  8
3
 10
339.573246783916602
 20
110.0756989396157053
 30
0.0
 42
0.1747045211891031
  0
SEQEND
  5
29F5
  8
3
  0
POLYLINE
  5
29F6
  8
3
 66
     1
 10
0.0
 20
0.0
 30
0.0
  0
VERTEX
  5
29F7
  8
3
 10
339.573246783916602
 20
110.0756989396157053
 30
0.0
 42
0.1747045211891031
  0
VERTEX
  5
29F8
  8
3
 10
339.1498004727728244
 20
109.9230849353056954
 30
0.0
 42
0.1042029417662982
  0
VERTEX
  5
29F9
  8
3
 10
338.6893633074334957
 20
109.3434658925822021
 30
0.0
 42
0.0649481016504532
 70
     2
 50
243.434948822921001
  0
VERTEX
  5
29FA
  8
3
 10
338.4268479514503269
 20
108.5867759274622983
 30
0.0
 42
0.0510992989622097
 50
243.434948822921001
  0
VERTEX
  5
29FB
  8
3
 10
338.323246783916602
 20
107.5756989396158048
 30
0.0
 42
0.0510992989621501
  0
VERTEX
  5
29FC
  8
3
 10
338.4268479514500996
 20
106.5646219517691975
 30
0.0
 42
0.0649481016503387
  0
VERTEX
  5
29FD
  8
3
 10
338.6893633074333252
 20
105.8079319866493933
 30
0.0
 42
0.1042029417664632
 70
     2
 50
296.5650511770685966
  0
VERTEX
  5
29FE
  8
3
 10
339.1498004727728244
 20
105.2283129439258005
 30
0.0
 42
0.1747045211891015
 50
296.5650511770685966
  0
VERTEX
  5
29FF
  8
3
 10
339.5732467839160904
 20
105.0756989396157053
 30
0.0
 42
0.1747045211891031
  0
VERTEX
  5
2A00
  8
3
 10
339.9966930950599817
 20
105.2283129439258005
 30
0.0
 42
0.0383623919748699
  0
VERTEX
  5
2A01
  8
3
 10
340.1944553716317046
 20
105.4195108283196021
 30
0.0
 42
0.0649481016501836
 70
     2
 50
63.4349488229210223
  0
SEQEND
  5
2A02
  8
3
  0
POLYLINE
  5
2A03
  8
0
 66
     1
 10
0.0
 20
0.0
 30
0.0
  0
VERTEX
  5
2A04
  8
0
 10
340.2954600144325923
 20
109.5305470741750042
 30
0.0
 42
0.004360639477812
 70
     2
 50
116.5650540145655043
  0
VERTEX
  5
2A05
  8
0
 10
340.2753517705953072
 20
109.5475031688264949
 30
0.0
 42
0.174704505519177
 50
116.5650540145655043
  0
VERTEX
  5
2A06
  8
0
 10
339.9196568154310967
 20
109.6756989396158986
 30
0.0
 42
0.1747045055191127
  0
SEQEND
  5
2A07
  8
0
  0
POLYLINE
  5
2A08
  8
0
 66
     1
 10
0.0
 20
0.0
 30
0.0
  0
VERTEX
  5
2A09
  8
0
 10
339.9196568154310967
 20
109.6756989396158986
 30
0.0
 42
0.1747045055191127
  0
VERTEX
  5
2A0A
  8
0
 10
339.5639618602666019
 20
109.5475031688263954
 30
0.0
 42
0.1042029446220009
  0
VERTEX
  5
2A0B
  8
0
 10
339.1771946032620235
 20
109.0606231801075978
 30
0.0
 42
0.0649481079107131
 70
     2
 50
243.4349459854344104
  0
VERTEX
  5
2A0C
  8
0
 10
338.9566816762333019
 20
108.4250036047523054
 30
0.0
 42
0.0510993051247251
 50
243.4349459854344104
  0
VERTEX
  5
2A0D
  8
0
 10
338.8696566854318917
 20
107.5756989396157053
 30
0.0
 42
0.0510993051251475
  0
VERTEX
  5
2A0E
  8
0
 10
338.9566816762342114
 20
106.7263942744773999
 30
0.0
 42
0.0649481079109093
  0
VERTEX
  5
2A0F
  8
0
 10
339.1771946032620235
 20
106.090774699123898
 30
0.0
 42
0.1042029446220308
 70
     2
 50
296.5650540145655896
  0
VERTEX
  5
2A10
  8
0
 10
339.5639618602667724
 20
105.6038947104049015
 30
0.0
 42
0.1747045055189262
 50
296.5650540145655896
  0
VERTEX
  5
2A11
  8
0
 10
339.9196568154310967
 20
105.4756989396155973
 30
0.0
 42
0.1747045055189906
  0
VERTEX
  5
2A12
  8
0
 10
340.2753517705950799
 20
105.6038947104047026
 30
0.0
 42
0.0043606394778386
  0
VERTEX
  5
2A13
  8
0
 10
340.2954600144325923
 20
105.6208508050564063
 30
0.0
 42
0.0649481079107489
 70
     2
 50
63.4349459854344389
  0
SEQEND
  5
2A14
  8
0
  0
POLYLINE
  5
2A15
  8
0
 66
     1
 10
0.0
 20
0.0
 30
0.0
  0
VERTEX
  5
2A16
  8
0
 10
345.011918349274481
 20
111.8256991705837038
 30
0.0
 42
0.1143909099589
  0
VERTEX
  5
2A17
  8
0
 10
343.6682164685394127
 20
111.5142086683555931
 30
0.0
 42
0.1037179872580481
  0
VERTEX
  5
2A18
  8
0
 10
342.471310344636322
 20
110.5809029229776002
 30
0.0
 42
0.091500667667752
 70
     2
 50
229.7887265326679085
  0
VERTEX
  5
2A19
  8
0
 10
341.7007349637498805
 20
109.2329588021728028
 30
0.0
 42
0.0844078028585159
 50
229.7887265326679085
  0
VERTEX
  5
2A1A
  8
0
 10
341.418956052441672
 20
107.5756989396157053
 30
0.0
 42
0.0844078028584058
  0
VERTEX
  5
2A1B
  8
0
 10
341.7007349637493121
 20
105.9184390770603983
 30
0.0
 42
0.0915006676678527
  0
VERTEX
  5
2A1C
  8
0
 10
342.471310344636322
 20
104.5704949562538957
 30
0.0
 42
0.1037179872579288
 70
     2
 50
310.2112734673319778
  0
VERTEX
  5
2A1D
  8
0
 10
343.6682164685394127
 20
103.6371892108754054
 30
0.0
 42
0.1143909099587343
 50
310.2112734673319778
  0
VERTEX
  5
2A1E
  8
0
 10
345.011918349274481
 20
103.3256987086477068
 30
0.0
 42
0.1143909099588127
  0
SEQEND
  5
2A1F
  8
0
  0
POLYLINE
  5
2A20
  8
0
 66
     1
 10
0.0
 20
0.0
 30
0.0
  0
VERTEX
  5
2A21
  8
0
 10
345.011918349274481
 20
103.3256987086477068
 30
0.0
 42
0.1014818935059258
  0
VERTEX
  5
2A22
  8
0
 10
346.5787687607730732
 20
103.6470217714144013
 30
0.0
 42
0.099680202155602
  0
VERTEX
  5
2A23
  8
0
 10
347.9192461500466038
 20
104.5704949562538957
 30
0.0
 42
0.0972337231221823
 70
     2
 50
45.9483889832749313
  0
VERTEX
  5
2A24
  8
0
 10
348.8084916011152927
 20
105.9427282305822047
 30
0.0
 42
0.0955717911069166
 50
45.9483889832749313
  0
VERTEX
  5
2A25
  8
0
 10
349.1235007553905234
 20
107.5756989396157053
 30
0.0
 42
0.0955717911068334
  0
VERTEX
  5
2A26
  8
0
 10
348.8084916011156906
 20
109.2086696486483959
 30
0.0
 42
0.0972337231222172
  0
VERTEX
  5
2A27
  8
0
 10
347.9192461500466038
 20
110.5809029229776002
 30
0.0
 42
0.099680202155595
 70
     2
 50
134.0516110167249906
  0
VERTEX
  5
2A28
  8
0
 10
346.5787687607726184
 20
111.5043761078173929
 30
0.0
 42
0.1014818935058491
 50
134.0516110167249906
  0
VERTEX
  5
2A29
  8
0
 10
345.011918349274481
 20
111.8256991705837038
 30
0.0
 42
0.1014818935059546
  0
SEQEND
  5
2A2A
  8
0
  0
POLYLINE
  5
2A2B
  8
0
 66
     1
 10
0.0
 20
0.0
 30
0.0
  0
VERTEX
  5
2A2C
  8
0
 10
345.011918349274481
 20
103.3256987086477068
 30
0.0
 42
0.1014818935059258
  0
VERTEX
  5
2A2D
  8
0
 10
346.5787687607730732
 20
103.6470217714144013
 30
0.0
 42
0.099680202155602
  0
VERTEX
  5
2A2E
  8
0
 10
347.9192461500466038
 20
104.5704949562538957
 30
0.0
 42
0.0972337231221823
 70
     2
 50
45.9483889832749313
  0
VERTEX
  5
2A2F
  8
0
 10
348.8084916011152927
 20
105.9427282305822047
 30
0.0
 42
0.0955717911069166
 50
45.9483889832749313
  0
VERTEX
  5
2A30
  8
0
 10
349.1235007553905234
 20
107.5756989396157053
 30
0.0
 42
0.0955717911068334
  0
VERTEX
  5
2A31
  8
0
 10
348.8084916011156906
 20
109.2086696486483959
 30
0.0
 42
0.0972337231222172
  0
VERTEX
  5
2A32
  8
0
 10
347.9192461500466038
 20
110.5809029229776002
 30
0.0
 42
0.099680202155595
 70
     2
 50
134.0516110167249906
  0
VERTEX
  5
2A33
  8
0
 10
346.5787687607726184
 20
111.5043761078173929
 30
0.0
 42
0.1014818935058457
 50
134.0516110167249906
  0
VERTEX
  5
2A34
  8
0
 10
345.011918349274481
 20
111.8256991705837038
 30
0.0
 42
0.1014818935059546
  0
SEQEND
  5
2A35
  8
0
  0
POLYLINE
  5
2A36
  8
0
 66
     1
 10
0.0
 20
0.0
 30
0.0
 70
     1
  0
VERTEX
  5
2A37
  8
0
 10
345.4345366110158011
 20
104.6756989764960935
 30
0.0
 42
0.1075842237263698
  0
VERTEX
  5
2A38
  8
0
 10
346.4274022647055062
 20
104.8918339629947951
 30
0.0
 42
0.1018043071921488
  0
VERTEX
  5
2A39
  8
0
 10
347.2930202244801876
 20
105.5250893002531001
 30
0.0
 42
0.0945713110822393
 70
     2
 50
47.8137368379363821
  0
VERTEX
  5
2A3A
  8
0
 10
347.8590542034904161
 20
106.4530818424266982
 30
0.0
 42
0.090023437740651
 50
47.8137368379363821
  0
VERTEX
  5
2A3B
  8
0
 10
348.0628293426253208
 20
107.5756989396157053
 30
0.0
 42
0.0900234377407498
  0
VERTEX
  5
2A3C
  8
0
 10
347.859054203490075
 20
108.6983160368047976
 30
0.0
 42
0.0945713110823292
  0
VERTEX
  5
2A3D
  8
0
 10
347.2930202244801876
 20
109.6263085789783958
 30
0.0
 42
0.1018043071921259
 70
     2
 50
132.1862631620635966
  0
VERTEX
  5
2A3E
  8
0
 10
346.4274022647052789
 20
110.2595639162368997
 30
0.0
 42
0.1075842237262832
 50
132.1862631620635966
  0
VERTEX
  5
2A3F
  8
0
 10
345.4345366110158011
 20
110.4756989027354024
 30
0.0
 42
0.1075842237263073
  0
VERTEX
  5
2A40
  8
0
 10
344.4416709573264939
 20
110.2595639162368997
 30
0.0
 42
0.1018043071921888
  0
VERTEX
  5
2A41
  8
0
 10
343.5760529975514146
 20
109.6263085789783958
 30
0.0
 42
0.0945713110821998
 70
     2
 50
227.8137368379364034
  0
VERTEX
  5
2A42
  8
0
 10
343.0100190185416977
 20
108.6983160368057071
 30
0.0
 42
0.0900234377407769
 50
227.8137368379364034
  0
VERTEX
  5
2A43
  8
0
 10
342.8062438794062814
 20
107.5756989396157053
 30
0.0
 42
0.090023437740651
  0
VERTEX
  5
2A44
  8
0
 10
343.0100190185412998
 20
106.4530818424266982
 30
0.0
 42
0.094571311082239
  0
VERTEX
  5
2A45
  8
0
 10
343.5760529975514146
 20
105.5250893002531001
 30
0.0
 42
0.1018043071923156
 70
     2
 50
312.1862631620635966
  0
VERTEX
  5
2A46
  8
0
 10
344.4416709573270055
 20
104.8918339629944967
 30
0.0
 42
0.1075842237263555
 50
312.1862631620635966
  0
SEQEND
  5
2A47
  8
0
  0
POLYLINE
  5
2A48
  8
3
 66
     1
 10
0.0
 20
0.0
 30
0.0
 70
     1
  0
VERTEX
  5
2A49
  8
3
 10
345.6035839157113969
 20
110.0756989396157053
 30
0.0
 42
0.1075842303698266
  0
VERTEX
  5
2A4A
  8
3
 10
344.7476653056019131
 20
109.8893756759963054
 30
0.0
 42
0.101804309290016
  0
VERTEX
  5
2A4B
  8
3
 10
344.0014429605719215
 20
109.3434658925821026
 30
0.0
 42
0.0945713081280446
 70
     2
 50
227.8137388189556134
  0
VERTEX
  5
2A4C
  8
3
 10
343.5134826636585785
 20
108.5434723189498953
 30
0.0
 42
0.0900234319787745
 50
227.8137388189556134
  0
VERTEX
  5
2A4D
  8
3
 10
343.3378144481197864
 20
107.5756989396157053
 30
0.0
 42
0.0900234319788162
  0
VERTEX
  5
2A4E
  8
3
 10
343.5134826636585785
 20
106.6079255602819984
 30
0.0
 42
0.0945713081281722
  0
VERTEX
  5
2A4F
  8
3
 10
344.0014429605719215
 20
105.8079319866493933
 30
0.0
 42
0.101804309290016
 70
     2
 50
312.186261181044415
  0
VERTEX
  5
2A50
  8
3
 10
344.7476653056019131
 20
105.2620222032352046
 30
0.0
 42
0.1075842303698266
 50
312.186261181044415
  0
VERTEX
  5
2A51
  8
3
 10
345.6035839157113969
 20
105.0756989396157053
 30
0.0
 42
0.1075842303698545
  0
VERTEX
  5
2A52
  8
3
 10
346.4595025258207102
 20
105.2620222032352046
 30
0.0
 42
0.1018043092900892
  0
VERTEX
  5
2A53
  8
3
 10
347.2057248708508723
 20
105.8079319866493933
 30
0.0
 42
0.0945713081281952
 70
     2
 50
47.8137388189555708
  0
VERTEX
  5
2A54
  8
3
 10
347.6936851677644995
 20
106.6079255602824958
 30
0.0
 42
0.0900234319787432
 50
47.8137388189555708
  0
VERTEX
  5
2A55
  8
3
 10
347.8693533833030074
 20
107.5756989396157053
 30
0.0
 42
0.0900234319788162
  0
VERTEX
  5
2A56
  8
3
 10
347.6936851677642153
 20
108.5434723189494974
 30
0.0
 42
0.0945713081281722
  0
VERTEX
  5
2A57
  8
3
 10
347.2057248708508723
 20
109.3434658925821026
 30
0.0
 42
0.1018043092902128
 70
     2
 50
132.1862611810443866
  0
VERTEX
  5
2A58
  8
3
 10
346.4595025258204259
 20
109.8893756759962059
 30
0.0
 42
0.1075842303699466
 50
132.1862611810443866
  0
SEQEND
  5
2A59
  8
3
  0
POLYLINE
  5
2A5A
  8
0
 66
     1
 10
0.0
 20
0.0
 30
0.0
 70
     1
  0
VERTEX
  5
2A5B
  8
0
 10
345.7726312204076748
 20
109.6756989396158986
 30
0.0
 42
0.1075842303698466
  0
VERTEX
  5
2A5C
  8
0
 10
345.0536595879154902
 20
109.5191873981755037
 30
0.0
 42
0.1018043092900791
  0
VERTEX
  5
2A5D
  8
0
 10
344.4268328180900767
 20
109.0606231801075978
 30
0.0
 42
0.0945713081281656
 70
     2
 50
227.8137388189502133
  0
VERTEX
  5
2A5E
  8
0
 10
344.0169461686825798
 20
108.3886285782558048
 30
0.0
 42
0.0900234319786965
 50
227.8137388189502133
  0
VERTEX
  5
2A5F
  8
0
 10
343.8693848676302878
 20
107.5756989396157053
 30
0.0
 42
0.0900234319787835
  0
VERTEX
  5
2A60
  8
0
 10
344.0169461686828072
 20
106.7627693009751937
 30
0.0
 42
0.0945713081281378
  0
VERTEX
  5
2A61
  8
0
 10
344.4268328180900767
 20
106.090774699123898
 30
0.0
 42
0.1018043092899601
 70
     2
 50
312.1862611810497015
  0
VERTEX
  5
2A62
  8
0
 10
345.0536595879154902
 20
105.6322104810557931
 30
0.0
 42
0.1075842303696939
 50
312.1862611810497015
  0
VERTEX
  5
2A63
  8
0
 10
345.7726312204076748
 20
105.4756989396155973
 30
0.0
 42
0.1075842303698798
  0
VERTEX
  5
2A64
  8
0
 10
346.491602852899689
 20
105.6322104810560063
 30
0.0
 42
0.1018043092901666
  0
VERTEX
  5
2A65
  8
0
 10
347.1184296227252162
 20
106.090774699123898
 30
0.0
 42
0.0945713081281381
 70
     2
 50
47.8137388189502204
  0
VERTEX
  5
2A66
  8
0
 10
347.5283162721324857
 20
106.7627693009751937
 30
0.0
 42
0.0900234319787835
 50
47.8137388189502204
  0
VERTEX
  5
2A67
  8
0
 10
347.6758775731850051
 20
107.5756989396157053
 30
0.0
 42
0.0900234319788826
  0
VERTEX
  5
2A68
  8
0
 10
347.5283162721324857
 20
108.3886285782552932
 30
0.0
 42
0.0945713081284416
  0
VERTEX
  5
2A69
  8
0
 10
347.1184296227252162
 20
109.0606231801075978
 30
0.0
 42
0.1018043092901069
 70
     2
 50
132.1862611810497867
  0
VERTEX
  5
2A6A
  8
0
 10
346.491602852899689
 20
109.5191873981756032
 30
0.0
 42
0.1075842303698035
 50
132.1862611810497867
  0
SEQEND
  5
2A6B
  8
0
  0
POLYLINE
  5
2A6C
  8
0
 66
     1
 10
0.0
 20
0.0
 30
0.0
  0
VERTEX
  5
2A6D
  8
0
 10
338.3608112186187213
 20
111.8256991705837038
 30
0.0
 42
0.21193537167749
  0
VERTEX
  5
2A6E
  8
0
 10
337.856305362870728
 20
111.6017969726199937
 30
0.0
 42
0.0944966141019624
  0
VERTEX
  5
2A6F
  8
0
 10
337.234620941939113
 20
110.5809029229776002
 30
0.0
 42
0.0511827251509154
 70
     2
 50
249.4566795660944933
  0
VERTEX
  5
2A70
  8
0
 10
336.9020814974451241
 20
109.3118333873415935
 30
0.0
 42
0.0385180759938612
 50
249.4566795660944933
  0
VERTEX
  5
2A71
  8
0
 10
336.7681376555256065
 20
107.5756989396157053
 30
0.0
 42
0.0385180759939312
  0
VERTEX
  5
2A72
  8
0
 10
336.9020814974455789
 20
105.8395644918872023
 30
0.0
 42
0.051182725150819
  0
VERTEX
  5
2A73
  8
0
 10
337.234620941939113
 20
104.5704949562538957
 30
0.0
 42
0.0944966141020446
 70
     2
 50
290.5433204339054782
  0
VERTEX
  5
2A74
  8
0
 10
337.8563053628708985
 20
103.5496009066115022
 30
0.0
 42
0.2119353716775553
 50
290.5433204339054782
  0
VERTEX
  5
2A75
  8
0
 10
338.3608112186187213
 20
103.3256987086477068
 30
0.0
 42
0.2119353716774791
  0
SEQEND
  5
2A76
  8
0
  0
LINE
  5
2A78
  8
0
 10
339.2504648392613831
 20
111.5756989396156058
 30
0.0
 11
343.8017601333453968
 21
111.5756989396156058
 31
0.0
  0
LINE
  5
2A79
  8
0
 10
337.8338679531111097
 20
103.5756989396156058
 30
0.0
 11
336.3511922753854719
 21
103.5756989396156058
 31
0.0
  0
LINE
  5
2A7B
  8
0
 10
343.8017601333449988
 20
103.5756989396156058
 30
0.0
 11
339.2504648392604167
 21
103.5756989396156058
 31
0.0
  0
LINE
  5
2A7E
  8
0
 10
346.4004138078635151
 20
111.5756989396156058
 30
0.0
 11
352.505612755614095
 21
111.5756989396156058
 31
0.0
  0
CIRCLE
  5
2E26
  8
0
 10
168.4084084323943102
 20
184.575700459533806
 30
0.0
 40
4.7499999999999982
  0
CIRCLE
  5
2E27
  8
0
 10
168.4084084323943102
 20
184.575700459533806
 30
0.0
 40
5.2500000000000053
  0
CIRCLE
  5
2E2E
  8
0
 10
168.4084084323943102
 20
184.575700459533806
 30
0.0
 40
14.0000000000000195
  0
CIRCLE
  5
2E2F
  8
0
 10
168.4084084323943102
 20
184.575700459533806
 30
0.0
 40
4.2500000000000311
  0
CIRCLE
  5
2E30
  8
0
 10
168.4084084323943102
 20
184.575700459533806
 30
0.0
 40
3.750000000000036
  0
LINE
  5
2E31
  8
0
 10
168.559366607004705
 20
182.8502406282080983
 30
0.0
 11
169.9781795668372126
 21
183.8437041579923914
 31
0.0
  0
LINE
  5
2E32
  8
0
 10
166.9895954725618026
 20
183.5822369297495129
 30
0.0
 11
168.559366607004705
 21
182.8502406282080983
 31
0.0
  0
LINE
  5
2E33
  8
0
 10
166.8386372979514931
 20
185.3076967610751922
 30
0.0
 11
166.9895954725618026
 21
183.5822369297495129
 31
0.0
  0
LINE
  5
2E34
  8
0
 10
168.2574502577840008
 20
186.3011602908595137
 30
0.0
 11
166.8386372979514931
 21
185.3076967610751922
 31
0.0
  0
LINE
  5
2E35
  8
0
 10
169.8272213922267042
 20
185.5691639893180991
 30
0.0
 11
168.2574502577840008
 21
186.3011602908595137
 31
0.0
  0
LINE
  5
2E36
  8
0
 10
169.9781795668372126
 20
183.8437041579923914
 30
0.0
 11
169.8272213922267042
 21
185.5691639893180991
 31
0.0
  0
LINE
  5
2F5C
  8
1
 10
168.4084084323943102
 20
204.5757001242577928
 30
0.0
 11
168.4084084323943102
 21
147.5756989396155063
 31
0.0
  0
LINE
  5
2F5D
  8
1
 10
188.4084080971182118
 20
184.5757004595336923
 30
0.0
 11
148.4084087676704939
 21
184.5757004595338913
 31
0.0
  0
CIRCLE
  5
2F5E
  8
0
 10
168.4084084323943102
 20
184.575700459533806
 30
0.0
 40
15.0
  0
LINE
  5
2F71
  8
1
 10
94.0272338051822771
 20
86.0756987403124754
 30
0.0
 11
94.0272338051822771
 21
88.575698835307449
 31
0.0
  0
LINE
  5
2F99
  8
0
 10
84.0272334699060366
 20
90.3756915674470633
 30
0.0
 11
83.827233469906048
 21
90.5756915674470946
 31
0.0
  0
LINE
  5
2FDC
  8
0
 10
183.4084084323943102
 20
90.3756988353073893
 30
0.0
 11
183.2084084323942932
 21
90.5756988353074348
 31
0.0
  0
LINE
  5
2FEA
  8
0
 10
183.4084084323943102
 20
90.3756988353073893
 30
0.0
 11
177.8196111760439067
 21
90.3756988353073893
 31
0.0
  0
LINE
  5
3005
  8
0
 10
183.2084084323942932
 20
90.5756988353074348
 30
0.0
 11
177.8196111760439067
 21
90.5756988353074348
 31
0.0
  0
LINE
  5
300A
  8
0
 10
153.4084084323945092
 20
90.3756988353073893
 30
0.0
 11
158.997205688744998
 21
90.3756988353073893
 31
0.0
  0
LINE
  5
300B
  8
0
 10
153.4084084323945092
 20
90.3756988353073893
 30
0.0
 11
153.6084084323944126
 21
90.5756988353074348
 31
0.0
  0
LINE
  5
300C
  8
0
 10
153.6084084323944126
 20
90.5756988353074348
 30
0.0
 11
158.997205688744998
 21
90.5756988353074348
 31
0.0
  0
TEXT
  5
30F3
  8
0
 62
     3
 10
0.0
 20
0.0
 30
0.0
 40
10.0
  1
QLSW150NR
  7
STANDARD1
  0
LINE
  5
35BF
  8
1
 10
162.9084084323943955
 20
159.5757004595338913
 30
0.0
 11
173.9084084323943102
 21
159.5757004595338913
 31
0.0
  0
CIRCLE
  5
35CE
  8
3
 10
168.4084084323943102
 20
159.5757004595338913
 30
0.0
 40
3.0
  0
CIRCLE
  5
35CF
  8
0
 10
168.4084084323943102
 20
159.5757004595338913
 30
0.0
 40
2.458499999999999
  0
LINE
  5
35D0
  8
0
 10
172.9162392645478974
 20
154.5657005882798956
 30
0.0
 11
180.7203978739084107
 21
176.007450816685008
 31
0.0
  0
LINE
  5
35D1
  8
0
 10
163.9005776002408084
 20
154.5657005882798956
 30
0.0
 11
172.9162392645478974
 21
154.5657005882798956
 31
0.0
  0
LINE
  5
35D2
  8
0
 10
156.096418990880295
 20
176.007450816685008
 30
0.0
 11
163.9005776002408084
 21
154.5657005882798956
 31
0.0
  0
LINE
  5
35D3
  8
0
 10
182.5037977165879113
 20
179.4453982985556024
 30
0.0
 11
173.2663429781198943
 21
154.0656995750009912
 31
0.0
  0
LINE
  5
35D4
  8
0
 10
173.2663429781198943
 20
154.0656995750009912
 30
0.0
 11
172.9162392645478974
 21
154.5657005882798956
 31
0.0
  0
LINE
  5
35D5
  8
0
 10
163.9005776002408084
 20
154.5657005882798956
 30
0.0
 11
163.5504738866688115
 21
154.0656995750009912
 31
0.0
  0
LINE
  5
35D6
  8
0
 10
163.5504738866688115
 20
154.0656995750009912
 30
0.0
 11
154.3130191482007945
 21
179.4453982985556024
 31
0.0
  0
LINE
  5
35D7
  8
0
 10
173.2663429781198943
 20
154.0656995750009912
 30
0.0
 11
172.72038771504171
 21
152.5657002604544061
 31
0.0
  0
LINE
  5
35D8
  8
0
 10
172.72038771504171
 20
152.5657002604544061
 30
0.0
 11
164.0964291497469958
 21
152.5657002604544061
 31
0.0
  0
LINE
  5
35D9
  8
0
 10
164.0964291497469958
 20
152.5657002604544061
 30
0.0
 11
163.5504738866688115
 21
154.0656995750009912
 31
0.0
  0
LINE
  5
366B
  8
1
 10
94.0272338051822771
 20
86.0757060132254139
 30
0.0
 11
94.0272338051821492
 21
105.0756974047960028
 31
0.0
  0
LINE
  5
366C
  8
0
 10
70.6455244694284374
 20
96.2537816978173595
 30
0.0
 11
70.6772338051821407
 21
96.575706108220345
 31
0.0
  0
ARC
  5
366D
  8
0
 10
69.0272338051820498
 20
96.575706108220345
 30
0.0
 40
1.649999999999997
 50
168.7491014520894055
 51
189.7004648448703961
  0
LINE
  5
366E
  8
0
 10
70.6772338051821407
 20
96.575706108220345
 30
0.0
 11
70.653642273630112
 21
96.8537267796831856
 31
0.0
  0
ARC
  5
366F
  8
0
 10
69.1560558044470781
 20
96.575706108220345
 30
0.0
 40
2.353528225344788
 50
93.1376923028004455
 51
266.862307697199526
  0
ARC
  5
3670
  8
0
 10
68.9007121580532385
 20
96.575706108220345
 30
0.0
 40
2.3534034348560309
 50
273.0817720543674909
 51
86.9182279456324949
  0
ARC
  5
3671
  8
0
 10
69.0272338051820498
 20
96.575706108220345
 30
0.0
 40
1.999999999999996
 50
187.8517097071585908
 51
350.5978565898001875
  0
LINE
  5
3672
  8
0
 10
67.045983899053553
 20
96.3024867650803316
 30
0.0
 11
71.0003659071088435
 21
96.2489803694945039
 31
0.0
  0
ARC
  5
3673
  8
0
 10
69.0272338051820498
 20
96.575706108220345
 30
0.0
 40
2.0000000000000031
 50
7.8517097071586184
 51
170.5978565898018076
  0
LINE
  5
3674
  8
0
 10
67.0541017032552418
 20
96.9024318469461434
 30
0.0
 11
71.0084837113105323
 21
96.8489254513603299
 31
0.0
  0
LINE
  5
3675
  8
0
 10
54.52723388713855
 20
102.5756974047959034
 30
0.0
 11
54.0272338051821635
 21
102.0757001168072975
 31
0.0
  0
LINE
  5
3676
  8
0
 10
54.0272338051821635
 20
91.0757001764119565
 30
0.0
 11
54.52723388713855
 21
90.5756991631329953
 31
0.0
  0
LINE
  5
3677
  8
0
 10
54.0272338051821635
 20
94.1075872904599606
 30
0.0
 11
54.0272338051821635
 21
91.0757001764119565
 31
0.0
  0
LINE
  5
3678
  8
0
 10
54.0272338051821635
 20
102.0757001168072975
 30
0.0
 11
54.0272338051821635
 21
99.0627523786366879
 31
0.0
  0
LINE
  5
3679
  8
0
 10
54.52723388713855
 20
102.5756974047959034
 30
0.0
 11
73.9865257140721724
 21
102.5756974047959034
 31
0.0
  0
LINE
  5
367A
  8
0
 10
73.9865257140721724
 20
102.5756974047959034
 30
0.0
 11
74.1575356308843538
 21
102.0757001168072975
 31
0.0
  0
LINE
  5
367B
  8
0
 10
74.1575356308843538
 20
102.0757001168072975
 30
0.0
 11
54.0272338051821635
 21
102.0757001168072975
 31
0.0
  0
LINE
  5
367C
  8
0
 10
54.0272338051821635
 20
91.0757001764119565
 30
0.0
 11
74.1575356308843538
 21
91.0757001764119565
 31
0.0
  0
LINE
  5
367D
  8
0
 10
74.1575356308843538
 20
91.0757001764119565
 30
0.0
 11
73.9865257140721724
 21
90.5756991631329953
 31
0.0
  0
ARC
  5
367E
  8
0
 10
35.9191008586739216
 20
96.6667375296672162
 30
0.0
 40
18.2925569172509697
 50
351.9578721835894157
 51
354.3812943893997272
  0
POLYLINE
  5
367F
  8
0
 66
     1
 10
0.0
 20
0.0
 30
0.0
 70
   128
  0
VERTEX
  5
3B63
  8
0
 10
54.029048952880089
 20
99.0627523786366879
 30
0.0
  0
VERTEX
  5
3B64
  8
0
 10
54.0274508033420489
 20
99.0741741186917722
 30
0.0
  0
VERTEX
  5
3B65
  8
0
 10
54.0477340776945994
 20
98.9280011779607236
 30
0.0
  0
VERTEX
  5
3B66
  8
0
 10
54.0931667868520734
 20
98.5634219176114499
 30
0.0
  0
VERTEX
  5
3B67
  8
0
 10
54.1492826972629473
 20
97.9927595979512631
 30
0.0
  0
VERTEX
  5
3B68
  8
0
 10
54.1948066760327265
 20
97.2398486263097226
 30
0.0
  0
VERTEX
  5
3B69
  8
0
 10
54.2064938430215832
 20
96.3753503090680539
 30
0.0
  0
VERTEX
  5
3B6A
  8
0
 10
54.1748288754846499
 20
95.5137577182591855
 30
0.0
  0
VERTEX
  5
3B6B
  8
0
 10
54.1237719092990801
 20
94.8757533258737027
 30
0.0
  0
SEQEND
  5
3B6C
  8
0
  0
LINE
  5
3680
  8
0
 10
74.1575356308843538
 20
91.0757001764119565
 30
0.0
 11
74.1575356308843538
 21
102.0757001168072975
 31
0.0
  0
LINE
  5
3681
  8
0
 10
74.1575356308843538
 20
91.0757001764119565
 30
0.0
 11
87.0272326950456545
 21
91.0757001764119565
 31
0.0
  0
ARC
  5
3682
  8
0
 10
86.6272334699060593
 20
90.1756984169379052
 30
0.0
 40
0.4000000000000199
 50
0.0
 51
90.0
  0
LINE
  5
3683
  8
0
 10
99.0372333411600039
 20
102.5756974047959034
 30
0.0
 11
99.5372343544389651
 21
102.0757001168072975
 31
0.0
  0
LINE
  5
3684
  8
0
 10
99.5372343544389651
 20
102.0757001168072975
 30
0.0
 11
74.1575356308843538
 21
102.0757001168072975
 31
0.0
  0
LINE
  5
3685
  8
0
 10
73.9865257140721724
 20
102.5756974047959034
 30
0.0
 11
99.0372333411600039
 21
102.5756974047959034
 31
0.0
  0
LINE
  5
3686
  8
0
 10
101.0372336689854933
 20
100.5756970769703997
 30
0.0
 11
99.5372343544389651
 21
102.0757001168072975
 31
0.0
  0
LINE
  5
3687
  8
0
 10
101.0372336689854933
 20
89.0756998485864102
 30
0.0
 11
101.0372336689854933
 21
100.5756970769703997
 31
0.0
  0
LINE
  5
3688
  8
0
 10
87.0272326950456545
 20
89.0756998485864102
 30
0.0
 11
101.0372336689854933
 21
89.0756998485864102
 31
0.0
  0
LINE
  5
3689
  8
0
 10
87.0272326950456545
 20
91.0757001764119565
 30
0.0
 11
87.0272326950456545
 21
89.0756998485864102
 31
0.0
  0
LINE
  5
368A
  8
0
 10
100.5372326557066032
 20
88.575698835307449
 30
0.0
 11
101.0372336689854933
 21
89.0756998485864102
 31
0.0
  0
LINE
  5
368B
  8
0
 10
100.5372326557066032
 20
88.575698835307449
 30
0.0
 11
87.5272337083246157
 21
88.575698835307449
 31
0.0
  0
LINE
  5
368C
  8
0
 10
87.0272326950456545
 20
89.0756998485864102
 30
0.0
 11
87.5272337083246157
 21
88.575698835307449
 31
0.0
  0
LINE
  5
368D
  8
0
 10
54.2322328422690134
 20
90.5756991631329953
 30
0.0
 11
76.7775192965293627
 21
90.5756991631329953
 31
0.0
  0
LINE
  5
368E
  8
0
 10
86.6322327513719301
 20
90.5756991631329953
 30
0.0
 11
76.7775192965293627
 21
90.5756991631329953
 31
0.0
  0
LINE
  5
36F5
  8
0
 10
153.9084084323945092
 20
102.5756988353074064
 30
0.0
 11
182.9084084323945092
 21
102.5756988353074064
 31
0.0
  0
LINE
  5
36F6
  8
0
 10
153.4084087676706076
 20
94.2256990498840992
 30
0.0
 11
153.4084087676706076
 21
91.0757016069234169
 31
0.0
  0
LINE
  5
36F7
  8
0
 10
153.4084087676706076
 20
102.075701547318701
 30
0.0
 11
153.4084087676706076
 21
98.9257003790676777
 31
0.0
  0
LINE
  5
36F8
  8
0
 10
183.4084080971182971
 20
91.0757016069234169
 30
0.0
 11
183.4084080971182971
 21
102.075701547318701
 31
0.0
  0
LINE
  5
36F9
  8
0
 10
183.4084080971182971
 20
102.075701547318701
 30
0.0
 11
182.9084080151619958
 21
102.5756988353074064
 31
0.0
  0
LINE
  5
36FA
  8
0
 10
153.9084088496269942
 20
102.5756988353074064
 30
0.0
 11
153.4084087676706076
 21
102.075701547318701
 31
0.0
  0
LINE
  5
36FB
  8
0
 10
153.4084087676706076
 20
91.0757016069234169
 30
0.0
 11
153.9084088496269942
 21
90.5757005936444557
 31
0.0
  0
LINE
  5
36FC
  8
0
 10
182.9084080151619958
 20
90.5757005936444557
 30
0.0
 11
183.4084080971182971
 21
91.0757016069234169
 31
0.0
  0
LINE
  5
36FD
  8
0
 10
163.5504738866688967
 20
102.075701547318701
 30
0.0
 11
154.3130191482009081
 21
102.075701547318701
 31
0.0
  0
LINE
  5
36FE
  8
0
 10
164.0964291497471095
 20
100.5756985074819028
 30
0.0
 11
163.5504738866688967
 21
102.075701547318701
 31
0.0
  0
LINE
  5
36FF
  8
0
 10
164.0964291497471095
 20
89.0757012790978706
 30
0.0
 11
164.0964291497471095
 21
100.5756985074819028
 31
0.0
  0
LINE
  5
3700
  8
0
 10
158.997205688744998
 20
89.0757012790978706
 30
0.0
 11
164.0964291497471095
 21
89.0757012790978706
 31
0.0
  0
LINE
  5
3701
  8
0
 10
158.997205688744998
 20
91.0757016069234169
 30
0.0
 11
158.997205688744998
 21
89.0757012790978706
 31
0.0
  0
LINE
  5
3702
  8
0
 10
154.3130191482009081
 20
91.0757016069234169
 30
0.0
 11
158.997205688744998
 21
91.0757016069234169
 31
0.0
  0
LINE
  5
3703
  8
0
 10
154.3130191482009081
 20
91.0757016069234169
 30
0.0
 11
154.3130191482009081
 21
102.075701547318701
 31
0.0
  0
LINE
  5
3704
  8
0
 10
164.4465328633191064
 20
88.5757002658189094
 30
0.0
 11
164.0964291497471095
 21
89.0757012790978706
 31
0.0
  0
LINE
  5
3705
  8
0
 10
164.4465328633191064
 20
88.5757002658189094
 30
0.0
 11
159.7112805090249879
 21
88.5757002658189094
 31
0.0
  0
LINE
  5
3706
  8
0
 10
158.997205688744998
 20
89.0757012790978706
 30
0.0
 11
159.7112805090249879
 21
88.5757002658189094
 31
0.0
  0
LINE
  5
3707
  8
0
 10
172.7203877150417952
 20
100.5756985074819028
 30
0.0
 11
164.0964291497471095
 21
100.5756985074819028
 31
0.0
  0
LINE
  5
3708
  8
0
 10
172.7203877150417952
 20
89.0757012790978706
 30
0.0
 11
172.7203877150417952
 21
100.5756985074819028
 31
0.0
  0
LINE
  5
3709
  8
0
 10
164.0964291497471095
 20
89.0757012790978706
 30
0.0
 11
172.7203877150417952
 21
89.0757012790978706
 31
0.0
  0
LINE
  5
370A
  8
0
 10
172.3702840014697983
 20
88.5757002658189094
 30
0.0
 11
164.4465328633191064
 21
88.5757002658189094
 31
0.0
  0
LINE
  5
370B
  8
0
 10
172.3702840014697983
 20
88.5757002658189094
 30
0.0
 11
172.7203877150417952
 21
89.0757012790978706
 31
0.0
  0
LINE
  5
370C
  8
0
 10
173.266342978120008
 20
102.075701547318701
 30
0.0
 11
172.9162392645480111
 21
102.5756988353074064
 31
0.0
  0
LINE
  5
370D
  8
0
 10
173.266342978120008
 20
102.075701547318701
 30
0.0
 11
172.7203877150417952
 21
100.5756985074819028
 31
0.0
  0
LINE
  5
370E
  8
0
 10
163.9005776002408936
 20
102.5756988353074064
 30
0.0
 11
163.5504738866688967
 21
102.075701547318701
 31
0.0
  0
LINE
  5
370F
  8
0
 10
172.7203877150417952
 20
89.0757012790978706
 30
0.0
 11
177.8196111760439067
 21
89.0757012790978706
 31
0.0
  0
LINE
  5
3710
  8
0
 10
177.8196111760439067
 20
89.0757012790978706
 30
0.0
 11
177.1055363557638884
 21
88.5757002658189094
 31
0.0
  0
LINE
  5
3711
  8
0
 10
177.1055363557638884
 20
88.5757002658189094
 30
0.0
 11
172.3702840014697983
 21
88.5757002658189094
 31
0.0
  0
LINE
  5
3712
  8
0
 10
182.5037977165879965
 20
102.075701547318701
 30
0.0
 11
173.266342978120008
 21
102.075701547318701
 31
0.0
  0
LINE
  5
3713
  8
0
 10
182.5037977165879965
 20
91.0757016069234169
 30
0.0
 11
182.5037977165879965
 21
102.075701547318701
 31
0.0
  0
LINE
  5
3714
  8
0
 10
177.8196111760439067
 20
91.0757016069234169
 30
0.0
 11
182.5037977165879965
 21
91.0757016069234169
 31
0.0
  0
LINE
  5
3715
  8
0
 10
177.8196111760439067
 20
89.0757012790978706
 30
0.0
 11
177.8196111760439067
 21
91.0757016069234169
 31
0.0
  0
LINE
  5
3716
  8
0
 10
154.7828657991589978
 20
102.5756988353074064
 30
0.0
 11
154.3130191482009081
 21
102.075701547318701
 31
0.0
  0
LINE
  5
3717
  8
0
 10
182.0339510656299069
 20
102.5756988353074064
 30
0.0
 11
182.5037977165879965
 21
102.075701547318701
 31
0.0
  0
LINE
  5
3718
  8
0
 10
154.3130191482009081
 20
91.0757016069234169
 30
0.0
 11
154.7828657991589978
 21
90.5757005936444557
 31
0.0
  0
LINE
  5
3719
  8
0
 10
182.5037977165879965
 20
91.0757016069234169
 30
0.0
 11
182.0339510656299069
 21
90.5757005936444557
 31
0.0
  0
LINE
  5
371A
  8
0
 10
154.3130191482009081
 20
102.075701547318701
 30
0.0
 11
153.4084087676706076
 21
102.075701547318701
 31
0.0
  0
LINE
  5
371B
  8
0
 10
183.4084080971182971
 20
102.075701547318701
 30
0.0
 11
182.5037977165879965
 21
102.075701547318701
 31
0.0
  0
LINE
  5
371C
  8
0
 10
182.5037977165879965
 20
91.0757016069234169
 30
0.0
 11
183.4084080971182971
 21
91.0757016069234169
 31
0.0
  0
LINE
  5
371D
  8
0
 10
153.4084087676706076
 20
91.0757016069234169
 30
0.0
 11
154.3130191482009081
 21
91.0757016069234169
 31
0.0
  0
ARC
  5
371E
  8
0
 10
136.1879634599661131
 20
96.5756997144758884
 30
0.0
 40
17.3800529262490606
 50
352.2290912313929994
 51
7.7709087686069127
  0
LINE
  5
378F
  8
1
 10
242.7895830596067128
 20
86.0757050983956162
 30
0.0
 11
242.7895830596067128
 21
105.0756974047960028
 31
0.0
  0
LINE
  5
3790
  8
0
 10
282.7895830596066844
 20
99.0627523786367021
 30
0.0
 11
282.7895830596066844
 21
102.0757001168072975
 31
0.0
  0
LINE
  5
3791
  8
0
 10
282.7895830596066844
 20
91.0757001764119707
 30
0.0
 11
282.7895830596066844
 21
94.1075872904599748
 31
0.0
  0
LINE
  5
3792
  8
0
 10
282.2895829776502978
 20
90.5756991631330095
 30
0.0
 11
282.7895830596066844
 21
91.0757001764119707
 31
0.0
  0
LINE
  5
3793
  8
0
 10
282.7895830596066844
 20
102.0757001168072975
 30
0.0
 11
282.2895829776502978
 21
102.5756974047960028
 31
0.0
  0
POLYLINE
  5
3794
  8
0
 66
     1
 10
0.0
 20
0.0
 30
0.0
 70
   128
  0
VERTEX
  5
3B6D
  8
0
 10
282.7850577632166278
 20
94.1075872904599748
 30
0.0
  0
VERTEX
  5
3B6E
  8
0
 10
282.7860775614357749
 20
94.1003565019906603
 30
0.0
  0
VERTEX
  5
3B6F
  8
0
 10
282.7560517216301719
 20
94.3221155828775011
 30
0.0
  0
VERTEX
  5
3B70
  8
0
 10
282.7051279345727721
 20
94.7568234330953203
 30
0.0
  0
VERTEX
  5
3B71
  8
0
 10
282.6498585963822734
 20
95.3930434114278398
 30
0.0
  0
VERTEX
  5
3B72
  8
0
 10
282.6134010428763759
 20
96.1939733750165544
 30
0.0
  0
VERTEX
  5
3B73
  8
0
 10
282.6163179451801284
 20
97.0714357024968706
 30
0.0
  0
VERTEX
  5
3B74
  8
0
 10
282.660460772571696
 20
97.903881622010573
 30
0.0
  0
VERTEX
  5
3B75
  8
0
 10
282.7242368111587894
 20
98.5685404664815508
 30
0.0
  0
VERTEX
  5
3B76
  8
0
 10
282.7744267160273921
 20
98.9673476940930925
 30
0.0
  0
VERTEX
  5
3B77
  8
0
 10
282.7877679119088157
 20
99.0627523786367021
 30
0.0
  0
SEQEND
  5
3B78
  8
0
  0
LINE
  5
3795
  8
0
 10
282.7895830596066844
 20
102.0757001168072975
 30
0.0
 11
262.659281233904494
 21
102.0757001168072975
 31
0.0
  0
LINE
  5
3796
  8
0
 10
262.659281233904494
 20
91.0757001764119707
 30
0.0
 11
282.7895830596066844
 21
91.0757001764119707
 31
0.0
  0
LINE
  5
3797
  8
0
 10
262.659281233904494
 20
91.0757001764119707
 30
0.0
 11
262.659281233904494
 21
102.0757001168072975
 31
0.0
  0
LINE
  5
3798
  8
0
 10
262.659281233904494
 20
91.0757001764119707
 30
0.0
 11
262.8302911507166755
 21
90.5756991631330095
 31
0.0
  0
LINE
  5
3799
  8
0
 10
262.8302911507166755
 20
102.5756974047960028
 30
0.0
 11
282.2895829776502978
 21
102.5756974047960028
 31
0.0
  0
LINE
  5
379A
  8
0
 10
262.8302911507166755
 20
102.5756974047960028
 30
0.0
 11
262.659281233904494
 21
102.0757001168072975
 31
0.0
  0
LINE
  5
379B
  8
0
 10
249.7895841697431933
 20
91.0757001764119707
 30
0.0
 11
262.659281233904494
 21
91.0757001764119707
 31
0.0
  0
ARC
  5
379C
  8
0
 10
250.1895833948827885
 20
90.1756984169379052
 30
0.0
 40
0.4000000000000199
 50
90.0
 51
180.0
  0
LINE
  5
379D
  8
0
 10
260.0442969450928103
 20
90.5756991631330095
 30
0.0
 11
250.1895834902501861
 21
90.5756991631330095
 31
0.0
  0
LINE
  5
379E
  8
0
 10
262.659281233904494
 20
102.0757001168072975
 30
0.0
 11
237.2795825103499112
 21
102.0757001168072975
 31
0.0
  0
LINE
  5
379F
  8
0
 10
237.2795825103499112
 20
102.0757001168072975
 30
0.0
 11
237.7795835236287871
 21
102.5756974047960028
 31
0.0
  0
LINE
  5
37A0
  8
0
 10
237.7795835236287871
 20
102.5756974047960028
 30
0.0
 11
262.8302911507166755
 21
102.5756974047960028
 31
0.0
  0
LINE
  5
37A1
  8
0
 10
235.7795831958032977
 20
89.0756998485864244
 30
0.0
 11
249.7895841697431933
 21
89.0756998485864244
 31
0.0
  0
LINE
  5
37A2
  8
0
 10
235.7795831958032977
 20
89.0756998485864244
 30
0.0
 11
235.7795831958032977
 21
100.5756970769703997
 31
0.0
  0
LINE
  5
37A3
  8
0
 10
237.2795825103499112
 20
102.0757001168072975
 30
0.0
 11
235.7795831958032977
 21
100.5756970769703997
 31
0.0
  0
LINE
  5
37A4
  8
0
 10
249.7895841697431933
 20
89.0756998485864244
 30
0.0
 11
249.7895841697431933
 21
91.0757001764119707
 31
0.0
  0
LINE
  5
37A5
  8
0
 10
249.2895831564642037
 20
88.5756988353074632
 30
0.0
 11
236.2795842090822873
 21
88.5756988353074632
 31
0.0
  0
LINE
  5
37A6
  8
0
 10
236.2795842090822873
 20
88.5756988353074632
 30
0.0
 11
235.7795831958032977
 21
89.0756998485864244
 31
0.0
  0
LINE
  5
37A7
  8
0
 10
249.7895841697431933
 20
89.0756998485864244
 30
0.0
 11
249.2895831564642037
 21
88.5756988353074632
 31
0.0
  0
LINE
  5
3900
  8
0
 10
352.9736903493445084
 20
96.2756988353074661
 30
0.0
 11
353.0011922753856197
 21
96.5756988353074632
 31
0.0
  0
ARC
  5
3901
  8
0
 10
351.3511922753854719
 20
96.5756988353074632
 30
0.0
 40
1.6499999999999699
 50
169.5243183036060941
 51
190.4756816963912058
  0
LINE
  5
3902
  8
0
 10
353.0011922753856197
 20
96.5756988353074632
 30
0.0
 11
352.9736903493445084
 21
96.8756988353075457
 31
0.0
  0
ARC
  5
3903
  8
0
 10
351.4629611164905896
 20
96.5756988353074632
 30
0.0
 40
2.352656429196986
 50
92.7230045724929539
 51
267.2769954275037776
  0
ARC
  5
3904
  8
0
 10
351.2324110598111133
 20
96.5756988353074632
 30
0.0
 40
2.352999995149446
 50
272.8935640277318271
 51
87.1064359722681729
  0
ARC
  5
3905
  8
0
 10
351.3511922753854719
 20
96.5756988353074632
 30
0.0
 40
2.000000000000052
 50
188.626926558676189
 51
351.3730734413232994
  0
LINE
  5
3906
  8
0
 10
349.3738202820571246
 20
96.2756988353074661
 30
0.0
 11
353.3285642687139898
 21
96.2756988353075087
 31
0.0
  0
ARC
  5
3907
  8
0
 10
351.3511922753854719
 20
96.5756988353074632
 30
0.0
 40
2.0000000000000608
 50
8.6269265586812303
 51
171.3730734413182972
  0
LINE
  5
3908
  8
0
 10
349.3738202820571246
 20
96.8756988353075457
 30
0.0
 11
353.3285642687139898
 21
96.8756988353075457
 31
0.0
  0
LINE
  5
3A33
  8
0
 10
352.9736903493445084
 20
96.2757005936444159
 30
0.0
 11
353.0011922753856197
 21
96.5757005936444273
 31
0.0
  0
ARC
  5
3A34
  8
0
 10
351.3511922753854719
 20
96.5757005936444273
 30
0.0
 40
1.6499999999999699
 50
169.5243183036060941
 51
190.4756816963912058
  0
LINE
  5
3A35
  8
0
 10
353.0011922753856197
 20
96.5757005936444273
 30
0.0
 11
352.9736903493445084
 21
96.8757005936444955
 31
0.0
  0
ARC
  5
3A36
  8
0
 10
351.4629611164905896
 20
96.5757005936444273
 30
0.0
 40
2.352656429196986
 50
92.7230045724929539
 51
267.2769954275070745
  0
ARC
  5
3A37
  8
0
 10
351.2324110598111133
 20
96.5757005936444273
 30
0.0
 40
2.352999995149446
 50
272.8935640277284733
 51
87.1064359722714556
  0
ARC
  5
3A38
  8
0
 10
351.3511922753854719
 20
96.5757005936444273
 30
0.0
 40
2.000000000000052
 50
188.6269265586751089
 51
351.3730734413247774
  0
LINE
  5
3A39
  8
0
 10
349.3738202820571246
 20
96.2757005936444159
 30
0.0
 11
353.3285642687139898
 21
96.2757005936444727
 31
0.0
  0
ARC
  5
3A3A
  8
0
 10
351.3511922753854719
 20
96.5757005936444273
 30
0.0
 40
2.0000000000000608
 50
8.6269265586827313
 51
171.3730734413171888
  0
LINE
  5
3A3B
  8
0
 10
349.3738202820571246
 20
96.8757005936444955
 30
0.0
 11
353.3285642687139898
 21
96.8757005936444955
 31
0.0
  0
LINE
  5
3A3C
  8
0
 10
336.3511926106617125
 20
91.0757016069234169
 30
0.0
 11
336.8511926926179854
 21
90.5757005936444557
 31
0.0
  0
LINE
  5
3A3D
  8
0
 10
365.8511918581530153
 20
90.5757005936444557
 30
0.0
 11
366.3511919401094019
 21
91.0757016069234169
 31
0.0
  0
LINE
  5
3A3E
  8
0
 10
336.3511926106617125
 20
102.075701547318701
 30
0.0
 11
336.3511926106617125
 21
91.0757016069234169
 31
0.0
  0
LINE
  5
3A3F
  8
0
 10
366.3511919401094019
 20
98.9257003790677345
 30
0.0
 11
366.3511919401094019
 21
102.075701547318701
 31
0.0
  0
LINE
  5
3A40
  8
0
 10
366.3511919401094019
 20
91.0757016069234169
 30
0.0
 11
366.3511919401094019
 21
94.225699049884156
 31
0.0
  0
LINE
  5
3A41
  8
0
 10
366.3511919401094019
 20
102.075701547318701
 30
0.0
 11
365.8511918581530153
 21
102.5756988353074064
 31
0.0
  0
LINE
  5
3A42
  8
0
 10
336.8511926926179854
 20
102.5756988353074064
 30
0.0
 11
336.3511926106617125
 21
102.075701547318701
 31
0.0
  0
LINE
  5
3A43
  8
0
 10
336.3511926106617125
 20
91.0757016069234169
 30
0.0
 11
366.3511919401094019
 21
91.0757016069234169
 31
0.0
  0
LINE
  5
3A44
  8
0
 10
366.3511919401094019
 20
102.075701547318701
 30
0.0
 11
336.3511926106617125
 21
102.075701547318701
 31
0.0
  0
ARC
  5
3A45
  8
0
 10
383.5794581813759123
 20
96.5756997144759453
 30
0.0
 40
17.3878020693686608
 50
172.2325758354012066
 51
187.7674241646004134
  0
LINE
  5
3A46
  8
0
 10
336.8511926926179854
 20
102.5756988353074064
 30
0.0
 11
365.8511918581530153
 21
102.5756988353074064
 31
0.0
  0
POLYLINE
  5
3AC4
  8
0
 66
     1
 10
0.0
 20
0.0
 30
0.0
 70
   128
  0
VERTEX
  5
3B79
  8
0
 10
272.2781097727100814
 20
107.5757000870035966
 30
0.0
  0
VERTEX
  5
3B7A
  8
0
 10
272.3184700334647914
 20
108.0935117131995042
 30
0.0
  0
VERTEX
  5
3B7B
  8
0
 10
272.4382539490441104
 20
108.5946861929224951
 30
0.0
  0
VERTEX
  5
3B7C
  8
0
 10
272.6336118975856948
 20
109.0631079203413947
 30
0.0
  0
VERTEX
  5
3B7D
  8
0
 10
272.8982644366303134
 20
109.4837192720699051
 30
0.0
  0
VERTEX
  5
3B7E
  8
0
 10
273.2237053314424884
 20
109.8430086201954055
 30
0.0
  0
VERTEX
  5
3B7F
  8
0
 10
273.5994748981871112
 20
110.1294238395023939
 30
0.0
  0
VERTEX
  5
3B80
  8
0
 10
274.0134952800548831
 20
110.3337634629536979
 30
0.0
  0
VERTEX
  5
3B81
  8
0
 10
274.4524602057613265
 20
110.4494523531725036
 30
0.0
  0
VERTEX
  5
3B82
  8
0
 10
274.9022601383006759
 20
110.4727801210215006
 30
0.0
  0
VERTEX
  5
3B83
  8
0
 10
275.3484390886700908
 20
110.4029905325702003
 30
0.0
  0
VERTEX
  5
3B84
  8
0
 10
275.7766551548816096
 20
110.2423299378685044
 30
0.0
  0
VERTEX
  5
3B85
  8
0
 10
276.1731471145727141
 20
109.9959615892699958
 30
0.0
  0
VERTEX
  5
3B86
  8
0
 10
276.5251693526483905
 20
109.6718017286592044
 30
0.0
  0
VERTEX
  5
3B87
  8
0
 10
276.821408162472494
 20
109.2802774435810989
 30
0.0
  0
VERTEX
  5
3B88
  8
0
 10
277.0523426333645034
 20
108.8339615887933007
 30
0.0
  0
VERTEX
  5
3B89
  8
0
 10
277.2105510557274215
 20
108.3472039825254001
 30
0.0
  0
VERTEX
  5
3B8A
  8
0
 10
277.2909465456585849
 20
107.8356508440308943
 30
0.0
  0
VERTEX
  5
3B8B
  8
0
 10
277.2909465456585849
 20
107.3157456046872937
 30
0.0
  0
VERTEX
  5
3B8C
  8
0
 10
277.210551055727592
 20
106.8041924661928022
 30
0.0
  0
VERTEX
  5
3B8D
  8
0
 10
277.0523426333649013
 20
106.317434859924802
 30
0.0
  0
VERTEX
  5
3B8E
  8
0
 10
276.8214081624730056
 20
105.8711227304273024
 30
0.0
  0
VERTEX
  5
3B8F
  8
0
 10
276.5251693526490726
 20
105.4795947200588984
 30
0.0
  0
VERTEX
  5
3B90
  8
0
 10
276.1731471145732826
 20
105.1554348594478938
 30
0.0
  0
VERTEX
  5
3B91
  8
0
 10
275.7766551548824054
 20
104.9090665108493994
 30
0.0
  0
VERTEX
  5
3B92
  8
0
 10
275.3484390886708866
 20
104.7484059161475045
 30
0.0
  0
VERTEX
  5
3B93
  8
0
 10
274.9022601383015854
 20
104.6786200529864033
 30
0.0
  0
VERTEX
  5
3B94
  8
0
 10
274.4524602057621223
 20
104.7019440955450023
 30
0.0
  0
VERTEX
  5
3B95
  8
0
 10
274.0134952800556789
 20
104.8176329857635949
 30
0.0
  0
VERTEX
  5
3B96
  8
0
 10
273.5994748981877933
 20
105.0219726092147994
 30
0.0
  0
VERTEX
  5
3B97
  8
0
 10
273.2237053314432274
 20
105.3083878285217025
 30
0.0
  0
VERTEX
  5
3B98
  8
0
 10
272.898264436630825
 20
105.6676771766471035
 30
0.0
  0
VERTEX
  5
3B99
  8
0
 10
272.6336118975860927
 20
106.0882922536657986
 30
0.0
  0
VERTEX
  5
3B9A
  8
0
 10
272.4382539490443946
 20
106.5567102557943997
 30
0.0
  0
VERTEX
  5
3B9B
  8
0
 10
272.3184700334650188
 20
107.0578847355174048
 30
0.0
  0
VERTEX
  5
3B9C
  8
0
 10
272.2781097727100814
 20
107.5757000870035966
 30
0.0
  0
SEQEND
  5
3B9D
  8
0
  0
POLYLINE
  5
3AC5
  8
0
 66
     1
 10
0.0
 20
0.0
 30
0.0
 70
   128
  0
VERTEX
  5
3B9E
  8
0
 10
279.25229911907212
 20
107.5756989396152932
 30
0.0
  0
VERTEX
  5
3B9F
  8
0
 10
279.2653598121264054
 20
107.9979423260467968
 30
0.0
  0
VERTEX
  5
3BA0
  8
0
 10
279.3042635252920718
 20
108.4111863277745016
 30
0.0
  0
VERTEX
  5
3BA1
  8
0
 10
279.3681810934659211
 20
108.8066233663551969
 30
0.0
  0
VERTEX
  5
3BA2
  8
0
 10
279.4557502246526042
 20
109.1758253878496987
 30
0.0
  0
VERTEX
  5
3BA3
  8
0
 10
279.5651045348542993
 20
109.510923492159904
 30
0.0
  0
VERTEX
  5
3BA4
  8
0
 10
279.6939133268041928
 20
109.8047756449731054
 30
0.0
  0
VERTEX
  5
3BA5
  8
0
 10
279.8394312647336051
 20
110.0511188978236987
 30
0.0
  0
VERTEX
  5
3BA6
  8
0
 10
279.9985568864365746
 20
110.2447028719659983
 30
0.0
  0
VERTEX
  5
3BA7
  8
0
 10
280.1678987055522043
 20
110.3814016610819948
 30
0.0
  0
VERTEX
  5
3BA8
  8
0
 10
280.3438474952092179
 20
110.4583017678113066
 30
0.0
  0
VERTEX
  5
3BA9
  8
0
 10
280.5226532124294181
 20
110.473764199889203
 30
0.0
  0
VERTEX
  5
3BAA
  8
0
 10
280.7005049237837966
 20
110.4274594024208938
 30
0.0
  0
VERTEX
  5
3BAB
  8
0
 10
280.8736120288223219
 20
110.320374281772601
 30
0.0
  0
VERTEX
  5
3BAC
  8
0
 10
281.0382850501407006
 20
110.1547911713747965
 30
0.0
  0
VERTEX
  5
3BAD
  8
0
 10
281.1910142681870184
 20
109.9342391877487017
 30
0.0
  0
VERTEX
  5
3BAE
  8
0
 10
281.328544524839117
 20
109.6634190135138027
 30
0.0
  0
VERTEX
  5
3BAF
  8
0
 10
281.4479446014499899
 20
109.3481027104994041
 30
0.0
  0
VERTEX
  5
3BB0
  8
0
 10
281.5466696926828831
 20
108.9950106982678051
 30
0.0
  0
VERTEX
  5
3BB1
  8
0
 10
281.622615644619998
 20
108.6116685200389043
 30
0.0
  0
VERTEX
  5
3BB2
  8
0
 10
281.6741638011491773
 20
108.206246448802105
 30
0.0
  0
VERTEX
  5
3BB3
  8
0
 10
281.7002155028093853
 20
107.7873853521323042
 30
0.0
  0
VERTEX
  5
3BB4
  8
0
 10
281.700215502809499
 20
107.3640125270991064
 30
0.0
  0
VERTEX
  5
3BB5
  8
0
 10
281.6741638011494047
 20
106.9451514304292061
 30
0.0
  0
VERTEX
  5
3BB6
  8
0
 10
281.6226156446202822
 20
106.5397293591924068
 30
0.0
  0
VERTEX
  5
3BB7
  8
0
 10
281.546669692683281
 20
106.156387180963506
 30
0.0
  0
VERTEX
  5
3BB8
  8
0
 10
281.4479446014505015
 20
105.8032951687317933
 30
0.0
  0
VERTEX
  5
3BB9
  8
0
 10
281.3285445248396854
 20
105.4879788657173947
 30
0.0
  0
VERTEX
  5
3BBA
  8
0
 10
281.1910142681874731
 20
105.2171586914824957
 30
0.0
  0
VERTEX
  5
3BBB
  8
0
 10
281.0382850501413827
 20
104.996606707856202
 30
0.0
  0
VERTEX
  5
3BBC
  8
0
 10
280.873612028823004
 20
104.831023597458497
 30
0.0
  0
VERTEX
  5
3BBD
  8
0
 10
280.7005049237845924
 20
104.7239384768101047
 30
0.0
  0
VERTEX
  5
3BBE
  8
0
 10
280.5226532124302139
 20
104.6776336793417954
 30
0.0
  0
VERTEX
  5
3BBF
  8
0
 10
280.3438474952100137
 20
104.6930961114196066
 30
0.0
  0
VERTEX
  5
3BC0
  8
0
 10
280.1678987055531138
 20
104.7699962181489042
 30
0.0
  0
VERTEX
  5
3BC1
  8
0
 10
279.9985568864373136
 20
104.9066950072649007
 30
0.0
  0
VERTEX
  5
3BC2
  8
0
 10
279.8394312647344009
 20
105.1002789814071008
 30
0.0
  0
VERTEX
  5
3BC3
  8
0
 10
279.6939133268048749
 20
105.3466222342576941
 30
0.0
  0
VERTEX
  5
3BC4
  8
0
 10
279.5651045348546972
 20
105.6404743870708955
 30
0.0
  0
VERTEX
  5
3BC5
  8
0
 10
279.4557502246531158
 20
105.9755724913811008
 30
0.0
  0
VERTEX
  5
3BC6
  8
0
 10
279.368181093466319
 20
106.3447745128755031
 30
0.0
  0
VERTEX
  5
3BC7
  8
0
 10
279.3042635252922992
 20
106.7402115514561984
 30
0.0
  0
VERTEX
  5
3BC8
  8
0
 10
279.265359812126519
 20
107.1534555531838038
 30
0.0
  0
VERTEX
  5
3BC9
  8
0
 10
279.25229911907212
 20
107.5756989396152932
 30
0.0
  0
SEQEND
  5
3BCA
  8
0
  0
ENDSEC
  0
EOF
