  0
SECTION
  2
HEADER
  9
$ACADVER
  1
AC1009
  9
$INSBASE
 10
0.0
 20
0.0
 30
0.0
  9
$EXTMIN
 10
0.0
 20
-2.960436562073669
 30
0.0
  9
$EXTMAX
 10
83.110504774897677
 20
51.602038606033382
 30
0.0
  9
$LIMMIN
 10
0.0
 20
0.0
  9
$LIMMAX
 10
0.0
 20
0.0
  9
$ORTHOMODE
 70
     1
  9
$REGENMODE
 70
     1
  9
$FILLMODE
 70
     1
  9
$QTEXTMODE
 70
     0
  9
$MIRRTEXT
 70
     0
  9
$DRAGMODE
 70
     2
  9
$LTSCALE
 40
1.0
  9
$OSMODE
 70
    37
  9
$ATTMODE
 70
     1
  9
$TEXTSIZE
 40
0.0
  9
$TRACEWID
 40
0.05
  9
$TEXTSTYLE
  7
STANDARD
  9
$CLAYER
  8
1
  9
$CELTYPE
  6
BYLAYER
  9
$CECOLOR
 62
   256
  9
$DIMSCALE
 40
1.0
  9
$DIMASZ
 40
6.0
  9
$DIMEXO
 40
1.0
  9
$DIMDLI
 40
0.38
  9
$DIMRND
 40
0.0
  9
$DIMDLE
 40
1.0
  9
$DIMEXE
 40
0.18
  9
$DIMTP
 40
0.0
  9
$DIMTM
 40
0.0
  9
$DIMTXT
 40
3.5
  9
$DIMCEN
 40
0.09
  9
$DIMTSZ
 40
0.0
  9
$DIMTOL
 70
     0
  9
$DIMLIM
 70
     0
  9
$DIMTIH
 70
     1
  9
$DIMTOH
 70
     1
  9
$DIMSE1
 70
     0
  9
$DIMSE2
 70
     0
  9
$DIMTAD
 70
     1
  9
$DIMZIN
 70
     0
  9
$DIMBLK
  1

  9
$DIMASO
 70
     1
  9
$DIMSHO
 70
     1
  9
$DIMPOST
  1

  9
$DIMAPOST
  1

  9
$DIMALT
 70
     0
  9
$DIMALTD
 70
     2
  9
$DIMALTF
 40
0.0394
  9
$DIMLFAC
 40
0.5
  9
$DIMTOFL
 70
     0
  9
$DIMTVP
 40
0.0
  9
$DIMTIX
 70
     0
  9
$DIMSOXD
 70
     0
  9
$DIMSAH
 70
     0
  9
$DIMBLK1
  1

  9
$DIMBLK2
  1

  9
$DIMSTYLE
  2
STANDARD
  9
$DIMCLRD
 70
     0
  9
$DIMCLRE
 70
     0
  9
$DIMCLRT
 70
     0
  9
$DIMTFAC
 40
1.0
  9
$DIMGAP
 40
1.0
  9
$LUNITS
 70
     2
  9
$LUPREC
 70
     2
  9
$SKETCHINC
 40
0.1
  9
$FILLETRAD
 40
0.0
  9
$AUNITS
 70
     0
  9
$AUPREC
 70
     2
  9
$MENU
  1
acad
  9
$ELEVATION
 40
0.0
  9
$PELEVATION
 40
0.0
  9
$THICKNESS
 40
0.0
  9
$LIMCHECK
 70
     0
  9
$BLIPMODE
 70
     0
  9
$CHAMFERA
 40
0.0
  9
$CHAMFERB
 40
0.0
  9
$SKPOLY
 70
     0
  9
$TDCREATE
 40
2444972.375
  9
$TDUPDATE
 40
2456598.7268753708
  9
$TDINDWG
 40
0.0021548611
  9
$TDUSRTIMER
 40
2456598.1755468412
  9
$USRTIMER
 70
     1
  9
$ANGBASE
 50
0.0
  9
$ANGDIR
 70
     0
  9
$PDMODE
 70
     0
  9
$PDSIZE
 40
-1.0
  9
$PLINEWID
 40
0.0
  9
$COORDS
 70
     1
  9
$SPLFRAME
 70
     0
  9
$SPLINETYPE
 70
     6
  9
$SPLINESEGS
 70
     8
  9
$ATTDIA
 70
     0
  9
$ATTREQ
 70
     1
  9
$HANDLING
 70
     1
  9
$HANDSEED
  5
2EF
  9
$SURFTAB1
 70
     6
  9
$SURFTAB2
 70
     6
  9
$SURFTYPE
 70
     6
  9
$SURFU
 70
     6
  9
$SURFV
 70
     6
  9
$UCSNAME
  2

  9
$UCSORG
 10
0.0
 20
0.0
 30
0.0
  9
$UCSXDIR
 10
1.0
 20
0.0
 30
0.0
  9
$UCSYDIR
 10
0.0
 20
1.0
 30
0.0
  9
$PUCSNAME
  2

  9
$PUCSORG
 10
0.0
 20
0.0
 30
0.0
  9
$PUCSXDIR
 10
1.0
 20
0.0
 30
0.0
  9
$PUCSYDIR
 10
0.0
 20
1.0
 30
0.0
  9
$USERI1
 70
     0
  9
$USERI2
 70
     1
  9
$USERI3
 70
     0
  9
$USERI4
 70
     0
  9
$USERI5
 70
     0
  9
$USERR1
 40
0.0
  9
$USERR2
 40
0.0
  9
$USERR3
 40
0.0
  9
$USERR4
 40
0.0
  9
$USERR5
 40
0.0
  9
$WORLDVIEW
 70
     1
  9
$SHADEDGE
 70
     3
  9
$SHADEDIF
 70
    70
  9
$TILEMODE
 70
     1
  9
$MAXACTVP
 70
    16
  9
$PLIMCHECK
 70
     0
  9
$PEXTMIN
 10
1.0000000000000000E+020
 20
1.0000000000000000E+020
 30
1.0000000000000000E+020
  9
$PEXTMAX
 10
-1.0000000000000000E+020
 20
-1.0000000000000000E+020
 30
-1.0000000000000000E+020
  9
$PLIMMIN
 10
0.0
 20
0.0
  9
$PLIMMAX
 10
12.0
 20
9.0
  9
$UNITMODE
 70
     0
  9
$VISRETAIN
 70
     0
  9
$PLINEGEN
 70
     1
  9
$PSLTSCALE
 70
     1
  0
ENDSEC
  0
SECTION
  2
TABLES
  0
TABLE
  2
VPORT
 70
     1
  0
VPORT
  2
*ACTIVE
 70
     0
 10
0.0
 20
0.0
 11
1.0
 21
1.0
 12
85.458537750672548
 22
6.2182909901845562
 13
0.0
 23
0.0
 14
1.0
 24
1.0
 15
0.0
 25
0.0
 16
0.0
 26
0.0
 36
1.0
 17
0.0
 27
0.0
 37
0.0
 40
119.02932805015359
 41
1.755244755244755
 42
50.0
 43
0.0
 44
0.0
 50
0.0
 51
0.0
 71
    16
 72
  2000
 73
     1
 74
     0
 75
     1
 76
     0
 77
     0
 78
     0
  0
ENDTAB
  0
TABLE
  2
LTYPE
 70
     3
  0
LTYPE
  2
CONTINUOUS
 70
     0
  3
Solid Line
 72
    65
 73
     0
 40
0.0
  0
LTYPE
  2
CENTERX2
 70
     0
  3
Center (2x) ________  __  ________  __  _____
 72
    65
 73
     4
 40
20.32
 49
12.699999999999999
 49
-2.54
 49
2.54
 49
-2.54
  0
LTYPE
  2
PHANTOM2
 70
     0
  3
___ _ _ ___ _ _ ___ _ _ ___ _ _
 72
    65
 73
     6
 40
1.25
 49
0.625
 49
-0.125
 49
0.125
 49
-0.125
 49
0.125
 49
-0.125
  0
ENDTAB
  0
TABLE
  2
LAYER
 70
     3
  0
LAYER
  2
0
 70
     0
 62
     7
  6
CONTINUOUS
  0
LAYER
  2
DEFPOINTS
 70
     0
 62
     7
  6
CONTINUOUS
  0
LAYER
  2
1
 70
     0
 62
     1
  6
CENTERX2
  0
ENDTAB
  0
TABLE
  2
STYLE
 70
     2
  0
STYLE
  2
STANDARD
 70
     0
 40
0.0
 41
1.0
 50
0.0
 71
     0
 42
0.0
  3
txt
  4
bigfont
  0
STYLE
  2
STANDARD1
 70
     0
 40
0.0
 41
1.0
 50
0.0
 71
     0
 42
3.0
  3
txt
  4

  0
ENDTAB
  0
TABLE
  2
VIEW
 70
     0
  0
ENDTAB
  0
TABLE
  2
UCS
 70
     0
  0
ENDTAB
  0
TABLE
  2
APPID
 70
     3
  0
APPID
  2
ACAD
 70
     0
  0
APPID
  2
ACAD_MLEADERVER
 70
     0
  0
APPID
  2
ACAD_NAV_VCDISPLAY
 70
     0
  0
ENDTAB
  0
TABLE
  2
DIMSTYLE
 70
     1
  0
DIMSTYLE
  2
STANDARD
 70
     0
  3

  4

  5

  6

  7

 40
1.0
 41
0.18
 42
0.0625
 43
0.38
 44
0.18
 45
0.0
 46
0.0
 47
0.0
 48
0.0
140
0.18
141
0.09
142
0.0
143
25.399999999999999
144
1.0
145
0.0
146
1.0
147
0.09
 71
     0
 72
     0
 73
     1
 74
     1
 75
     0
 76
     0
 77
     0
 78
     0
170
     0
171
     2
172
     0
173
     0
174
     0
175
     0
176
     0
177
     0
178
     0
  0
ENDTAB
  0
ENDSEC
  0
SECTION
  2
BLOCKS
  0
BLOCK
  8
0
  2
$MODEL_SPACE
 70
     0
 10
0.0
 20
0.0
 30
0.0
  3
$MODEL_SPACE
  1

  0
ENDBLK
  5
E
  8
0
  0
BLOCK
 67
     1
  8
0
  2
$PAPER_SPACE
 70
     0
 10
0.0
 20
0.0
 30
0.0
  3
$PAPER_SPACE
  1

  0
ENDBLK
  5
10
 67
     1
  8
0
  0
ENDSEC
  0
SECTION
  2
ENTITIES
  0
CIRCLE
  5
27
  8
0
 10
57.971699017408483
 20
31.507022539551318
 30
0.0
 40
1.8452994616207401
  0
CIRCLE
  5
28
  8
0
 10
57.971699017408483
 20
31.507022539551318
 30
0.0
 40
3.0
  0
CIRCLE
  5
29
  8
0
 10
57.971699017408483
 20
31.507022539551318
 30
0.0
 40
4.0
  0
LINE
  5
37
  8
0
 10
27.305196468931999
 20
51.602038606033346
 30
0.0
 11
35.30519646893201
 21
51.602038606033382
 31
0.0
  0
LINE
  5
38
  8
0
 10
35.305196468932039
 20
43.602038606033382
 30
0.0
 11
27.305196468932031
 21
43.602038606033346
 31
0.0
  0
LINE
  5
39
  8
0
 10
35.30519646893201
 20
50.602038606033382
 30
0.0
 11
43.305196468932017
 21
50.60203860603341
 31
0.0
  0
LINE
  5
3A
  8
0
 10
43.305196468932031
 20
44.60203860603341
 30
0.0
 11
35.305196468932039
 21
44.602038606033382
 31
0.0
  0
LINE
  5
3B
  8
0
 10
43.305196468932017
 20
50.60203860603341
 30
0.0
 11
45.305196468932017
 21
49.447338067654158
 31
0.0
  0
LINE
  5
3C
  8
0
 10
45.305196468932031
 20
45.75673914441267
 30
0.0
 11
43.305196468932031
 21
44.60203860603341
 31
0.0
  0
LINE
  5
3D
  8
0
 10
27.30519646893201
 20
45.102038606033346
 30
0.0
 11
22.305196468932031
 21
45.102038606033339
 31
0.0
  0
LINE
  5
3E
  8
0
 10
22.305196468931999
 20
50.102038606033339
 30
0.0
 11
27.305196468931999
 21
50.102038606033346
 31
0.0
  0
LINE
  5
3F
  8
0
 10
35.30519646893201
 20
51.602038606033382
 30
0.0
 11
35.305196468932039
 21
43.602038606033382
 31
0.0
  0
LINE
  5
40
  8
0
 10
33.805196468932039
 20
45.665546932929672
 30
0.0
 11
28.805196468932031
 21
45.665546932929651
 31
0.0
  0
LINE
  5
41
  8
0
 10
28.805196468932031
 20
45.665546932929651
 30
0.0
 11
28.805196468932021
 21
49.538530279137063
 31
0.0
  0
LINE
  5
42
  8
0
 10
28.805196468932021
 20
49.538530279137063
 30
0.0
 11
33.805196468932031
 21
49.538530279137092
 31
0.0
  0
LINE
  5
43
  8
0
 10
33.805196468932031
 20
49.538530279137092
 30
0.0
 11
33.805196468932039
 21
45.665546932929672
 31
0.0
  0
LINE
  5
44
  8
0
 10
27.305196468931999
 20
51.602038606033346
 30
0.0
 11
27.305196468932031
 21
43.602038606033346
 31
0.0
  0
LINE
  5
45
  8
0
 10
43.305196468932017
 20
50.60203860603341
 30
0.0
 11
43.305196468932031
 21
44.60203860603341
 31
0.0
  0
POLYLINE
  5
46
  8
0
 66
     1
 10
0.0
 20
0.0
 30
0.0
 70
   128
  0
VERTEX
  5
26A
  8
0
 10
41.374580174614259
 20
46.051819136016562
 30
0.0
  0
VERTEX
  5
26B
  8
0
 10
41.74389810829075
 20
46.27201202150443
 30
0.0
  0
VERTEX
  5
26C
  8
0
 10
42.06589955030627
 20
46.555112872985418
 30
0.0
  0
VERTEX
  5
26D
  8
0
 10
42.231361209743611
 20
46.761205405646159
 30
0.0
  0
VERTEX
  5
26E
  8
0
 10
42.364867880620579
 20
46.991849545443579
 30
0.0
  0
VERTEX
  5
26F
  8
0
 10
42.445362685433658
 20
47.200975342662801
 30
0.0
  0
VERTEX
  5
270
  8
0
 10
42.49322143969443
 20
47.421529222200881
 30
0.0
  0
VERTEX
  5
271
  8
0
 10
42.50414444806195
 20
47.649013407602091
 30
0.0
  0
VERTEX
  5
272
  8
0
 10
42.477732814169563
 20
47.874991975122263
 30
0.0
  0
VERTEX
  5
273
  8
0
 10
42.421208565982333
 20
48.076439091924328
 30
0.0
  0
VERTEX
  5
274
  8
0
 10
42.337819954057082
 20
48.266648049108902
 30
0.0
  0
VERTEX
  5
275
  8
0
 10
42.178473728375479
 20
48.515506841710398
 30
0.0
  0
VERTEX
  5
276
  8
0
 10
41.982648961095563
 20
48.733699064483773
 30
0.0
  0
VERTEX
  5
277
  8
0
 10
41.663905227591478
 20
48.987275875107407
 30
0.0
  0
VERTEX
  5
278
  8
0
 10
41.305629627176721
 20
49.18481813833187
 30
0.0
  0
VERTEX
  5
279
  8
0
 10
40.907387729117758
 20
49.331856426999543
 30
0.0
  0
VERTEX
  5
27A
  8
0
 10
40.487038182102232
 20
49.423290280415642
 30
0.0
  0
VERTEX
  5
27B
  8
0
 10
40.013846384680718
 20
49.458301483316717
 30
0.0
  0
VERTEX
  5
27C
  8
0
 10
39.540380715667233
 20
49.42576037715542
 30
0.0
  0
VERTEX
  5
27D
  8
0
 10
39.112214889973032
 20
49.334508167336828
 30
0.0
  0
VERTEX
  5
27E
  8
0
 10
38.706712722408973
 20
49.185705170291428
 30
0.0
  0
VERTEX
  5
27F
  8
0
 10
38.436337052291222
 20
49.043901979311727
 30
0.0
  0
VERTEX
  5
280
  8
0
 10
38.185263341538921
 20
48.870798971440692
 30
0.0
  0
VERTEX
  5
281
  8
0
 10
37.960704528614983
 20
48.666266167493461
 30
0.0
  0
VERTEX
  5
282
  8
0
 10
37.791315177588999
 20
48.460452986183178
 30
0.0
  0
VERTEX
  5
283
  8
0
 10
37.653846537101643
 20
48.229539033265738
 30
0.0
  0
VERTEX
  5
284
  8
0
 10
37.570313795791662
 20
48.020269840035979
 30
0.0
  0
VERTEX
  5
285
  8
0
 10
37.519467642242041
 20
47.799051558916709
 30
0.0
  0
VERTEX
  5
286
  8
0
 10
37.505817394591659
 20
47.570228504532338
 30
0.0
  0
VERTEX
  5
287
  8
0
 10
37.530025971635403
 20
47.342438793648931
 30
0.0
  0
VERTEX
  5
288
  8
0
 10
37.584651118791818
 20
47.140438139793801
 30
0.0
  0
VERTEX
  5
289
  8
0
 10
37.666371303581428
 20
46.949453412916341
 30
0.0
  0
VERTEX
  5
28A
  8
0
 10
37.822272990378323
 20
46.701264949033437
 30
0.0
  0
VERTEX
  5
28B
  8
0
 10
38.0145405990841
 20
46.48316792637214
 30
0.0
  0
VERTEX
  5
28C
  8
0
 10
38.328538929193378
 20
46.228777802961112
 30
0.0
  0
VERTEX
  5
28D
  8
0
 10
38.68208326180094
 20
46.029712757009563
 30
0.0
  0
VERTEX
  5
28E
  8
0
 10
39.07585208703172
 20
45.88023482129524
 30
0.0
  0
VERTEX
  5
28F
  8
0
 10
39.49200103861196
 20
45.785577032082593
 30
0.0
  0
VERTEX
  5
290
  8
0
 10
39.965621447739842
 20
45.746002139795813
 30
0.0
  0
VERTEX
  5
291
  8
0
 10
40.440499569770161
 20
45.774252464825942
 30
0.0
  0
VERTEX
  5
292
  8
0
 10
40.870019241126741
 20
45.861637747146972
 30
0.0
  0
VERTEX
  5
293
  8
0
 10
41.277493002514262
 20
46.006630041739811
 30
0.0
  0
VERTEX
  5
294
  8
0
 10
41.374580174796591
 20
46.051819136006827
 30
0.0
  0
SEQEND
  5
295
  8
0
  0
LINE
  5
73
  8
0
 10
45.305196468932031
 20
45.75673914441267
 30
0.0
 11
45.305196468932017
 21
49.447338067654158
 31
0.0
  0
LINE
  5
74
  8
0
 10
22.305196468931999
 20
50.102038606033339
 30
0.0
 11
22.305196468932031
 21
45.102038606033339
 31
0.0
  0
LINE
  5
75
  8
0
 10
33.805196468932031
 20
35.507022539551322
 30
0.0
 11
35.305196468932017
 21
35.507022539551322
 31
0.0
  0
LINE
  5
76
  8
0
 10
27.305196468931999
 20
35.507022539551322
 30
0.0
 11
28.805196468931999
 21
35.507022539551322
 31
0.0
  0
LINE
  5
77
  8
0
 10
28.805196468931999
 20
27.507022539551329
 30
0.0
 11
27.305196468931999
 21
27.507022539551329
 31
0.0
  0
LINE
  5
78
  8
0
 10
35.305196468932017
 20
27.507022539551329
 30
0.0
 11
33.805196468932031
 21
27.507022539551329
 31
0.0
  0
LINE
  5
79
  8
0
 10
42.501890459866537
 20
34.507022539551329
 30
0.0
 11
43.305196468932031
 21
34.507022539551329
 31
0.0
  0
LINE
  5
7A
  8
0
 10
35.305196468932017
 20
34.507022539551329
 30
0.0
 11
37.507713133984772
 21
34.507022539551329
 31
0.0
  0
LINE
  5
7B
  8
0
 10
43.305196468932031
 20
28.507022539551318
 30
0.0
 11
35.305196468932017
 21
28.507022539551318
 31
0.0
  0
LINE
  5
7C
  8
0
 10
43.305196468932031
 20
34.507022539551329
 30
0.0
 11
45.305196468932017
 21
33.35232200117207
 31
0.0
  0
LINE
  5
7D
  8
0
 10
45.305196468932017
 20
29.661723077930581
 30
0.0
 11
43.305196468932031
 21
28.507022539551318
 31
0.0
  0
LINE
  5
7E
  8
0
 10
27.305196468931999
 20
29.007022539551318
 30
0.0
 11
22.30519646893201
 21
29.007022539551318
 31
0.0
  0
LINE
  5
7F
  8
0
 10
22.30519646893201
 20
34.007022539551329
 30
0.0
 11
27.305196468931999
 21
34.007022539551329
 31
0.0
  0
LINE
  5
80
  8
0
 10
35.305196468932017
 20
35.507022539551322
 30
0.0
 11
35.305196468932017
 21
27.507022539551329
 31
0.0
  0
LINE
  5
81
  8
0
 10
33.805196468932039
 20
35.007022539551329
 30
0.0
 11
28.805196468932021
 21
35.007022539551329
 31
0.0
  0
LINE
  5
82
  8
0
 10
28.805196468932021
 20
35.007022539551329
 30
0.0
 11
28.805196468931999
 21
35.507022539551322
 31
0.0
  0
LINE
  5
83
  8
0
 10
33.805196468932031
 20
35.507022539551322
 30
0.0
 11
33.805196468932039
 21
35.007022539551329
 31
0.0
  0
LINE
  5
84
  8
0
 10
33.805196468932039
 20
28.007022539551318
 30
0.0
 11
33.805196468932031
 21
27.507022539551329
 31
0.0
  0
LINE
  5
85
  8
0
 10
28.805196468931999
 20
27.507022539551329
 30
0.0
 11
28.805196468932021
 21
28.007022539551318
 31
0.0
  0
LINE
  5
86
  8
0
 10
28.805196468932021
 20
28.007022539551318
 30
0.0
 11
33.805196468932039
 21
28.007022539551318
 31
0.0
  0
LINE
  5
87
  8
0
 10
27.305196468931999
 20
35.507022539551322
 30
0.0
 11
27.305196468931999
 21
27.507022539551329
 31
0.0
  0
LINE
  5
88
  8
0
 10
43.305196468932031
 20
31.507022539551318
 30
0.0
 11
43.305196468932031
 21
28.507022539551318
 31
0.0
  0
LINE
  5
89
  8
0
 10
43.305196468932031
 20
34.507022539551329
 30
0.0
 11
43.305196468932031
 21
31.507022539551318
 31
0.0
  0
POLYLINE
  5
8A
  8
0
 66
     1
 10
0.0
 20
0.0
 30
0.0
 70
   128
  0
VERTEX
  5
296
  8
0
 10
41.374580174614259
 20
34.075449995806132
 30
0.0
  0
VERTEX
  5
297
  8
0
 10
41.743898108290729
 20
34.196134240758177
 30
0.0
  0
VERTEX
  5
298
  8
0
 10
42.06589955030627
 20
34.318418368936811
 30
0.0
  0
VERTEX
  5
299
  8
0
 10
42.231361209743589
 20
34.386740892595533
 30
0.0
  0
VERTEX
  5
29A
  8
0
 10
42.364867880620558
 20
34.444311989084092
 30
0.0
  0
VERTEX
  5
29B
  8
0
 10
42.445362685433651
 20
34.480008060952187
 30
0.0
  0
VERTEX
  5
29C
  8
0
 10
42.493221439694423
 20
34.501587009110871
 30
0.0
  0
VERTEX
  5
29D
  8
0
 10
42.501890459866537
 20
34.505506649563287
 30
0.0
  0
SEQEND
  5
29E
  8
0
  0
LINE
  5
94
  8
0
 10
41.513178731309047
 20
34.120740680279532
 30
0.0
 11
41.311997195438288
 21
34.057515185918973
 31
0.0
  0
POLYLINE
  5
95
  8
0
 66
     1
 10
0.0
 20
0.0
 30
0.0
 70
   128
  0
VERTEX
  5
29F
  8
0
 10
37.507713133984772
 20
34.505863596098692
 30
0.0
  0
VERTEX
  5
2A0
  8
0
 10
37.505817394591638
 20
34.506721119585642
 30
0.0
  0
VERTEX
  5
2A1
  8
0
 10
37.530025971635389
 20
34.495769423683527
 30
0.0
  0
VERTEX
  5
2A2
  8
0
 10
37.584651118791811
 20
34.471241923421204
 30
0.0
  0
VERTEX
  5
2A3
  8
0
 10
37.666371303581428
 20
34.43518451692286
 30
0.0
  0
VERTEX
  5
2A4
  8
0
 10
37.822272990378309
 20
34.36855638198935
 30
0.0
  0
VERTEX
  5
2A5
  8
0
 10
38.014540599084079
 20
34.290568551780041
 30
0.0
  0
VERTEX
  5
2A6
  8
0
 10
38.328538929193371
 20
34.174307556095378
 30
0.0
  0
VERTEX
  5
2A7
  8
0
 10
38.682083261800933
 20
34.061976829649588
 30
0.0
  0
VERTEX
  5
2A8
  8
0
 10
39.075852087031713
 20
33.963839662947692
 30
0.0
  0
VERTEX
  5
2A9
  8
0
 10
39.49200103861196
 20
33.89458769057029
 30
0.0
  0
VERTEX
  5
2AA
  8
0
 10
39.965621447739842
 20
33.864340639601267
 30
0.0
  0
VERTEX
  5
2AB
  8
0
 10
40.440499569770161
 20
33.885929393972077
 30
0.0
  0
VERTEX
  5
2AC
  8
0
 10
40.87001924112672
 20
33.950725105355957
 30
0.0
  0
VERTEX
  5
2AD
  8
0
 10
41.277493002514248
 20
34.047627096143941
 30
0.0
  0
VERTEX
  5
2AE
  8
0
 10
41.374580174796591
 20
34.075449995165087
 30
0.0
  0
SEQEND
  5
2AF
  8
0
  0
LINE
  5
A7
  8
0
 10
45.305196468932031
 20
31.507022539551318
 30
0.0
 11
45.305196468932017
 21
33.35232200117207
 31
0.0
  0
LINE
  5
A8
  8
0
 10
45.305196468932017
 20
29.661723077930581
 30
0.0
 11
45.305196468932031
 21
31.507022539551318
 31
0.0
  0
LINE
  5
A9
  8
0
 10
22.30519646893201
 20
34.007022539551329
 30
0.0
 11
22.30519646893201
 21
29.007022539551318
 31
0.0
  0
CIRCLE
  5
AA
  8
0
 10
9.2379646683779661
 20
31.507022539551318
 30
0.0
 40
2.5
  0
CIRCLE
  5
AB
  8
0
 10
9.2379646683779235
 20
31.507022539551318
 30
0.0
 40
3.9999999999999849
  0
LINE
  5
CD
  8
1
 10
19.80519646893201
 20
47.602038606033318
 30
0.0
 11
47.805196468932017
 21
47.602038606033418
 31
0.0
  0
LINE
  5
CE
  8
1
 10
19.80519646893201
 20
31.507022539551329
 30
0.0
 11
47.805196468932017
 21
31.507022539551109
 31
0.0
  0
LINE
  5
CF
  8
1
 10
51.471699017408483
 20
31.507022539551318
 30
0.0
 11
64.471699017408483
 21
31.507022539551318
 31
0.0
  0
LINE
  5
D0
  8
1
 10
57.971699017408483
 20
38.007022539551322
 30
0.0
 11
57.971699017408483
 21
25.007022539551329
 31
0.0
  0
LINE
  5
D1
  8
1
 10
9.2379646683779235
 20
25.007022539551329
 30
0.0
 11
9.2379646683779235
 21
38.007022539551322
 31
0.0
  0
LINE
  5
D2
  8
1
 10
15.73796466837794
 20
31.507022539551318
 30
0.0
 11
2.7379646683779368
 21
31.507022539551318
 31
0.0
  0
TEXT
  5
1E7
  8
0
 62
     3
 10
0.0
 20
0.0
 30
0.0
 40
10.0
  1
QLSL150-RA
  7
STANDARD1
  0
ENDSEC
  0
EOF
