  0
SECTION
  2
HEADER
  9
$ACADVER
  1
AC1009
  9
$INSBASE
 10
0.0
 20
0.0
 30
0.0
  9
$EXTMIN
 10
0.0
 20
-2.960436562073669
 30
0.0
  9
$EXTMAX
 10
484.93658261406739
 20
383.8442642076235
 30
0.0
  9
$LIMMIN
 10
0.0
 20
0.0
  9
$LIMMAX
 10
375.0
 20
270.0
  9
$ORTHOMODE
 70
     1
  9
$REGENMODE
 70
     1
  9
$FILLMODE
 70
     1
  9
$QTEXTMODE
 70
     0
  9
$MIRRTEXT
 70
     0
  9
$DRAGMODE
 70
     2
  9
$LTSCALE
 40
10.0
  9
$OSMODE
 70
  3071
  9
$ATTMODE
 70
     1
  9
$TEXTSIZE
 40
6.0
  9
$TRACEWID
 40
0.05
  9
$TEXTSTYLE
  7
STANDARD
  9
$CLAYER
  8
0
  9
$CELTYPE
  6
BYLAYER
  9
$CECOLOR
 62
   256
  9
$DIMSCALE
 40
1.0
  9
$DIMASZ
 40
3.0
  9
$DIMEXO
 40
2.0
  9
$DIMDLI
 40
0.3799999999999999
  9
$DIMRND
 40
0.0
  9
$DIMDLE
 40
0.0
  9
$DIMEXE
 40
2.0
  9
$DIMTP
 40
0.0
  9
$DIMTM
 40
0.0
  9
$DIMTXT
 40
3.2000000000000002
  9
$DIMCEN
 40
0.09
  9
$DIMTSZ
 40
0.0
  9
$DIMTOL
 70
     0
  9
$DIMLIM
 70
     0
  9
$DIMTIH
 70
     0
  9
$DIMTOH
 70
     0
  9
$DIMSE1
 70
     0
  9
$DIMSE2
 70
     0
  9
$DIMTAD
 70
     1
  9
$DIMZIN
 70
     9
  9
$DIMBLK
  1

  9
$DIMASO
 70
     0
  9
$DIMSHO
 70
     0
  9
$DIMPOST
  1

  9
$DIMAPOST
  1

  9
$DIMALT
 70
     0
  9
$DIMALTD
 70
     2
  9
$DIMALTF
 40
25.399999999999999
  9
$DIMLFAC
 40
1.0
  9
$DIMTOFL
 70
     0
  9
$DIMTVP
 40
0.0
  9
$DIMTIX
 70
     0
  9
$DIMSOXD
 70
     0
  9
$DIMSAH
 70
     0
  9
$DIMBLK1
  1

  9
$DIMBLK2
  1

  9
$DIMSTYLE
  2
STANDARD
  9
$DIMCLRD
 70
     0
  9
$DIMCLRE
 70
     0
  9
$DIMCLRT
 70
     0
  9
$DIMTFAC
 40
1.0
  9
$DIMGAP
 40
0.09
  9
$LUNITS
 70
     2
  9
$LUPREC
 70
     4
  9
$SKETCHINC
 40
0.1
  9
$FILLETRAD
 40
20.0
  9
$AUNITS
 70
     0
  9
$AUPREC
 70
     0
  9
$MENU
  1
E:\r13\win\SUPPORT\ACAD
  9
$ELEVATION
 40
0.0
  9
$PELEVATION
 40
0.0
  9
$THICKNESS
 40
0.0
  9
$LIMCHECK
 70
     0
  9
$BLIPMODE
 70
     0
  9
$CHAMFERA
 40
0.0
  9
$CHAMFERB
 40
0.0
  9
$SKPOLY
 70
     0
  9
$TDCREATE
 40
2449840.6320370371
  9
$TDUPDATE
 40
2456598.4294653358
  9
$TDINDWG
 40
0.6513669907
  9
$TDUSRTIMER
 40
0.6513669907
  9
$USRTIMER
 70
     1
  9
$ANGBASE
 50
0.0
  9
$ANGDIR
 70
     0
  9
$PDMODE
 70
     0
  9
$PDSIZE
 40
0.0
  9
$PLINEWID
 40
0.0
  9
$COORDS
 70
     1
  9
$SPLFRAME
 70
     0
  9
$SPLINETYPE
 70
     6
  9
$SPLINESEGS
 70
     8
  9
$ATTDIA
 70
     0
  9
$ATTREQ
 70
     1
  9
$HANDLING
 70
     1
  9
$HANDSEED
  5
11044
  9
$SURFTAB1
 70
     6
  9
$SURFTAB2
 70
     6
  9
$SURFTYPE
 70
     6
  9
$SURFU
 70
     6
  9
$SURFV
 70
     6
  9
$UCSNAME
  2

  9
$UCSORG
 10
0.0
 20
0.0
 30
0.0
  9
$UCSXDIR
 10
1.0
 20
0.0
 30
0.0
  9
$UCSYDIR
 10
0.0
 20
1.0
 30
0.0
  9
$PUCSNAME
  2

  9
$PUCSORG
 10
0.0
 20
0.0
 30
0.0
  9
$PUCSXDIR
 10
1.0
 20
0.0
 30
0.0
  9
$PUCSYDIR
 10
0.0
 20
1.0
 30
0.0
  9
$USERI1
 70
     0
  9
$USERI2
 70
     1
  9
$USERI3
 70
     0
  9
$USERI4
 70
     0
  9
$USERI5
 70
     0
  9
$USERR1
 40
0.0
  9
$USERR2
 40
0.0
  9
$USERR3
 40
0.0
  9
$USERR4
 40
0.0
  9
$USERR5
 40
0.0
  9
$WORLDVIEW
 70
     1
  9
$SHADEDGE
 70
     3
  9
$SHADEDIF
 70
    70
  9
$TILEMODE
 70
     1
  9
$MAXACTVP
 70
    16
  9
$PLIMCHECK
 70
     0
  9
$PEXTMIN
 10
1.0000000000000000E+020
 20
1.0000000000000000E+020
 30
1.0000000000000000E+020
  9
$PEXTMAX
 10
-1.0000000000000000E+020
 20
-1.0000000000000000E+020
 30
-1.0000000000000000E+020
  9
$PLIMMIN
 10
0.0
 20
0.0
  9
$PLIMMAX
 10
12.0
 20
9.0
  9
$UNITMODE
 70
     0
  9
$VISRETAIN
 70
     0
  9
$PLINEGEN
 70
     0
  9
$PSLTSCALE
 70
     0
  0
ENDSEC
  0
SECTION
  2
TABLES
  0
TABLE
  2
VPORT
 70
     1
  0
VPORT
  2
*ACTIVE
 70
     0
 10
0.0
 20
0.0
 11
1.0
 21
1.0
 12
242.46829243611461
 22
212.92164392850631
 13
0.0
 23
0.0
 14
10.0
 24
10.0
 15
10.0
 25
10.0
 16
0.0
 26
0.0
 36
1.0
 17
0.0
 27
0.0
 37
0.0
 40
437.2050697723007
 41
2.304913294797688
 42
50.0
 43
0.0
 44
0.0
 50
0.0
 51
0.0
 71
     0
 72
   500
 73
     1
 74
     0
 75
     0
 76
     0
 77
     0
 78
     0
  0
ENDTAB
  0
TABLE
  2
LTYPE
 70
     3
  0
LTYPE
  2
CONTINUOUS
 70
     0
  3
Solid Line
 72
    65
 73
     0
 40
0.0
  0
LTYPE
  2
CENTER
 70
     0
  3
____ _ ____ _ ____ _ ____ _ ____ _ ____ _ ____
 72
    65
 73
     4
 40
2.0
 49
1.25
 49
-0.25
 49
0.25
 49
-0.25
  0
LTYPE
  2
PHANTOM2
 70
     0
  3
___ _ _ ___ _ _ ___ _ _ ___ _ _
 72
    65
 73
     6
 40
1.25
 49
0.625
 49
-0.125
 49
0.125
 49
-0.125
 49
0.125
 49
-0.125
  0
ENDTAB
  0
TABLE
  2
LAYER
 70
     3
  0
LAYER
  2
0
 70
     0
 62
     7
  6
CONTINUOUS
  0
LAYER
  2
1
 70
     0
 62
     1
  6
CENTER
  0
LAYER
  2
DEFPOINTS
 70
     0
 62
     7
  6
CONTINUOUS
  0
ENDTAB
  0
TABLE
  2
STYLE
 70
     2
  0
STYLE
  2
STANDARD
 70
     0
 40
0.0
 41
1.0
 50
0.0
 71
     0
 42
6.0
  3
TXT
  4
BIGFONT
  0
STYLE
  2
STANDARD1
 70
     0
 40
0.0
 41
1.0
 50
0.0
 71
     0
 42
3.0
  3
txt
  4

  0
ENDTAB
  0
TABLE
  2
VIEW
 70
     1
  0
VIEW
  2
ALL
 70
     0
 40
270.0
 10
213.25689075630251
 20
135.0
 41
0.0
 11
0.0
 21
0.0
 31
1.0
 12
0.0
 22
0.0
 32
0.0
 42
0.0
 43
0.0
 44
0.0
 50
0.0
 71
     0
  0
ENDTAB
  0
TABLE
  2
UCS
 70
     0
  0
ENDTAB
  0
TABLE
  2
APPID
 70
     6
  0
APPID
  2
ACAD
 70
     0
  0
APPID
  2
ACAD_EXEMPT_FROM_CAD_STANDARDS
 70
     0
  0
APPID
  2
ACAD_MLEADERVER
 70
     0
  0
APPID
  2
ACAD_DSTYLE_DIMJAG
 70
     0
  0
APPID
  2
ACAD_DSTYLE_DIMTALN
 70
     0
  0
APPID
  2
ACAD_NAV_VCDISPLAY
 70
     0
  0
ENDTAB
  0
TABLE
  2
DIMSTYLE
 70
     1
  0
DIMSTYLE
  2
STANDARD
 70
     0
  3

  4

  5

  6

  7

 40
1.0
 41
0.18
 42
0.0625
 43
0.38
 44
0.18
 45
0.0
 46
0.0
 47
0.0
 48
0.0
140
0.18
141
0.09
142
0.0
143
25.399999999999999
144
1.0
145
0.0
146
1.0
147
0.09
 71
     0
 72
     0
 73
     1
 74
     1
 75
     0
 76
     0
 77
     0
 78
     0
170
     0
171
     2
172
     0
173
     0
174
     0
175
     0
176
     0
177
     0
178
     0
  0
ENDTAB
  0
ENDSEC
  0
SECTION
  2
BLOCKS
  0
BLOCK
  8
0
  2
$MODEL_SPACE
 70
     0
 10
0.0
 20
0.0
 30
0.0
  3
$MODEL_SPACE
  1

  0
ENDBLK
  5
126
  8
0
  0
BLOCK
 67
     1
  8
0
  2
$PAPER_SPACE
 70
     0
 10
0.0
 20
0.0
 30
0.0
  3
$PAPER_SPACE
  1

  0
ENDBLK
  5
124
 67
     1
  8
0
  0
ENDSEC
  0
SECTION
  2
ENTITIES
  0
LINE
  5
B75D
  8
0
 10
313.5127967953149
 20
222.59267361731111
 30
0.0
 11
313.61279848808681
 21
222.59267361731111
 31
0.0
  0
LINE
  5
B75E
  8
0
 10
313.61279848808681
 20
226.5926735744703
 30
0.0
 11
313.5127967953149
 21
226.5926735744703
 31
0.0
  0
LINE
  5
B75F
  8
0
 10
260.41279759103691
 20
229.59267406620859
 30
0.0
 11
260.51279742116373
 21
229.5842819184887
 31
0.0
  0
LINE
  5
B760
  8
0
 10
260.51279742116373
 20
248.60106653430341
 30
0.0
 11
260.41279759103691
 21
248.59267345526101
 31
0.0
  0
LINE
  5
B761
  8
0
 10
259.01279810661708
 20
249.09267446853991
 30
0.0
 11
254.51279830033221
 21
249.09267446853991
 31
0.0
  0
LINE
  5
B762
  8
0
 10
254.51279830033221
 20
229.0926739842522
 30
0.0
 11
259.01279810661708
 21
229.0926739842522
 31
0.0
  0
LINE
  5
B763
  8
0
 10
254.51279830033221
 20
249.09267446853991
 30
0.0
 11
252.5127979725066
 21
247.93797231175779
 31
0.0
  0
LINE
  5
B764
  8
0
 10
252.5127979725066
 20
230.2473742783892
 30
0.0
 11
254.51279830033221
 21
229.0926739842522
 31
0.0
  0
LINE
  5
B765
  8
0
 10
259.01279810661708
 20
229.0926739842522
 30
0.0
 11
259.5127972572509
 21
229.59267406620859
 31
0.0
  0
LINE
  5
B766
  8
0
 10
259.5127972572509
 20
248.59267345526101
 30
0.0
 11
259.01279810661708
 21
249.09267446853991
 31
0.0
  0
LINE
  5
B767
  8
0
 10
259.5127972572509
 20
229.59267406620859
 30
0.0
 11
260.41279759103691
 21
229.59267406620859
 31
0.0
  0
LINE
  5
B768
  8
0
 10
260.41279759103691
 20
248.59267345526101
 30
0.0
 11
259.5127972572509
 21
248.59267345526101
 31
0.0
  0
LINE
  5
B769
  8
0
 10
260.51279742116373
 20
211.5926739097464
 30
0.0
 11
261.51279758507638
 21
210.59267374583359
 31
0.0
  0
ARC
  5
B76A
  8
0
 10
268.01279768938463
 20
211.09267360427251
 30
0.0
 40
0.5
 50
270.0
 51
0.0
  0
LINE
  5
B76B
  8
0
 10
261.51279758507638
 20
210.59267374583359
 30
0.0
 11
268.01279771918689
 21
210.59267374583359
 31
0.0
  0
ARC
  5
B76C
  8
0
 10
268.01279768938463
 20
267.09267360427248
 30
0.0
 40
0.5
 50
0.0
 51
90.0
  0
LINE
  5
B76D
  8
0
 10
268.01279771918689
 20
267.59267470695852
 30
0.0
 11
261.51279758507638
 21
267.59267470695852
 31
0.0
  0
LINE
  5
B76E
  8
0
 10
261.51279758507638
 20
267.59267470695852
 30
0.0
 11
260.51279742116373
 21
266.5926726804006
 31
0.0
  0
LINE
  5
B76F
  8
0
 10
269.01279788309972
 20
223.5773968313712
 30
0.0
 11
288.51279735410839
 21
223.5773968313712
 31
0.0
  0
LINE
  5
B770
  8
0
 10
288.51279735410839
 20
254.60795185425161
 30
0.0
 11
269.01279788309972
 21
254.60795185425161
 31
0.0
  0
LINE
  5
B771
  8
0
 10
313.61279848808681
 20
222.59267361731111
 30
0.0
 11
313.61279848808681
 21
226.5926735744703
 31
0.0
  0
LINE
  5
B776
  8
0
 10
280.97739655370151
 20
237.3399330572116
 30
0.0
 11
282.05240916306411
 21
237.34074889578699
 31
0.0
  0
LINE
  5
B777
  8
0
 10
280.97447220081722
 20
241.1893779680955
 30
0.0
 11
280.97739655370151
 21
237.3399330572116
 31
0.0
  0
LINE
  5
B778
  8
0
 10
282.04948481017982
 20
241.19019380667089
 30
0.0
 11
280.97447220081722
 21
241.1893779680955
 31
0.0
  0
LINE
  5
B779
  8
0
 10
282.05240916306411
 20
237.34074889578699
 30
0.0
 11
282.04948481017982
 21
241.19019380667089
 31
0.0
  0
LINE
  5
B77A
  8
0
 10
282.48067691767852
 20
239.62668388047101
 30
0.0
 11
282.48241383428012
 21
237.34107672133331
 31
0.0
  0
ARC
  5
B77B
  8
0
 10
283.91012803236163
 20
239.69331901516489
 30
0.0
 40
1.431003044279834
 50
54.689097446449921
 51
182.668969891307
  0
ARC
  5
B77C
  8
0
 10
285.56617771950641
 20
239.6945770489809
 30
0.0
 40
1.4310030442798229
 50
357.41808065414182
 51
125.397953098985
  0
LINE
  5
B77D
  8
0
 10
285.9207161500517
 20
239.62929717161541
 30
0.0
 11
285.92245213533079
 21
237.34369001247759
 31
0.0
  0
ARC
  5
B77E
  8
0
 10
285.59821234299312
 20
239.6290519544487
 30
0.0
 40
0.3225037199967565
 50
0.0435252727264264
 51
180.0435252727199
  0
LINE
  5
B77F
  8
0
 10
285.27744512850683
 20
237.3432001368034
 30
0.0
 11
285.27570914322769
 21
239.6288072959411
 31
0.0
  0
LINE
  5
B780
  8
0
 10
284.20243251914422
 20
237.34238243558289
 30
0.0
 11
285.27744512850683
 21
237.3432001368034
 31
0.0
  0
LINE
  5
B781
  8
0
 10
284.20069653386508
 20
239.62798959472059
 30
0.0
 11
284.20243251914422
 21
237.34238243558289
 31
0.0
  0
ARC
  5
B782
  8
0
 10
283.87819299930698
 20
239.6277453254778
 30
0.0
 40
0.3225037199967564
 50
0.0435252727199126
 51
180.04352527273289
  0
LINE
  5
B783
  8
0
 10
283.55742551232009
 20
237.34189255990859
 30
0.0
 11
283.55568952704112
 21
239.62749971904631
 31
0.0
  0
LINE
  5
B784
  8
0
 10
282.48241383428012
 20
237.34107672133331
 30
0.0
 11
283.55742551232009
 21
237.34189255990859
 31
0.0
  0
LINE
  5
B785
  8
0
 10
285.92245213533079
 20
237.34369001247759
 30
0.0
 11
286.99746474469339
 21
237.34450585105299
 31
0.0
  0
LINE
  5
B786
  8
0
 10
286.99746474469339
 20
237.34450585105299
 30
0.0
 11
286.99572782809167
 21
239.63011301019071
 31
0.0
  0
CIRCLE
  5
B787
  8
0
 10
292.46035083172143
 20
239.15056631554671
 30
0.0
 40
0.6450074399935489
  0
CIRCLE
  5
B788
  8
0
 10
292.46035083172143
 20
239.15056631554671
 30
0.0
 40
1.8346020000000181
  0
ARC
  5
B789
  8
0
 10
278.0341506925688
 20
239.0680299893323
 30
0.0
 40
1.8354474660024169
 50
279.33601857369138
 51
307.58381908558459
  0
LINE
  5
B78A
  8
0
 10
278.3313638328973
 20
237.9688719556558
 30
0.0
 11
278.33190446565192
 21
237.25689447381379
 31
0.0
  0
LINE
  5
B78B
  8
0
 10
278.330193160421
 20
239.51011023380639
 30
0.0
 11
279.90147730181252
 21
239.51130232670189
 31
0.0
  0
ARC
  5
B78C
  8
0
 10
277.9220951625739
 20
239.34678879342189
 30
0.0
 40
1.9862070722350169
 50
4.7511618222695207
 51
39.276848098748921
  0
ARC
  5
B78D
  8
0
 10
278.01333222634003
 20
242.32682947334561
 30
0.0
 40
2.2492656475153199
 50
278.08683598286967
 51
310.01589528229488
  0
ARC
  5
B78E
  8
0
 10
275.46057224603243
 20
239.19129766804829
 30
0.0
 40
2.457249347033811
 50
341.49648327665352
 51
351.12959798181828
  0
ARC
  5
B78F
  8
0
 10
275.71349437173473
 20
239.2606576708483
 30
0.0
 40
0.5897210879941293
 50
180.04356074218799
 51
0.04344519302532
  0
LINE
  5
B790
  8
0
 10
275.12358550759291
 20
239.50767389395119
 30
0.0
 11
275.12377340192228
 21
239.26020844735979
 31
0.0
  0
LINE
  5
B791
  8
0
 10
274.71815238552432
 20
239.50736469485639
 30
0.0
 11
275.12358550759291
 21
239.50767389395119
 31
0.0
  0
LINE
  5
B792
  8
0
 10
274.71834027985369
 20
239.25990111091019
 30
0.0
 11
274.71815238552432
 21
239.50736469485639
 31
0.0
  0
ARC
  5
B793
  8
0
 10
275.78591532954812
 20
239.20297533775459
 30
0.0
 40
1.0690916530270189
 50
176.9477245724284
 51
254.10813616549351
  0
LINE
  5
B794
  8
0
 10
275.49352476218968
 20
237.712875594281
 30
0.0
 11
275.49317388640969
 21
238.17474453606491
 31
0.0
  0
ARC
  5
B795
  8
0
 10
275.81005968651471
 20
239.17843275395731
 30
0.0
 40
1.499350736661704
 50
176.89703507056299
 51
257.81231478316391
  0
LINE
  5
B796
  8
0
 10
274.31271920524802
 20
239.5070573584068
 30
0.0
 11
274.31290721599271
 21
239.25959377446051
 31
0.0
  0
LINE
  5
B797
  8
0
 10
273.90728608317932
 20
239.5067500219572
 30
0.0
 11
274.31271920524802
 21
239.5070573584068
 31
0.0
  0
LINE
  5
B798
  8
0
 10
273.90747406482018
 20
239.2592845753658
 30
0.0
 11
273.90728608317932
 21
239.5067500219572
 31
0.0
  0
ARC
  5
B799
  8
0
 10
275.83420389270941
 20
239.15408864424049
 30
0.0
 40
1.9295994894743109
 50
176.87483505939659
 51
259.84137374400672
  0
LINE
  5
B79A
  8
0
 10
275.4942195288304
 20
236.79825163342829
 30
0.0
 11
275.4938726111713
 21
237.2547393933761
 31
0.0
  0
ARC
  5
B79B
  8
0
 10
275.65538880412078
 20
239.2402957099313
 30
0.0
 40
2.4473576041129639
 50
59.166089308434088
 51
266.22408712698348
  0
ARC
  5
B79C
  8
0
 10
278.25179654958129
 20
239.2625855510455
 30
0.0
 40
2.474643599975241
 50
237.24635697690621
 51
122.8406935685432
  0
ARC
  5
B79D
  8
0
 10
275.6292379232068
 20
239.01904041343241
 30
0.0
 40
2.2416134484652752
 50
277.87870404673578
 51
304.93670186527601
  0
ARC
  5
B79E
  8
0
 10
275.592946902324
 20
239.15390537108479
 30
0.0
 40
1.9295994894743611
 50
280.24567680143991
 51
3.2122154860578669
  0
LINE
  5
B79F
  8
0
 10
277.51932691628372
 20
239.50949369826199
 30
0.0
 11
277.5195145777825
 21
239.26203011431571
 31
0.0
  0
LINE
  5
B7A0
  8
0
 10
277.88790248180072
 20
239.5097730950344
 30
0.0
 11
277.51932691628372
 21
239.50949369826199
 31
0.0
  0
LINE
  5
B7A1
  8
0
 10
277.88745404998099
 20
240.0995945826995
 30
0.0
 11
277.88790248180072
 21
239.5097730950344
 31
0.0
  0
ARC
  5
B7A2
  8
0
 10
278.20048313876941
 20
242.32697164430741
 30
0.0
 40
2.2492656475154211
 50
230.07115526314581
 51
262.00021456259122
  0
ARC
  5
B7A3
  8
0
 10
278.29706644843731
 20
239.333914139694
 30
0.0
 40
1.9951801012092409
 50
140.53217560829711
 51
182.0913362175398
  0
LINE
  5
B7A4
  8
0
 10
279.90185309047138
 20
239.01637515880941
 30
0.0
 11
278.33056894907992
 21
239.01518120326881
 31
0.0
  0
LINE
  5
B7A5
  8
0
 10
278.33056894907992
 20
239.01518120326881
 30
0.0
 11
278.33101691523819
 21
238.42535971560361
 31
0.0
  0
ARC
  5
B7A6
  8
0
 10
278.17359994231259
 20
239.061296797144
 30
0.0
 40
1.826944599897715
 50
239.72905831653651
 51
261.05750239331491
  0
LINE
  5
B7A7
  8
0
 10
277.88961378703152
 20
237.2565591976869
 30
0.0
 11
277.8890731542769
 21
237.96853481688379
 31
0.0
  0
ARC
  5
B7A8
  8
0
 10
278.15798864357481
 20
236.1718463783312
 30
0.0
 40
1.816702504598452
 50
98.512431410818834
 51
109.4991308438222
  0
ARC
  5
B7A9
  8
0
 10
275.51279768938463
 20
239.09267360427251
 30
0.0
 40
2.3699569172246582
 50
317.23381982692359
 51
329.34626416763228
  0
ARC
  5
B7AA
  8
0
 10
278.03164417805419
 20
242.36755383725031
 30
0.0
 40
1.8354474660023841
 50
279.33601857369138
 51
307.58381908558459
  0
LINE
  5
B7AB
  8
0
 10
277.88710759798317
 20
240.5560823426473
 30
0.0
 11
277.88656649956738
 21
241.2680598244894
 31
0.0
  0
ARC
  5
B7AC
  8
0
 10
278.18210933492901
 20
242.36766813953059
 30
0.0
 40
1.8354474660024109
 50
232.50323145985541
 51
260.75103197174809
  0
LINE
  5
B7AD
  8
0
 10
275.93616328979169
 20
237.25507466950299
 30
0.0
 11
275.93651020745068
 21
236.79858690955521
 31
0.0
  0
LINE
  5
B7AE
  8
0
 10
277.88872623661791
 20
238.42502443947669
 30
0.0
 11
277.88843193868428
 21
238.8123894379365
 31
0.0
  0
LINE
  5
B7AF
  8
0
 10
278.32974472860133
 20
240.09992985882641
 30
0.0
 11
278.330193160421
 21
239.51011023380639
 31
0.0
  0
ARC
  5
B7B0
  8
0
 10
277.92222347460938
 20
239.1778814845853
 30
0.0
 40
1.986207072235056
 50
320.81020244669821
 51
355.33588872318489
  0
ARC
  5
B7B1
  8
0
 10
278.01798806266561
 20
236.19798286223599
 30
0.0
 40
2.249265647515299
 50
50.07115526314589
 51
82.000214562591196
  0
ARC
  5
B7B2
  8
0
 10
278.0363618665055
 20
236.15728636701269
 30
0.0
 40
1.8354474660024229
 50
52.503231459855478
 51
80.751031971748105
  0
LINE
  5
B7B3
  8
0
 10
278.32885717818772
 20
241.2683951006162
 30
0.0
 11
278.32939827660363
 21
240.55641948141931
 31
0.0
  0
ARC
  5
B7B4
  8
0
 10
278.18432050886622
 20
239.45692451721089
 30
0.0
 40
1.8354474660023929
 50
99.336018573691348
 51
127.58381908558459
  0
ARC
  5
B7B5
  8
0
 10
278.14369095610891
 20
236.2241305700592
 30
0.0
 40
2.2156125182392068
 50
96.608030022928759
 51
99.165005866589425
  0
ARC
  5
B7B6
  8
0
 10
278.03385535199141
 20
239.4568102149307
 30
0.0
 40
1.8354474660024109
 50
52.503231459855478
 51
80.751031971748105
  0
LINE
  5
B7B7
  8
0
 10
277.11389356138437
 20
239.50918636181231
 30
0.0
 11
276.70846043931579
 21
239.5088771627176
 31
0.0
  0
LINE
  5
B7B8
  8
0
 10
275.93546456503009
 20
238.17507981219171
 30
0.0
 11
275.93581544081007
 21
237.71321087040781
 31
0.0
  0
ARC
  5
B7B9
  8
0
 10
275.641161135316
 20
239.20286537386119
 30
0.0
 40
1.0690916530269869
 50
285.97891437995861
 51
3.139325973014623
  0
LINE
  5
B7BA
  8
0
 10
276.70846043931579
 20
239.5088771627176
 30
0.0
 11
276.70864833364521
 21
239.26141357877131
 31
0.0
  0
LINE
  5
B7BB
  8
0
 10
277.11408145571392
 20
239.26172091522099
 30
0.0
 11
277.11389356138437
 21
239.50918636181231
 31
0.0
  0
ARC
  5
B7BC
  8
0
 10
275.61705409420671
 20
239.1782861354327
 30
0.0
 40
1.4993507366617369
 50
282.27473576227698
 51
3.1900154748808012
  0
LINE
  5
B7BD
  8
0
 10
288.50074510867029
 20
239.63125667431231
 30
0.0
 11
288.50111018711959
 21
239.15007582762121
 31
0.0
  0
ARC
  5
B7BE
  8
0
 10
288.82324861217597
 20
239.63150218554401
 30
0.0
 40
1.397516119986056
 50
0.0435129004762914
 51
180.04353764497651
  0
LINE
  5
B7BF
  8
0
 10
287.42573249930768
 20
239.63044083573701
 30
0.0
 11
287.4274694159094
 21
237.3448318139541
 31
0.0
  0
LINE
  5
B7C0
  8
0
 10
290.22249977881353
 20
237.3469552294242
 30
0.0
 11
290.22076379353439
 21
239.6325642512071
 31
0.0
  0
LINE
  5
B7C1
  8
0
 10
289.14748903209602
 20
237.34613939084889
 30
0.0
 11
290.22249977881353
 21
237.3469552294242
 31
0.0
  0
ARC
  5
B7C2
  8
0
 10
288.82324861217597
 20
239.63150218554401
 30
0.0
 40
0.3225037199969012
 50
0.0434716596511961
 51
180.0435788857952
  0
LINE
  5
B7C3
  8
0
 10
287.4274694159094
 20
237.3448318139541
 30
0.0
 11
288.50248109394943
 21
237.34564951517461
 31
0.0
  0
LINE
  5
B7C4
  8
0
 10
288.50184127534072
 20
238.18771599688409
 30
0.0
 11
289.14684828216468
 21
238.1882058725584
 31
0.0
  0
LINE
  5
B7C5
  8
0
 10
289.14611812526618
 20
239.15056570329551
 30
0.0
 11
289.14575304681688
 21
239.63174654998659
 31
0.0
  0
LINE
  5
B7C6
  8
0
 10
288.50111018711959
 20
239.15007582762121
 30
0.0
 11
289.14611812526618
 21
239.15056570329551
 31
0.0
  0
LINE
  5
B7C7
  8
0
 10
289.14684828216468
 20
238.1882058725584
 30
0.0
 11
289.14748903209602
 21
237.34613939084889
 31
0.0
  0
LINE
  5
B7C8
  8
0
 10
288.50248109394943
 20
237.34564951517461
 30
0.0
 11
288.50184127534072
 21
238.18771599688409
 31
0.0
  0
LINE
  5
B7C9
  8
0
 10
261.51279758507638
 20
244.07045229234581
 30
0.0
 11
261.51279758507638
 21
234.11489616044639
 31
0.0
  0
LINE
  5
B7CA
  8
0
 10
274.51279773688202
 20
242.84267297842379
 30
0.0
 11
293.51279724234968
 21
242.84267297842379
 31
0.0
  0
LINE
  5
B7CB
  8
0
 10
293.51279724234968
 20
235.3426736117232
 30
0.0
 11
274.51279773688202
 21
235.3426736117232
 31
0.0
  0
LINE
  5
B7CF
  8
0
 10
268.51279780114328
 20
228.9426947281587
 30
0.0
 11
268.5296570680502
 21
229.15128490784051
 31
0.0
  0
LINE
  5
B7D1
  8
0
 10
268.51279780114328
 20
228.9426947281587
 30
0.0
 11
268.51279768938463
 21
211.09267360427251
 31
0.0
  0
LINE
  5
B7D2
  8
0
 10
268.51279768938463
 20
267.09267362003777
 30
0.0
 11
268.51279780114328
 21
249.33109089146919
 31
0.0
  0
LINE
  5
B7D3
  8
0
 10
259.01279810661708
 20
229.0926739842522
 30
0.0
 11
259.01279810661708
 21
249.09267446853991
 31
0.0
  0
LINE
  5
B7D4
  8
0
 10
254.51279830033221
 20
249.09267446853991
 30
0.0
 11
254.51279830033221
 21
229.0926739842522
 31
0.0
  0
LINE
  5
B7D5
  8
0
 10
252.5127979725066
 20
230.2473742783892
 30
0.0
 11
252.5127979725066
 21
247.93797231175779
 31
0.0
  0
LINE
  5
B7D6
  8
0
 10
259.5127972572509
 20
229.59267406620859
 30
0.0
 11
259.5127972572509
 21
248.59267345526101
 31
0.0
  0
LINE
  5
B7D7
  8
0
 10
260.51279742116373
 20
211.5926739097464
 30
0.0
 11
260.51279742116373
 21
266.5926726804006
 31
0.0
  0
LINE
  5
B7D8
  8
0
 10
288.51279735410839
 20
254.60795185425161
 30
0.0
 11
288.51279768938463
 21
256.59267370006569
 31
0.0
  0
LINE
  5
B7D9
  8
0
 10
288.51279735410839
 20
221.59267362802129
 30
0.0
 11
288.51279735410839
 21
223.5773968313712
 31
0.0
  0
ARC
  5
B7DA
  8
0
 10
289.01279768938463
 20
221.59267360427251
 30
0.0
 40
0.5
 50
180.0
 51
270.0
  0
ARC
  5
B7DB
  8
0
 10
313.01279768938463
 20
221.59267360427251
 30
0.0
 40
0.5
 50
270.0
 51
0.0
  0
LINE
  5
B7DC
  8
0
 10
313.51279768938463
 20
256.59267360427248
 30
0.0
 11
313.5127967953149
 21
221.59267362802129
 31
0.0
  0
ARC
  5
B7DD
  8
0
 10
289.01279768938463
 20
256.59267360427248
 30
0.0
 40
0.5
 50
90.0
 51
180.0
  0
LINE
  5
B7DE
  8
0
 10
301.1730409025613
 20
221.09267360427251
 30
0.0
 11
293.0700111001197
 21
221.09267360427251
 31
0.0
  0
LINE
  5
B7DF
  8
0
 10
289.95558459157382
 20
221.09267360427251
 30
0.0
 11
289.01279743606477
 21
221.09267360427251
 31
0.0
  0
LINE
  5
B7E0
  8
0
 10
313.01279950732618
 20
221.09267360427251
 30
0.0
 11
306.05255279535692
 21
221.09267360427251
 31
0.0
  0
ARC
  5
B7E1
  8
0
 10
313.01279768938463
 20
256.59267360427248
 30
0.0
 40
0.5
 50
0.0
 51
90.0
  0
LINE
  5
B7E2
  8
0
 10
289.01279743606477
 20
257.09267205455183
 30
0.0
 11
313.01279950732618
 21
257.09267205455183
 31
0.0
  0
LINE
  5
B7E3
  8
0
 10
300.51279838973909
 20
234.11489616044639
 30
0.0
 11
260.51279742116373
 21
234.11489616044639
 31
0.0
  0
LINE
  5
B7E4
  8
0
 10
300.51279838973909
 20
244.07045229234581
 30
0.0
 11
260.51279742116373
 21
244.07045229234581
 31
0.0
  0
LINE
  5
B7E5
  8
0
 10
313.51279711519328
 20
234.11489616044639
 30
0.0
 11
308.51279783839618
 21
234.11489616044639
 31
0.0
  0
LINE
  5
B7E6
  8
0
 10
313.51279736950619
 20
244.07045229234581
 30
0.0
 11
308.51279783839618
 21
244.07045229234581
 31
0.0
  0
LINE
  5
B7E7
  8
0
 10
269.01279788309972
 20
232.94482252457021
 30
0.0
 11
300.51279838973909
 21
232.94482252457021
 31
0.0
  0
LINE
  5
B7E8
  8
0
 10
308.51279783839618
 20
232.94482252457021
 30
0.0
 11
313.51279708530359
 21
232.94482252457021
 31
0.0
  0
LINE
  5
B7E9
  8
0
 10
313.51279739939582
 20
245.24052499689941
 30
0.0
 11
308.51279783839618
 21
245.24052499689941
 31
0.0
  0
LINE
  5
B7EA
  8
0
 10
300.51279838973909
 20
245.24052499689941
 30
0.0
 11
269.01279788309972
 21
245.24052499689941
 31
0.0
  0
LINE
  5
B7EB
  8
0
 10
313.5127969624964
 20
228.13729627885701
 30
0.0
 11
268.51279780114328
 21
228.13729627885701
 31
0.0
  0
LINE
  5
B7EC
  8
0
 10
268.51279780114328
 20
250.04805124261259
 30
0.0
 11
313.51279752220307
 21
250.04805124261259
 31
0.0
  0
LINE
  5
B7ED
  8
1
 10
245.90670170554131
 20
239.09267360427259
 30
0.0
 11
334.25187991425349
 21
239.09267360427259
 31
0.0
  0
LINE
  5
B7F2
  8
0
 10
313.5127967953149
 20
358.83426422461088
 30
0.0
 11
314.91279760660058
 21
358.83426422461088
 31
0.0
  0
LINE
  5
B7F3
  8
0
 10
314.91279760660058
 20
380.83426410540159
 30
0.0
 11
313.5127967953149
 21
380.8342641054017
 31
0.0
  0
LINE
  5
B7F4
  8
0
 10
260.41279759103691
 20
360.33426447048009
 30
0.0
 11
260.51279742116373
 21
360.32587232276018
 31
0.0
  0
LINE
  5
B7F5
  8
0
 10
260.51279742116373
 20
379.3426560072524
 30
0.0
 11
260.41279759103691
 21
379.33426385953248
 31
0.0
  0
LINE
  5
B7F6
  8
0
 10
254.51279830033221
 20
379.83426394148893
 30
0.0
 11
252.5127979725066
 21
378.67956364735193
 31
0.0
  0
LINE
  5
B7F7
  8
0
 10
252.5127979725066
 20
360.98896468266071
 30
0.0
 11
254.51279830033221
 21
359.83426438852371
 31
0.0
  0
LINE
  5
B7F8
  8
0
 10
259.01279810661708
 20
379.83426394148893
 30
0.0
 11
254.51279830033221
 21
379.83426394148893
 31
0.0
  0
LINE
  5
B7F9
  8
0
 10
254.51279830033221
 20
359.83426438852371
 30
0.0
 11
259.01279810661708
 21
359.83426438852371
 31
0.0
  0
LINE
  5
B7FA
  8
0
 10
259.01279810661708
 20
359.83426438852371
 30
0.0
 11
259.5127972572509
 21
360.33426447048009
 31
0.0
  0
LINE
  5
B7FB
  8
0
 10
259.5127972572509
 20
379.33426385953248
 30
0.0
 11
259.01279810661708
 21
379.83426394148893
 31
0.0
  0
LINE
  5
B7FC
  8
0
 10
259.5127972572509
 20
360.33426447048009
 30
0.0
 11
260.41279759103691
 21
360.33426447048009
 31
0.0
  0
LINE
  5
B7FD
  8
0
 10
260.41279759103691
 20
379.33426385953248
 30
0.0
 11
259.5127972572509
 21
379.33426385953248
 31
0.0
  0
LINE
  5
B7FE
  8
0
 10
261.51279758507638
 20
383.83426459714002
 30
0.0
 11
260.51279742116373
 21
382.83426443322719
 31
0.0
  0
LINE
  5
B7FF
  8
0
 10
270.80659151854252
 20
383.83426459714002
 30
0.0
 11
261.51279758507638
 21
383.83426459714002
 31
0.0
  0
LINE
  5
B800
  8
0
 10
300.51279838973909
 20
383.83426459714002
 30
0.0
 11
297.21900474125778
 21
383.83426459714002
 31
0.0
  0
LINE
  5
B801
  8
0
 10
313.01279950732618
 20
383.83426459714002
 30
0.0
 11
308.51279783839618
 21
383.83426459714002
 31
0.0
  0
ARC
  5
B802
  8
0
 10
313.01279768938463
 20
383.3342641650064
 30
0.0
 40
0.5
 50
0.0
 51
90.0
  0
LINE
  5
B803
  8
0
 10
260.51279742116373
 20
356.83426389678539
 30
0.0
 11
261.51279758507638
 21
355.83426373287261
 31
0.0
  0
LINE
  5
B804
  8
0
 10
297.21900474125778
 20
355.83426373287261
 30
0.0
 11
300.51279838973909
 21
355.83426373287261
 31
0.0
  0
LINE
  5
B805
  8
0
 10
261.51279758507638
 20
355.83426373287261
 30
0.0
 11
270.80659151854252
 21
355.83426373287261
 31
0.0
  0
ARC
  5
B806
  8
0
 10
313.01279768938463
 20
356.33426416500629
 30
0.0
 40
0.5
 50
270.0
 51
0.0
  0
LINE
  5
B807
  8
0
 10
308.51279783839618
 20
355.83426373287261
 30
0.0
 11
313.01279950732618
 21
355.83426373287261
 31
0.0
  0
LINE
  5
B817
  8
0
 10
261.51279758507638
 20
375.44219510837621
 30
0.0
 11
261.51279758507638
 21
364.22633322163642
 31
0.0
  0
LINE
  5
B818
  8
0
 10
261.51279758507638
 20
382.9194366766435
 30
0.0
 11
261.51279758507638
 21
375.44219510837621
 31
0.0
  0
LINE
  5
B819
  8
0
 10
260.51279742116373
 20
356.83426389678539
 30
0.0
 11
260.51279742116373
 21
382.83426443322719
 31
0.0
  0
LINE
  5
B81A
  8
0
 10
268.51279780114328
 20
380.41690400078119
 30
0.0
 11
268.51279780114328
 21
359.25162432923162
 31
0.0
  0
LINE
  5
B81B
  8
0
 10
261.51279758507638
 20
364.22633322163642
 30
0.0
 11
261.51279758507638
 21
356.74909165336908
 31
0.0
  0
LINE
  5
B81C
  8
0
 10
313.5127967953149
 20
373.4108704442454
 30
0.0
 11
313.5127967953149
 21
370.37978147364379
 31
0.0
  0
LINE
  5
B81D
  8
0
 10
288.51400062287479
 20
366.04272237255401
 30
0.0
 11
288.51279735410839
 21
366.07333261727513
 31
0.0
  0
LINE
  5
B81E
  8
0
 10
288.51279735410839
 20
366.07333261727513
 30
0.0
 11
288.51279735410839
 21
373.62580595745862
 31
0.0
  0
LINE
  5
B821
  8
0
 10
259.01279810661708
 20
359.83426438852371
 30
0.0
 11
259.01279810661708
 21
379.83426394148893
 31
0.0
  0
LINE
  5
B822
  8
0
 10
259.5127972572509
 20
360.33426447048009
 30
0.0
 11
259.5127972572509
 21
379.33426385953248
 31
0.0
  0
LINE
  5
B823
  8
0
 10
261.51279758507638
 20
383.83426459714002
 30
0.0
 11
261.51279758507638
 21
382.9194366766435
 31
0.0
  0
LINE
  5
B824
  8
0
 10
274.51279773688202
 20
383.32268538161338
 30
0.0
 11
293.51279724234968
 21
383.32268538161338
 31
0.0
  0
LINE
  5
B827
  8
0
 10
313.5127967953149
 20
383.33426451518358
 30
0.0
 11
313.5127967953149
 21
382.4521083219272
 31
0.0
  0
LINE
  5
B828
  8
0
 10
261.51279758507638
 20
356.74909165336908
 30
0.0
 11
261.51279758507638
 21
355.83426373287261
 31
0.0
  0
LINE
  5
B829
  8
0
 10
274.51279773688202
 20
356.34584294839919
 30
0.0
 11
293.51279724234968
 21
356.34584294839919
 31
0.0
  0
LINE
  5
B82B
  8
0
 10
313.51279768938463
 20
383.3342641650064
 30
0.0
 11
313.5127967953149
 21
356.334263814829
 31
0.0
  0
LINE
  5
B82D
  8
0
 10
268.51279780114328
 20
375.44219510837621
 30
0.0
 11
260.51279742116373
 21
375.44219510837621
 31
0.0
  0
LINE
  5
B82E
  8
0
 10
268.51279780114328
 20
364.22633322163642
 30
0.0
 11
260.51279742116373
 21
364.22633322163631
 31
0.0
  0
LINE
  5
B82F
  8
0
 10
269.01279788309972
 20
382.47432409062208
 30
0.0
 11
300.51279838973909
 21
382.47432409062208
 31
0.0
  0
LINE
  5
B830
  8
0
 10
300.51279838973909
 20
357.1942042393905
 30
0.0
 11
269.01279788309972
 21
357.1942042393905
 31
0.0
  0
ARC
  5
B831
  8
0
 10
288.98154748450452
 20
373.37478580854349
 30
0.0
 40
0.470136986079989
 50
86.188746074501864
 51
175.59802193366491
  0
LINE
  5
B832
  8
0
 10
289.01279743606477
 20
373.84388305454672
 30
0.0
 11
313.51279737512277
 21
373.84388305454672
 31
0.0
  0
LINE
  5
B833
  8
0
 10
313.51279726041372
 20
370.37978147364379
 30
0.0
 11
288.51279735410839
 21
370.37978147364379
 31
0.0
  0
LINE
  5
B834
  8
0
 10
288.51279735410839
 20
369.28874685636879
 30
0.0
 11
313.51279722428529
 21
369.28874685636879
 31
0.0
  0
LINE
  5
B835
  8
0
 10
313.5127971095763
 20
365.82464527546591
 30
0.0
 11
289.01279743606477
 21
365.82464527546591
 31
0.0
  0
ARC
  5
B836
  8
0
 10
288.98154748450452
 20
366.29374252146908
 30
0.0
 40
0.4701369860799323
 50
184.40197806633509
 51
273.81125392549819
  0
LINE
  5
B837
  8
0
 10
313.5127975329587
 20
378.61036917402572
 30
0.0
 11
268.51279780114328
 21
378.61036917402572
 31
0.0
  0
LINE
  5
B838
  8
0
 10
268.51279780114328
 20
361.05815915598691
 30
0.0
 11
313.51279695174031
 21
361.05815915598691
 31
0.0
  0
LINE
  5
B839
  8
0
 10
288.51400062287479
 20
373.62580595745862
 30
0.0
 11
268.51279780114328
 21
373.62580595745862
 31
0.0
  0
LINE
  5
B83A
  8
0
 10
268.51279780114328
 20
366.04272237255401
 30
0.0
 11
288.51400062287479
 21
366.04272237255401
 31
0.0
  0
LINE
  5
B83B
  8
0
 10
308.51279783839618
 20
382.47432409062208
 30
0.0
 11
313.51279766090829
 21
382.47432409062208
 31
0.0
  0
LINE
  5
B83C
  8
0
 10
313.51279682379032
 20
357.1942042393905
 30
0.0
 11
308.51279783839618
 21
357.1942042393905
 31
0.0
  0
ARC
  5
B83D
  8
0
 10
274.5129420928306
 20
239.0926732950735
 30
0.0
 40
3.7499996861288101
 50
89.997794403793094
 51
270.00220559620692
  0
ARC
  5
B83E
  8
0
 10
293.51265288640121
 20
239.0926732950735
 30
0.0
 40
3.7499996861288101
 50
269.99779440379308
 51
90.002205596206906
  0
ARC
  5
B83F
  8
0
 10
303.61279684895908
 20
215.51175852559129
 30
0.0
 40
6.0908966657983648
 50
66.386948400277376
 51
113.6130515997226
  0
ARC
  5
B840
  8
0
 10
291.51279784584682
 20
213.36745822144661
 30
0.0
 40
7.8806006008637732
 50
78.603302693801112
 51
101.3966973061988
  0
POLYLINE
  5
B841
  8
0
 66
     1
 10
0.0
 20
0.0
 30
0.0
 70
     2
  0
VERTEX
  5
B842
  8
0
 10
269.01279788309972
 20
223.57740009100019
 30
0.0
 42
0.0270623643376851
  0
VERTEX
  5
B843
  8
0
 10
268.97265823434549
 20
223.57564126060649
 30
0.0
 42
0.047345501178836
 70
     1
  0
VERTEX
  5
B844
  8
0
 10
268.95008296729151
 20
223.57124052797769
 30
0.0
 42
0.0209597343770059
  0
VERTEX
  5
B845
  8
0
 10
268.88735210572668
 20
223.5498198402482
 30
0.0
 42
0.04695676670836
 70
     1
  0
VERTEX
  5
B846
  8
0
 10
268.86085641447789
 20
223.53653336667671
 30
0.0
 42
0.0274170238628737
  0
VERTEX
  5
B847
  8
0
 10
268.82539533499857
 20
223.5115649122171
 30
0.0
 42
0.023801206748138
 70
     1
  0
VERTEX
  5
B848
  8
0
 10
268.78770854549663
 20
223.4787839738452
 30
0.0
 42
0.0170022860232065
  0
VERTEX
  5
B849
  8
0
 10
268.74031830124483
 20
223.43023390223729
 30
0.0
 42
0.0247313152647594
 70
     1
  0
VERTEX
  5
B84A
  8
0
 10
268.71062449140391
 20
223.39424549729799
 30
0.0
 42
0.0181416254082958
  0
VERTEX
  5
B84B
  8
0
 10
268.67770542969811
 20
223.34655110581059
 30
0.0
 42
0.0193140800056875
 70
     1
  0
VERTEX
  5
B84C
  8
0
 10
268.65022263524219
 20
223.29956165677129
 30
0.0
 42
0.0111401098943156
  0
VERTEX
  5
B84D
  8
0
 10
268.6234530719621
 20
223.24664196971199
 30
0.0
 42
0.0140010908780738
 70
     1
  0
VERTEX
  5
B84E
  8
0
 10
268.60429532452417
 20
223.20351551564349
 30
0.0
 42
0.0120216091590689
  0
VERTEX
  5
B84F
  8
0
 10
268.58341910994022
 20
223.149046075071
 30
0.0
 42
0.013537074758771
 70
     1
  0
VERTEX
  5
B850
  8
0
 10
268.56737498197981
 20
223.09978851016481
 30
0.0
 42
0.011730487407525
  0
VERTEX
  5
B851
  8
0
 10
268.55181480765992
 20
223.04230397367689
 30
0.0
 42
0.0129003387952545
 70
     1
  0
VERTEX
  5
B852
  8
0
 10
268.54025633258289
 20
222.98939754068061
 30
0.0
 42
0.0089320461797032
  0
VERTEX
  5
B853
  8
0
 10
268.53895189563349
 20
222.98186297299239
 30
0.0
 42
0.0008176782135701
 70
     1
  0
VERTEX
  5
B854
  8
0
 10
268.5263111306549
 20
222.89930219908379
 30
0.0
 42
0.0209940453422486
  0
VERTEX
  5
B855
  8
0
 10
268.5170934521243
 20
222.8145318177074
 30
0.0
 42
0.0150732859008798
 70
     1
  0
VERTEX
  5
B856
  8
0
 10
268.51279780114328
 20
222.69587091066779
 30
0.0
  0
SEQEND
  5
B857
  8
0
  0
POLYLINE
  5
B858
  8
0
 66
     1
 10
0.0
 20
0.0
 30
0.0
  0
VERTEX
  5
10AB6
  8
0
 10
269.01279788309972
 20
232.94482252457021
 30
0.0
  0
VERTEX
  5
10AB7
  8
0
 10
268.86252576183142
 20
232.05603939919681
 30
0.0
  0
VERTEX
  5
10AB8
  8
0
 10
268.7707417014571
 20
231.50143327868079
 30
0.0
  0
VERTEX
  5
10AB9
  8
0
 10
268.65369651844873
 20
230.7274687702151
 30
0.0
  0
VERTEX
  5
10ABA
  8
0
 10
268.56856911458499
 20
229.836785325769
 30
0.0
  0
VERTEX
  5
10ABB
  8
0
 10
268.5296570680502
 20
229.15128490784051
 30
0.0
  0
SEQEND
  5
10ABC
  8
0
  0
POLYLINE
  5
B859
  8
0
 66
     1
 10
0.0
 20
0.0
 30
0.0
 70
     2
  0
VERTEX
  5
B85A
  8
0
 10
269.01279396620288
 20
254.6079460573149
 30
0.0
 42
-0.0270623643376851
  0
VERTEX
  5
B85B
  8
0
 10
268.97265431700453
 20
254.6097048775751
 30
0.0
 42
-0.047345501178836
 70
     1
  0
VERTEX
  5
B85C
  8
0
 10
268.95007904884011
 20
254.6141056045048
 30
0.0
 42
-0.0209597343770059
  0
VERTEX
  5
B85D
  8
0
 10
268.88734818186731
 20
254.6355262763974
 30
0.0
 42
-0.04695676670836
 70
     1
  0
VERTEX
  5
B85E
  8
0
 10
268.86085248726431
 20
254.64881274327999
 30
0.0
 42
-0.0274170238628737
  0
VERTEX
  5
B85F
  8
0
 10
268.82539140148128
 20
254.67378118878739
 30
0.0
 42
-0.023801206748138
 70
     1
  0
VERTEX
  5
B860
  8
0
 10
268.78770460370379
 20
254.70656211764501
 30
0.0
 42
-0.0170022860232065
  0
VERTEX
  5
B861
  8
0
 10
268.74031434719558
 20
254.75511217728911
 30
0.0
 42
-0.0247313152647594
 70
     1
  0
VERTEX
  5
B862
  8
0
 10
268.71062052826892
 20
254.79110057473201
 30
0.0
 42
-0.0181416254082958
  0
VERTEX
  5
B863
  8
0
 10
268.67770145452278
 20
254.8387949579089
 30
0.0
 42
-0.0193140800056875
 70
     1
  0
VERTEX
  5
B864
  8
0
 10
268.65021864820392
 20
254.88578440001001
 30
0.0
 42
-0.0111401098943156
  0
VERTEX
  5
B865
  8
0
 10
268.62344907156421
 20
254.9387040803114
 30
0.0
 42
-0.0140010908780738
 70
     1
  0
VERTEX
  5
B866
  8
0
 10
268.60429131323872
 20
254.9818305295432
 30
0.0
 42
-0.0120216091590689
  0
VERTEX
  5
B867
  8
0
 10
268.58341508490412
 20
255.0362999648456
 30
0.0
 42
-0.013537074758771
 70
     1
  0
VERTEX
  5
B868
  8
0
 10
268.56737094450818
 20
255.08555752570129
 30
0.0
 42
-0.011730487407525
  0
VERTEX
  5
B869
  8
0
 10
268.55181075567589
 20
255.14304205826099
 30
0.0
 42
-0.0129003387952545
 70
     1
  0
VERTEX
  5
B86A
  8
0
 10
268.54025226724252
 20
255.1959484883393
 30
0.0
 42
-0.0089320461797032
  0
VERTEX
  5
B86B
  8
0
 10
268.53894782839097
 20
255.20348305569831
 30
0.0
 42
-0.0008176782135701
 70
     1
  0
VERTEX
  5
B86C
  8
0
 10
268.5263070425699
 20
255.28604382641549
 30
0.0
 42
-0.0209940453422486
  0
VERTEX
  5
B86D
  8
0
 10
268.51708934263843
 20
255.37081420546491
 30
0.0
 42
-0.0150732859008798
 70
     1
  0
VERTEX
  5
B86E
  8
0
 10
268.51279366170093
 20
255.48947511142001
 30
0.0
  0
SEQEND
  5
B86F
  8
0
  0
POLYLINE
  5
B870
  8
0
 66
     1
 10
0.0
 20
0.0
 30
0.0
  0
VERTEX
  5
10ABD
  8
0
 10
269.01279871005357
 20
245.24052491938869
 30
0.0
  0
VERTEX
  5
10ABE
  8
0
 10
268.8625267083371
 20
246.12930806497531
 30
0.0
  0
VERTEX
  5
10ABF
  8
0
 10
268.77074272256323
 20
246.6839141978372
 30
0.0
  0
VERTEX
  5
10AC0
  8
0
 10
268.65369764366193
 20
247.4578787220469
 30
0.0
  0
VERTEX
  5
10AC1
  8
0
 10
268.56857035960462
 20
248.34856217794359
 30
0.0
  0
VERTEX
  5
10AC2
  8
0
 10
268.51279780114328
 20
249.33109089146919
 30
0.0
  0
SEQEND
  5
10AC3
  8
0
  0
LINE
  5
B871
  8
0
 10
261.51279758507638
 20
267.59267470695852
 30
0.0
 11
261.51279758507638
 21
244.07045229234581
 31
0.0
  0
LINE
  5
B872
  8
0
 10
261.51279622937273
 20
210.59267250158649
 30
0.0
 11
261.51279734829041
 21
234.11489491619929
 31
0.0
  0
POLYLINE
  5
B87B
  8
0
 66
     1
 10
0.0
 20
0.0
 30
0.0
  0
VERTEX
  5
10AC4
  8
0
 10
293.51279724234968
 20
356.34584294839919
 30
0.0
  0
VERTEX
  5
10AC5
  8
0
 10
294.31793466561749
 20
356.33148669682407
 30
0.0
  0
VERTEX
  5
10AC6
  8
0
 10
295.23102386745308
 20
356.26127968177269
 30
0.0
  0
VERTEX
  5
10AC7
  8
0
 10
295.98022457255371
 20
356.13256682084432
 30
0.0
  0
VERTEX
  5
10AC8
  8
0
 10
296.65918735048348
 20
355.99215279074048
 30
0.0
  0
VERTEX
  5
10AC9
  8
0
 10
297.21900474125778
 20
355.83426373287261
 30
0.0
  0
SEQEND
  5
10ACA
  8
0
  0
POLYLINE
  5
B87C
  8
0
 66
     1
 10
0.0
 20
0.0
 30
0.0
  0
VERTEX
  5
10ACB
  8
0
 10
274.51279773688202
 20
356.34584294839919
 30
0.0
  0
VERTEX
  5
10ACC
  8
0
 10
273.70766031361381
 20
356.33148669682407
 30
0.0
  0
VERTEX
  5
10ACD
  8
0
 10
272.79457111177823
 20
356.26127968177269
 30
0.0
  0
VERTEX
  5
10ACE
  8
0
 10
272.04537040667759
 20
356.13256682084432
 30
0.0
  0
VERTEX
  5
10ACF
  8
0
 10
271.36640762874782
 20
355.99215279074048
 30
0.0
  0
VERTEX
  5
10AD0
  8
0
 10
270.80659023797398
 20
355.83426373287261
 30
0.0
  0
SEQEND
  5
10AD1
  8
0
  0
POLYLINE
  5
B87D
  8
0
 66
     1
 10
0.0
 20
0.0
 30
0.0
  0
VERTEX
  5
10AD2
  8
0
 10
274.51279773688202
 20
383.32268538161338
 30
0.0
  0
VERTEX
  5
10AD3
  8
0
 10
273.70766031361381
 20
383.33704163318851
 30
0.0
  0
VERTEX
  5
10AD4
  8
0
 10
272.79457111177823
 20
383.40724864824
 30
0.0
  0
VERTEX
  5
10AD5
  8
0
 10
272.04537040667759
 20
383.53596150916832
 30
0.0
  0
VERTEX
  5
10AD6
  8
0
 10
271.36640762874782
 20
383.67637553927199
 30
0.0
  0
VERTEX
  5
10AD7
  8
0
 10
270.80659023797398
 20
383.83426459714002
 30
0.0
  0
SEQEND
  5
10AD8
  8
0
  0
POLYLINE
  5
B87E
  8
0
 66
     1
 10
0.0
 20
0.0
 30
0.0
  0
VERTEX
  5
10AD9
  8
0
 10
293.51279724234968
 20
383.32268538161338
 30
0.0
  0
VERTEX
  5
10ADA
  8
0
 10
294.31793466561749
 20
383.33704163318851
 30
0.0
  0
VERTEX
  5
10ADB
  8
0
 10
295.23102386745308
 20
383.40724864824
 30
0.0
  0
VERTEX
  5
10ADC
  8
0
 10
295.98022457255371
 20
383.53596150916832
 30
0.0
  0
VERTEX
  5
10ADD
  8
0
 10
296.65918735048348
 20
383.67637553927199
 30
0.0
  0
VERTEX
  5
10ADE
  8
0
 10
297.21900474125778
 20
383.83426459714002
 30
0.0
  0
SEQEND
  5
10ADF
  8
0
  0
LINE
  5
B881
  8
0
 10
252.5127979725066
 20
378.67956364735193
 30
0.0
 11
252.5127979725066
 21
360.98896468266071
 31
0.0
  0
POLYLINE
  5
B882
  8
0
 66
     1
 10
0.0
 20
0.0
 30
0.0
 70
     2
  0
VERTEX
  5
B883
  8
0
 10
268.51279780114328
 20
359.25162432923298
 30
0.0
 42
0.026198407464847
  0
VERTEX
  5
B884
  8
0
 10
268.56560890180981
 20
358.68847500135058
 30
0.0
 42
0.0261984074649156
 70
     1
  0
VERTEX
  5
B885
  8
0
 10
268.67702350836731
 20
358.13393648754368
 30
0.0
 42
0.0231320519554417
  0
VERTEX
  5
B886
  8
0
 10
268.82316112252602
 20
357.65629905482109
 30
0.0
 42
0.0231320519553766
 70
     1
  0
VERTEX
  5
B887
  8
0
 10
269.01279788309972
 20
357.1942042393905
 30
0.0
  0
SEQEND
  5
B888
  8
0
  0
POLYLINE
  5
B889
  8
0
 66
     1
 10
0.0
 20
0.0
 30
0.0
 70
     2
  0
VERTEX
  5
B88A
  8
0
 10
268.51279780114419
 20
380.41690400077943
 30
0.0
 42
-0.026198407464847
  0
VERTEX
  5
B88B
  8
0
 10
268.56560890181117
 20
380.98005332866188
 30
0.0
 42
-0.0261984074649156
 70
     1
  0
VERTEX
  5
B88C
  8
0
 10
268.67702350836862
 20
381.53459184246873
 30
0.0
 42
-0.0231320519554417
  0
VERTEX
  5
B88D
  8
0
 10
268.82316112252738
 20
382.01222927519132
 30
0.0
 42
-0.0231320519553766
 70
     1
  0
VERTEX
  5
B88E
  8
0
 10
269.01279788310097
 20
382.47432409062191
 30
0.0
  0
SEQEND
  5
B88F
  8
0
  0
LINE
  5
B892
  8
1
 10
245.90670170554131
 20
369.83426416500629
 30
0.0
 11
334.25187991425349
 21
369.83426416500629
 31
0.0
  0
LINE
  5
B894
  8
1
 10
245.90670170554131
 20
87.20781237838446
 30
0.0
 11
334.25187991425349
 21
87.20781237838446
 31
0.0
  0
POLYLINE
  5
B896
  8
0
 66
     1
 10
0.0
 20
0.0
 30
0.0
 70
     2
  0
VERTEX
  5
B897
  8
0
 10
268.51279780114419
 20
76.625172542611494
 30
0.0
 42
0.026198407464847
  0
VERTEX
  5
B898
  8
0
 10
268.56560890181117
 20
76.062023214729024
 30
0.0
 42
0.0261984074649156
 70
     1
  0
VERTEX
  5
B899
  8
0
 10
268.67702350836862
 20
75.507484700922191
 30
0.0
 42
0.0231320519554417
  0
VERTEX
  5
B89A
  8
0
 10
268.82316112252738
 20
75.029847268199433
 30
0.0
 42
0.0231320519553766
 70
     1
  0
VERTEX
  5
B89B
  8
0
 10
269.01279788310097
 20
74.567752452769014
 30
0.0
  0
SEQEND
  5
B89C
  8
0
  0
POLYLINE
  5
B89D
  8
0
 66
     1
 10
0.0
 20
0.0
 30
0.0
 70
     2
  0
VERTEX
  5
B89E
  8
0
 10
268.51279780114328
 20
97.790452214157881
 30
0.0
 42
-0.026198407464847
  0
VERTEX
  5
B89F
  8
0
 10
268.56560890180981
 20
98.353601542040096
 30
0.0
 42
-0.0261984074649156
 70
     1
  0
VERTEX
  5
B8A0
  8
0
 10
268.67702350836731
 20
98.908140055847184
 30
0.0
 42
-0.0231320519554417
  0
VERTEX
  5
B8A1
  8
0
 10
268.82316112252602
 20
99.385777488569715
 30
0.0
 42
-0.0231320519553766
 70
     1
  0
VERTEX
  5
B8A2
  8
0
 10
269.01279788309972
 20
99.847872304000376
 30
0.0
  0
SEQEND
  5
B8A3
  8
0
  0
LINE
  5
B8A4
  8
0
 10
252.5127979725066
 20
78.362512896038879
 30
0.0
 11
252.5127979725066
 21
96.053111860730041
 31
0.0
  0
POLYLINE
  5
B8A7
  8
0
 66
     1
 10
0.0
 20
0.0
 30
0.0
  0
VERTEX
  5
10AE0
  8
0
 10
293.51279724234968
 20
73.71939116177748
 30
0.0
  0
VERTEX
  5
10AE1
  8
0
 10
294.31793466561749
 20
73.705034910202244
 30
0.0
  0
VERTEX
  5
10AE2
  8
0
 10
295.23102386745308
 20
73.634827895150806
 30
0.0
  0
VERTEX
  5
10AE3
  8
0
 10
295.98022457255371
 20
73.506115034222489
 30
0.0
  0
VERTEX
  5
10AE4
  8
0
 10
296.65918735048348
 20
73.365701004118705
 30
0.0
  0
VERTEX
  5
10AE5
  8
0
 10
297.21900474125778
 20
73.207811946250899
 30
0.0
  0
SEQEND
  5
10AE6
  8
0
  0
POLYLINE
  5
B8A8
  8
0
 66
     1
 10
0.0
 20
0.0
 30
0.0
  0
VERTEX
  5
10AE7
  8
0
 10
274.51279773688202
 20
73.71939116177748
 30
0.0
  0
VERTEX
  5
10AE8
  8
0
 10
273.70766031361381
 20
73.705034910202244
 30
0.0
  0
VERTEX
  5
10AE9
  8
0
 10
272.79457111177823
 20
73.634827895150806
 30
0.0
  0
VERTEX
  5
10AEA
  8
0
 10
272.04537040667759
 20
73.506115034222489
 30
0.0
  0
VERTEX
  5
10AEB
  8
0
 10
271.36640762874782
 20
73.365701004118705
 30
0.0
  0
VERTEX
  5
10AEC
  8
0
 10
270.80659023797398
 20
73.207811946250899
 30
0.0
  0
SEQEND
  5
10AED
  8
0
  0
POLYLINE
  5
B8A9
  8
0
 66
     1
 10
0.0
 20
0.0
 30
0.0
  0
VERTEX
  5
10AEE
  8
0
 10
274.51279773688202
 20
100.6962335949915
 30
0.0
  0
VERTEX
  5
10AEF
  8
0
 10
273.70766031361381
 20
100.71058984656671
 30
0.0
  0
VERTEX
  5
10AF0
  8
0
 10
272.79457111177823
 20
100.7807968616181
 30
0.0
  0
VERTEX
  5
10AF1
  8
0
 10
272.04537040667759
 20
100.9095097225464
 30
0.0
  0
VERTEX
  5
10AF2
  8
0
 10
271.36640762874782
 20
101.0499237526502
 30
0.0
  0
VERTEX
  5
10AF3
  8
0
 10
270.80659023797398
 20
101.20781281051811
 30
0.0
  0
SEQEND
  5
10AF4
  8
0
  0
POLYLINE
  5
B8AA
  8
0
 66
     1
 10
0.0
 20
0.0
 30
0.0
  0
VERTEX
  5
10AF5
  8
0
 10
293.51279724234968
 20
100.6962335949915
 30
0.0
  0
VERTEX
  5
10AF6
  8
0
 10
294.31793466561749
 20
100.71058984656671
 30
0.0
  0
VERTEX
  5
10AF7
  8
0
 10
295.23102386745308
 20
100.7807968616181
 30
0.0
  0
VERTEX
  5
10AF8
  8
0
 10
295.98022457255371
 20
100.9095097225464
 30
0.0
  0
VERTEX
  5
10AF9
  8
0
 10
296.65918735048348
 20
101.0499237526502
 30
0.0
  0
VERTEX
  5
10AFA
  8
0
 10
297.21900474125778
 20
101.20781281051811
 30
0.0
  0
SEQEND
  5
10AFB
  8
0
  0
LINE
  5
B8AD
  8
0
 10
313.51279682379032
 20
99.847872304000376
 30
0.0
 11
308.51279783839618
 21
99.847872304000376
 31
0.0
  0
LINE
  5
B8AE
  8
0
 10
308.51279783839618
 20
74.567752452768786
 30
0.0
 11
313.5127976609088
 21
74.567752452768786
 31
0.0
  0
LINE
  5
B8AF
  8
0
 10
268.51279780114328
 20
90.999354170836895
 30
0.0
 11
288.51400062287479
 21
90.999354170836895
 31
0.0
  0
LINE
  5
B8B0
  8
0
 10
288.51400062287479
 20
83.416270585932224
 30
0.0
 11
268.51279780114328
 21
83.416270585932224
 31
0.0
  0
LINE
  5
B8B1
  8
0
 10
268.51279780114328
 20
95.983917387403935
 30
0.0
 11
313.51279695174031
 21
95.983917387403935
 31
0.0
  0
LINE
  5
B8B2
  8
0
 10
313.5127975329587
 20
78.431707369365199
 30
0.0
 11
268.51279780114328
 21
78.431707369365199
 31
0.0
  0
ARC
  5
B8B3
  8
0
 10
288.98154748450452
 20
90.748334021921778
 30
0.0
 40
0.4701369860799323
 50
86.188746074501864
 51
175.59802193366491
  0
LINE
  5
B8B4
  8
0
 10
313.5127971095763
 20
91.217431267924994
 30
0.0
 11
289.01279743606477
 21
91.217431267924994
 31
0.0
  0
LINE
  5
B8B5
  8
0
 10
288.51279735410839
 20
87.753329687022074
 30
0.0
 11
289.95563287613999
 21
87.753329687022074
 31
0.0
  0
LINE
  5
B8B6
  8
0
 10
313.51279726041372
 20
86.662295069747074
 30
0.0
 11
306.05250702399007
 21
86.662295069747074
 31
0.0
  0
LINE
  5
B8B7
  8
0
 10
289.01279743606477
 20
83.198193488844126
 30
0.0
 11
313.51279737512277
 21
83.198193488844126
 31
0.0
  0
ARC
  5
B8B8
  8
0
 10
288.98154748450452
 20
83.66729073484737
 30
0.0
 40
0.470136986079989
 50
184.40197806633509
 51
273.81125392549819
  0
LINE
  5
B8B9
  8
0
 10
300.51279838973909
 20
99.847872304000376
 30
0.0
 11
269.01279788309972
 21
99.847872304000376
 31
0.0
  0
LINE
  5
B8BA
  8
0
 10
269.01279788309972
 20
74.567752452768786
 30
0.0
 11
300.51279838973909
 21
74.567752452768786
 31
0.0
  0
LINE
  5
B8BB
  8
0
 10
268.51279780114328
 20
92.815743321754425
 30
0.0
 11
260.51279742116373
 21
92.815743321754425
 31
0.0
  0
LINE
  5
B8BC
  8
0
 10
268.51279780114328
 20
81.599881435014694
 30
0.0
 11
260.51279742116373
 21
81.599881435014694
 31
0.0
  0
LINE
  5
B8BE
  8
0
 10
313.51279768938463
 20
73.707812378384347
 30
0.0
 11
313.5127967953149
 21
100.70781272856171
 31
0.0
  0
LINE
  5
B8C0
  8
0
 10
274.51279773688202
 20
100.6962335949915
 30
0.0
 11
293.51279724234968
 21
100.6962335949915
 31
0.0
  0
LINE
  5
B8C1
  8
0
 10
261.51279758507638
 20
100.2929848900218
 30
0.0
 11
261.51279758507638
 21
101.20781281051811
 31
0.0
  0
LINE
  5
B8C2
  8
0
 10
313.5127967953149
 20
73.707812028207172
 30
0.0
 11
313.5127967953149
 21
74.58996822146355
 31
0.0
  0
LINE
  5
B8C5
  8
0
 10
274.51279773688202
 20
73.719391161777367
 30
0.0
 11
293.51279724234968
 21
73.719391161777367
 31
0.0
  0
LINE
  5
B8C6
  8
0
 10
261.51279758507638
 20
73.207811946250786
 30
0.0
 11
261.51279758507638
 21
74.122639866747249
 31
0.0
  0
LINE
  5
B8C7
  8
0
 10
259.5127972572509
 20
96.707812072910656
 30
0.0
 11
259.5127972572509
 21
77.707812683858265
 31
0.0
  0
LINE
  5
B8C8
  8
0
 10
259.01279810661708
 20
97.207812154867042
 30
0.0
 11
259.01279810661708
 21
77.207812601901878
 31
0.0
  0
LINE
  5
B8CB
  8
0
 10
288.51279735410839
 20
90.968743926115735
 30
0.0
 11
288.51279735410839
 21
83.416270585932224
 31
0.0
  0
LINE
  5
B8CC
  8
0
 10
288.51400062287479
 20
90.999354170836895
 30
0.0
 11
288.51279735410839
 21
90.968743926115735
 31
0.0
  0
LINE
  5
B8CD
  8
0
 10
313.5127967953149
 20
83.631206099145516
 30
0.0
 11
313.5127967953149
 21
86.662295069747074
 31
0.0
  0
LINE
  5
B8CE
  8
0
 10
261.51279758507638
 20
92.815743321754425
 30
0.0
 11
261.51279758507638
 21
100.2929848900218
 31
0.0
  0
LINE
  5
B8CF
  8
0
 10
268.51279780114328
 20
76.625172542609675
 30
0.0
 11
268.51279780114328
 21
97.790452214159245
 31
0.0
  0
LINE
  5
B8D0
  8
0
 10
260.51279742116373
 20
100.2078126466053
 30
0.0
 11
260.51279742116373
 21
74.207812110163559
 31
0.0
  0
LINE
  5
B8D1
  8
0
 10
261.51279758507638
 20
74.122639866747249
 30
0.0
 11
261.51279758507638
 21
81.599881435014694
 31
0.0
  0
LINE
  5
B8D2
  8
0
 10
261.51279758507638
 20
81.599881435014694
 30
0.0
 11
261.51279758507638
 21
92.815743321754425
 31
0.0
  0
LINE
  5
B8DE
  8
0
 10
308.51279783839618
 20
101.20781281051811
 30
0.0
 11
313.01279950732618
 21
101.20781281051811
 31
0.0
  0
ARC
  5
B8DF
  8
0
 10
313.01279768938463
 20
100.7078123783844
 30
0.0
 40
0.5
 50
0.0
 51
90.0
  0
LINE
  5
B8E0
  8
0
 10
261.51279758507638
 20
101.20781281051811
 30
0.0
 11
270.80659151854252
 21
101.20781281051811
 31
0.0
  0
LINE
  5
B8E1
  8
0
 10
297.21900474125778
 20
101.20781281051811
 30
0.0
 11
300.51279838973909
 21
101.20781281051811
 31
0.0
  0
LINE
  5
B8E2
  8
0
 10
260.51279742116373
 20
100.2078126466053
 30
0.0
 11
261.51279758507638
 21
101.20781281051811
 31
0.0
  0
ARC
  5
B8E3
  8
0
 10
313.01279768938463
 20
73.707812378384347
 30
0.0
 40
0.5
 50
270.0
 51
0.0
  0
LINE
  5
B8E4
  8
0
 10
313.01279950732618
 20
73.207811946250786
 30
0.0
 11
308.51279783839618
 21
73.207811946250786
 31
0.0
  0
LINE
  5
B8E5
  8
0
 10
300.51279838973909
 20
73.207811946250786
 30
0.0
 11
297.21900474125778
 21
73.207811946250786
 31
0.0
  0
LINE
  5
B8E6
  8
0
 10
270.80659151854252
 20
73.207811946250786
 30
0.0
 11
261.51279758507638
 21
73.207811946250786
 31
0.0
  0
LINE
  5
B8E7
  8
0
 10
261.51279758507638
 20
73.207811946250786
 30
0.0
 11
260.51279742116373
 21
74.207812110163559
 31
0.0
  0
LINE
  5
B8E8
  8
0
 10
260.41279759103691
 20
77.707812683858265
 30
0.0
 11
259.5127972572509
 21
77.707812683858265
 31
0.0
  0
LINE
  5
B8E9
  8
0
 10
259.5127972572509
 20
96.707812072910656
 30
0.0
 11
260.41279759103691
 21
96.707812072910656
 31
0.0
  0
LINE
  5
B8EA
  8
0
 10
259.5127972572509
 20
77.707812683858265
 30
0.0
 11
259.01279810661708
 21
77.207812601901878
 31
0.0
  0
LINE
  5
B8EB
  8
0
 10
259.01279810661708
 20
97.207812154867042
 30
0.0
 11
259.5127972572509
 21
96.707812072910656
 31
0.0
  0
LINE
  5
B8EC
  8
0
 10
254.51279830033221
 20
97.207812154867042
 30
0.0
 11
259.01279810661708
 21
97.207812154867042
 31
0.0
  0
LINE
  5
B8ED
  8
0
 10
259.01279810661708
 20
77.207812601901878
 30
0.0
 11
254.51279830033221
 21
77.207812601901878
 31
0.0
  0
LINE
  5
B8EE
  8
0
 10
252.5127979725066
 20
96.053111860730041
 30
0.0
 11
254.51279830033221
 21
97.207812154867042
 31
0.0
  0
LINE
  5
B8EF
  8
0
 10
254.51279830033221
 20
77.207812601901878
 30
0.0
 11
252.5127979725066
 21
78.362512896038879
 31
0.0
  0
LINE
  5
B8F0
  8
0
 10
260.51279742116373
 20
77.699420536138405
 30
0.0
 11
260.41279759103691
 21
77.707812683858265
 31
0.0
  0
LINE
  5
B8F1
  8
0
 10
260.41279759103691
 20
96.707812072910656
 30
0.0
 11
260.51279742116373
 21
96.716204220630516
 31
0.0
  0
LINE
  5
B8F5
  8
0
 10
314.91279760660058
 20
98.207812493868332
 30
0.0
 11
313.51279724234968
 21
98.207812493868346
 31
0.0
  0
LINE
  5
B8F6
  8
0
 10
313.51279724234968
 20
76.207812613077635
 30
0.0
 11
314.91279760660058
 21
76.207812613077635
 31
0.0
  0
LINE
  5
B8F7
  8
0
 10
313.6127989351217
 20
85.207812458478188
 30
0.0
 11
313.6127989351217
 21
89.207812648468007
 31
0.0
  0
LINE
  5
B8F8
  8
0
 10
313.6127989351217
 20
89.207812648468007
 30
0.0
 11
313.51279724234968
 21
89.207812648468007
 31
0.0
  0
LINE
  5
B8F9
  8
0
 10
313.51279724234968
 20
85.207812458478188
 30
0.0
 11
313.6127989351217
 21
85.207812458478188
 31
0.0
  0
CIRCLE
  5
B907
  8
0
 10
291.51279804013762
 20
87.2078123625638
 30
0.0
 40
1.6499553021981519
  0
LINE
  5
B908
  8
0
 10
292.11627762610351
 20
86.223360062778283
 30
0.0
 11
292.66709904963409
 21
87.238214317896109
 31
0.0
  0
LINE
  5
B909
  8
0
 10
290.9619759380285
 20
86.192958085067858
 30
0.0
 11
292.11627762610351
 21
86.223360062778283
 31
0.0
  0
LINE
  5
B90A
  8
0
 10
290.35849753612911
 20
87.177410438872812
 30
0.0
 11
290.9619759380285
 21
86.192958085067858
 31
0.0
  0
LINE
  5
B90B
  8
0
 10
290.90931895965969
 20
88.192264693990637
 30
0.0
 11
290.35849753612911
 21
87.177410438872812
 31
0.0
  0
LINE
  5
B90C
  8
0
 10
292.0636187850896
 20
88.222666671701063
 30
0.0
 11
290.90931895965969
 21
88.192264693990637
 31
0.0
  0
LINE
  5
B90D
  8
0
 10
292.66709904963409
 20
87.238214317896109
 30
0.0
 11
292.0636187850896
 21
88.222666671701063
 31
0.0
  0
CIRCLE
  5
B90E
  8
0
 10
303.61279813641931
 20
87.207812378384574
 30
0.0
 40
2.4999537175942739
  0
CIRCLE
  5
B90F
  8
0
 10
303.61279813641931
 20
87.207812378384574
 30
0.0
 40
2.2999999999999998
  0
LINE
  5
B910
  8
0
 10
306.05250702399007
 20
87.753329687022074
 30
0.0
 11
313.51279722428529
 21
87.753329687022074
 31
0.0
  0
LINE
  5
B911
  8
0
 10
301.17308924884901
 20
86.662295069747074
 30
0.0
 11
293.06996321522001
 21
86.662295069746961
 31
0.0
  0
LINE
  5
B912
  8
0
 10
293.06996320413509
 20
87.753329687022074
 30
0.0
 11
301.17308924884901
 21
87.753329687022074
 31
0.0
  0
LINE
  5
B913
  8
0
 10
289.95563286505512
 20
86.662295069746961
 30
0.0
 11
288.51279735410839
 21
86.662295069747074
 31
0.0
  0
LINE
  5
BA40
  8
0
 10
314.91279760660058
 20
228.0926749050719
 30
0.0
 11
313.51279696135629
 21
228.0926749050719
 31
0.0
  0
LINE
  5
BA41
  8
0
 10
313.51279696135629
 20
250.09267478586261
 30
0.0
 11
314.91279760660058
 21
250.0926747858627
 31
0.0
  0
LINE
  5
BB9A
  8
0
 10
307.51279953712861
 20
237.5945414350258
 30
0.0
 11
306.01279649729167
 21
237.5945414350258
 31
0.0
  0
LINE
  5
BB9B
  8
0
 10
306.01279649729167
 20
245.35952070065611
 30
0.0
 11
306.01279649729167
 21
237.5945414350258
 31
0.0
  0
LINE
  5
BB9C
  8
0
 10
306.01279649729167
 20
245.35952070065611
 30
0.0
 11
303.0127978681985
 21
245.35952070065611
 31
0.0
  0
LINE
  5
BB9D
  8
0
 10
303.0127978681985
 20
245.35952070065611
 30
0.0
 11
303.0127978681985
 21
237.5945414350258
 31
0.0
  0
LINE
  5
BB9E
  8
0
 10
303.0127978681985
 20
237.5945414350258
 30
0.0
 11
301.51279855365192
 21
237.5945414350258
 31
0.0
  0
LINE
  5
BB9F
  8
0
 10
308.2627973317567
 20
246.29486410775061
 30
0.0
 11
300.76279703373348
 21
246.29486410775061
 31
0.0
  0
LINE
  5
BBA0
  8
0
 10
308.2627973317567
 20
231.8904834137189
 30
0.0
 11
308.2627973317567
 21
246.29486410775061
 31
0.0
  0
LINE
  5
BBA1
  8
0
 10
308.2627973317567
 20
231.8904834137189
 30
0.0
 11
300.76279703373348
 21
231.8904834137189
 31
0.0
  0
LINE
  5
BBA2
  8
0
 10
300.76279703373348
 20
231.8904834137189
 30
0.0
 11
300.76279703373348
 21
246.29486410775061
 31
0.0
  0
LINE
  5
BBA3
  8
0
 10
303.0127978681985
 20
237.59562549450271
 30
0.0
 11
301.51279855365192
 21
237.59562549450271
 31
0.0
  0
LINE
  5
BBA4
  8
0
 10
307.51279953712861
 20
237.59562549450271
 30
0.0
 11
306.01279649729167
 21
237.59562549450271
 31
0.0
  0
LINE
  5
BBA5
  8
0
 10
301.51279855365192
 20
237.5945414350258
 30
0.0
 11
301.51279855365192
 21
237.59562549450271
 31
0.0
  0
LINE
  5
BBA6
  8
0
 10
307.51279953712861
 20
237.5945414350258
 30
0.0
 11
307.51279953712861
 21
237.59562549450271
 31
0.0
  0
LINE
  5
BC0F
  8
0
 10
301.01279754037301
 20
230.9582034394968
 30
0.0
 11
308.01279682511722
 21
230.9582034394968
 31
0.0
  0
LINE
  5
BC10
  8
0
 10
300.51279652709349
 20
246.80365494348911
 30
0.0
 11
300.51279838973909
 21
231.3816916466582
 31
0.0
  0
LINE
  5
BC11
  8
0
 10
308.51279783839618
 20
246.80365494348911
 30
0.0
 11
308.51279783839618
 21
231.3816916466582
 31
0.0
  0
LINE
  5
BC13
  8
0
 10
301.01279754037301
 20
247.2271440819728
 30
0.0
 11
308.01279682511722
 21
247.2271440819728
 31
0.0
  0
LINE
  5
BC64
  8
0
 10
300.76279703373348
 20
355.83426373287261
 30
0.0
 11
303.0127978681985
 21
355.83426373287261
 31
0.0
  0
LINE
  5
BC65
  8
0
 10
303.0127978681985
 20
383.83426459714002
 30
0.0
 11
300.76279703373348
 21
383.83426459714002
 31
0.0
  0
LINE
  5
BC66
  8
0
 10
308.2627973317567
 20
383.83426459714002
 30
0.0
 11
306.01279649729167
 21
383.83426459714002
 31
0.0
  0
LINE
  5
BC67
  8
0
 10
306.01279649729167
 20
355.82426412238891
 30
0.0
 11
303.0127978681985
 21
355.82426412238891
 31
0.0
  0
LINE
  5
BC8D
  8
0
 10
308.51279783839618
 20
383.5342641754371
 30
0.0
 11
308.2627973317567
 21
383.5342641754371
 31
0.0
  0
LINE
  5
BC8E
  8
0
 10
300.76279703373348
 20
383.5342641754371
 30
0.0
 11
300.51279838973909
 21
383.5342641754371
 31
0.0
  0
LINE
  5
BC8F
  8
0
 10
300.51279838973909
 20
356.13426415457548
 30
0.0
 11
300.76279703373348
 21
356.13426415457548
 31
0.0
  0
LINE
  5
BC90
  8
0
 10
308.2627973317567
 20
356.13426415457548
 30
0.0
 11
308.51279783839618
 21
356.13426415457548
 31
0.0
  0
LINE
  5
BC91
  8
0
 10
308.2627973317567
 20
355.83426373287261
 30
0.0
 11
308.2627973317567
 21
357.94805398418708
 31
0.0
  0
LINE
  5
BC92
  8
0
 10
300.76279703373348
 20
355.83426373287261
 30
0.0
 11
300.76279703373348
 21
357.94805398418708
 31
0.0
  0
LINE
  5
BC93
  8
0
 10
308.2627973317567
 20
357.94805398418708
 30
0.0
 11
300.76279703373348
 21
357.94805398418708
 31
0.0
  0
LINE
  5
BC94
  8
0
 10
307.51279953712861
 20
383.76276323779632
 30
0.0
 11
306.01279649729167
 21
383.76276323779632
 31
0.0
  0
LINE
  5
BC95
  8
0
 10
306.01279649729167
 20
383.8442642076235
 30
0.0
 11
306.01279649729167
 21
383.76276323779632
 31
0.0
  0
LINE
  5
BC96
  8
0
 10
303.0127978681985
 20
383.8442642076235
 30
0.0
 11
303.0127978681985
 21
383.76276323779632
 31
0.0
  0
LINE
  5
BC97
  8
0
 10
303.0127978681985
 20
383.76276323779632
 30
0.0
 11
301.51279855365192
 21
383.76276323779632
 31
0.0
  0
LINE
  5
BC98
  8
0
 10
300.76279703373348
 20
381.80577511175682
 30
0.0
 11
300.76279703373348
 21
383.83426459714002
 31
0.0
  0
LINE
  5
BC99
  8
0
 10
306.01279649729167
 20
357.33696853949851
 30
0.0
 11
303.0127978681985
 21
357.33696853949851
 31
0.0
  0
LINE
  5
BC9A
  8
0
 10
308.2627973317567
 20
381.72047434582521
 30
0.0
 11
308.2627973317567
 21
383.83426459714002
 31
0.0
  0
LINE
  5
BC9B
  8
0
 10
308.2627973317567
 20
381.72047434582521
 30
0.0
 11
300.76279703373348
 21
381.72047434582521
 31
0.0
  0
LINE
  5
BC9C
  8
0
 10
300.76279703373348
 20
381.80577511175682
 30
0.0
 11
300.76279703373348
 21
381.72047434582521
 31
0.0
  0
LINE
  5
BC9D
  8
0
 10
306.01279649729167
 20
357.32805764510459
 30
0.0
 11
306.01279649729167
 21
355.82426412238891
 31
0.0
  0
LINE
  5
BC9E
  8
0
 10
303.0127978681985
 20
357.32805764510459
 30
0.0
 11
303.0127978681985
 21
355.82426412238891
 31
0.0
  0
LINE
  5
BC9F
  8
0
 10
306.01279649729167
 20
357.32805764510459
 30
0.0
 11
306.01279649729167
 21
357.33696853949851
 31
0.0
  0
LINE
  5
BCA0
  8
0
 10
303.0127978681985
 20
357.32805764510459
 30
0.0
 11
303.0127978681985
 21
357.33696853949851
 31
0.0
  0
LINE
  5
BCB3
  8
0
 10
301.01279754037301
 20
381.45149162246992
 30
0.0
 11
308.01279682511722
 21
381.45149162246992
 31
0.0
  0
LINE
  5
BCB4
  8
0
 10
301.01279754037301
 20
358.21703670754238
 30
0.0
 11
308.01279682511722
 21
358.21703670754238
 31
0.0
  0
LINE
  5
BCB8
  8
0
 10
300.5157507070885
 20
381.69502740641349
 30
0.0
 11
300.51279838973909
 21
383.83426459714002
 31
0.0
  0
LINE
  5
BCB9
  8
0
 10
308.51279783839618
 20
381.71841053500083
 30
0.0
 11
308.51279783839618
 21
383.83426459714002
 31
0.0
  0
LINE
  5
BCBC
  8
0
 10
300.512796527094
 20
357.95011779501249
 30
0.0
 11
300.51279838973909
 21
355.83426373287261
 31
0.0
  0
LINE
  5
BCBE
  8
0
 10
308.51279783839618
 20
357.95011779501249
 30
0.0
 11
308.51279783839618
 21
355.83426373287261
 31
0.0
  0
LINE
  5
BD12
  8
0
 10
304.51279718274509
 20
232.82582712628709
 30
0.0
 11
301.51279855365192
 21
237.5945414350258
 31
0.0
  0
LINE
  5
BD13
  8
0
 10
304.51279718274509
 20
232.82582712628709
 30
0.0
 11
307.51279953712861
 21
237.5945414350258
 31
0.0
  0
ARC
  5
BDF1
  8
0
 10
308.04823163169522
 20
246.76206818095309
 30
0.0
 40
0.4664238621966723
 50
5.1153350465459599
 51
94.357030395530217
  0
ARC
  5
BDF2
  8
0
 10
300.97736273379451
 20
246.76206818095309
 30
0.0
 40
0.4664238621966723
 50
85.642969604456724
 51
174.88466495345401
  0
ARC
  5
BDF3
  8
0
 10
308.04823163169522
 20
231.42327902759189
 30
0.0
 40
0.4664238621966723
 50
265.64296960445671
 51
354.88466495345398
  0
ARC
  5
BDF4
  8
0
 10
300.97736273379451
 20
231.42327902759189
 30
0.0
 40
0.4664238621966723
 50
185.11533504654591
 51
274.35703039554329
  0
POLYLINE
  5
BDFA
  8
0
 66
     1
 10
0.0
 20
0.0
 30
0.0
  0
VERTEX
  5
10AFC
  8
0
 10
304.51279718274509
 20
382.34047068490798
 30
0.0
  0
VERTEX
  5
10AFD
  8
0
 10
304.85967432856609
 20
382.57870766566651
 30
0.0
  0
VERTEX
  5
10AFE
  8
0
 10
305.19500139452339
 20
382.80145889884892
 30
0.0
  0
VERTEX
  5
10AFF
  8
0
 10
305.47507360783487
 20
382.9808783839934
 30
0.0
  0
VERTEX
  5
10B00
  8
0
 10
305.93023557194829
 20
383.22807640076002
 30
0.0
  0
VERTEX
  5
10B01
  8
0
 10
306.28187401588548
 20
383.38592496374741
 30
0.0
  0
VERTEX
  5
10B02
  8
0
 10
306.75897115790298
 20
383.55488659080157
 30
0.0
  0
VERTEX
  5
10B03
  8
0
 10
307.16849284687117
 20
383.67278462239688
 30
0.0
  0
VERTEX
  5
10B04
  8
0
 10
307.51279953712861
 20
383.76276323779638
 30
0.0
  0
SEQEND
  5
10B05
  8
0
  0
POLYLINE
  5
BDFB
  8
0
 66
     1
 10
0.0
 20
0.0
 30
0.0
  0
VERTEX
  5
10B06
  8
0
 10
304.51279718274509
 20
382.34047068490798
 30
0.0
  0
VERTEX
  5
10B07
  8
0
 10
304.16592003692398
 20
382.57870766566651
 30
0.0
  0
VERTEX
  5
10B08
  8
0
 10
303.83059297096628
 20
382.80145889884892
 30
0.0
  0
VERTEX
  5
10B09
  8
0
 10
303.55052075765519
 20
382.98087838399351
 30
0.0
  0
VERTEX
  5
10B0A
  8
0
 10
303.09535879354189
 20
383.22807640076007
 30
0.0
  0
VERTEX
  5
10B0B
  8
0
 10
302.7437203496043
 20
383.38592496374753
 30
0.0
  0
VERTEX
  5
10B0C
  8
0
 10
302.26662320758709
 20
383.5548865908018
 30
0.0
  0
VERTEX
  5
10B0D
  8
0
 10
301.857101518619
 20
383.6727846223971
 30
0.0
  0
VERTEX
  5
10B0E
  8
0
 10
301.51279482836162
 20
383.76276323779672
 30
0.0
  0
SEQEND
  5
10B0F
  8
0
  0
POLYLINE
  5
BDFC
  8
0
 66
     1
 10
0.0
 20
0.0
 30
0.0
  0
VERTEX
  5
10B10
  8
0
 10
308.01279682511722
 20
358.21703670754238
 30
0.0
  0
VERTEX
  5
10B11
  8
0
 10
308.13526818143959
 20
358.20810508830982
 30
0.0
  0
VERTEX
  5
10B12
  8
0
 10
308.23363671233261
 20
358.19171699416262
 30
0.0
  0
VERTEX
  5
10B13
  8
0
 10
308.3174354083576
 20
358.16076230311592
 30
0.0
  0
VERTEX
  5
10B14
  8
0
 10
308.3830131451532
 20
358.12434581086791
 30
0.0
  0
VERTEX
  5
10B15
  8
0
 10
308.45041644412959
 20
358.08064332962749
 30
0.0
  0
VERTEX
  5
10B16
  8
0
 10
308.48502894900957
 20
358.03694353892939
 30
0.0
  0
VERTEX
  5
10B17
  8
0
 10
308.50688947840717
 20
357.99688405218512
 30
0.0
  0
VERTEX
  5
10B18
  8
0
 10
308.51279783839618
 20
357.95011779501249
 30
0.0
  0
SEQEND
  5
10B19
  8
0
  0
POLYLINE
  5
BDFD
  8
0
 66
     1
 10
0.0
 20
0.0
 30
0.0
  0
VERTEX
  5
10B1A
  8
0
 10
301.01279754037301
 20
358.21703670754238
 30
0.0
  0
VERTEX
  5
10B1B
  8
0
 10
300.89032618405048
 20
358.20810508830982
 30
0.0
  0
VERTEX
  5
10B1C
  8
0
 10
300.79195765315762
 20
358.19171699416262
 30
0.0
  0
VERTEX
  5
10B1D
  8
0
 10
300.70815895713258
 20
358.16076230311592
 30
0.0
  0
VERTEX
  5
10B1E
  8
0
 10
300.64258122033698
 20
358.12434581086791
 30
0.0
  0
VERTEX
  5
10B1F
  8
0
 10
300.57517792136059
 20
358.08064332962749
 30
0.0
  0
VERTEX
  5
10B20
  8
0
 10
300.5405654164806
 20
358.03694353892939
 30
0.0
  0
VERTEX
  5
10B21
  8
0
 10
300.518704887083
 20
357.99688405218512
 30
0.0
  0
VERTEX
  5
10B22
  8
0
 10
300.512796527094
 20
357.95011779501249
 30
0.0
  0
SEQEND
  5
10B23
  8
0
  0
POLYLINE
  5
BE02
  8
0
 66
     1
 10
0.0
 20
0.0
 30
0.0
  0
VERTEX
  5
10B24
  8
0
 10
308.01279682511722
 20
381.45149162247071
 30
0.0
  0
VERTEX
  5
10B25
  8
0
 10
308.13526818143959
 20
381.46042324170332
 30
0.0
  0
VERTEX
  5
10B26
  8
0
 10
308.23363671233261
 20
381.47681133585058
 30
0.0
  0
VERTEX
  5
10B27
  8
0
 10
308.3174354083576
 20
381.50776602689717
 30
0.0
  0
VERTEX
  5
10B28
  8
0
 10
308.3830131451532
 20
381.54418251914518
 30
0.0
  0
VERTEX
  5
10B29
  8
0
 10
308.45041644412959
 20
381.58788500038582
 30
0.0
  0
VERTEX
  5
10B2A
  8
0
 10
308.48502894900957
 20
381.63158479108392
 30
0.0
  0
VERTEX
  5
10B2B
  8
0
 10
308.50688947840717
 20
381.67164427782819
 30
0.0
  0
VERTEX
  5
10B2C
  8
0
 10
308.51279783839618
 20
381.71841053500083
 30
0.0
  0
SEQEND
  5
10B2D
  8
0
  0
POLYLINE
  5
BE03
  8
0
 66
     1
 10
0.0
 20
0.0
 30
0.0
  0
VERTEX
  5
10B2E
  8
0
 10
301.01279754037301
 20
381.45149162246992
 30
0.0
  0
VERTEX
  5
10B2F
  8
0
 10
300.89032618405048
 20
381.46042324170247
 30
0.0
  0
VERTEX
  5
10B30
  8
0
 10
300.79195765315762
 20
381.47681133584979
 30
0.0
  0
VERTEX
  5
10B31
  8
0
 10
300.70815895713258
 20
381.50776602689638
 30
0.0
  0
VERTEX
  5
10B32
  8
0
 10
300.64258122033698
 20
381.54418251914439
 30
0.0
  0
VERTEX
  5
10B33
  8
0
 10
300.57517792136059
 20
381.58788500038492
 30
0.0
  0
VERTEX
  5
10B34
  8
0
 10
300.5405654164806
 20
381.63158479108301
 30
0.0
  0
VERTEX
  5
10B35
  8
0
 10
300.518704887083
 20
381.67164427782723
 30
0.0
  0
VERTEX
  5
10B36
  8
0
 10
300.512796527094
 20
381.71841053499992
 30
0.0
  0
SEQEND
  5
10B37
  8
0
  0
LINE
  5
BE41
  8
0
 10
303.0127978681985
 20
383.8442642076235
 30
0.0
 11
306.01279649729167
 21
383.8442642076235
 31
0.0
  0
LINE
  5
BE42
  8
0
 10
306.01279649729167
 20
355.83426373287261
 30
0.0
 11
308.2627973317567
 21
355.83426373287261
 31
0.0
  0
LINE
  5
BE52
  8
0
 10
306.01279649729167
 20
101.20781281051801
 30
0.0
 11
308.2627973317567
 21
101.20781281051811
 31
0.0
  0
POLYLINE
  5
BE62
  8
0
 66
     1
 10
0.0
 20
0.0
 30
0.0
  0
VERTEX
  5
10B38
  8
0
 10
301.01279754037301
 20
75.590584920920776
 30
0.0
  0
VERTEX
  5
10B39
  8
0
 10
300.89032618405048
 20
75.581653301688164
 30
0.0
  0
VERTEX
  5
10B3A
  8
0
 10
300.79195765315762
 20
75.565265207540904
 30
0.0
  0
VERTEX
  5
10B3B
  8
0
 10
300.70815895713258
 20
75.534310516494244
 30
0.0
  0
VERTEX
  5
10B3C
  8
0
 10
300.64258122033698
 20
75.49789402424625
 30
0.0
  0
VERTEX
  5
10B3D
  8
0
 10
300.57517792136059
 20
75.454191543005891
 30
0.0
  0
VERTEX
  5
10B3E
  8
0
 10
300.5405654164806
 20
75.410491752307735
 30
0.0
  0
VERTEX
  5
10B3F
  8
0
 10
300.518704887083
 20
75.370432265563522
 30
0.0
  0
VERTEX
  5
10B40
  8
0
 10
300.512796527094
 20
75.323666008390887
 30
0.0
  0
SEQEND
  5
10B41
  8
0
  0
POLYLINE
  5
BE63
  8
0
 66
     1
 10
0.0
 20
0.0
 30
0.0
  0
VERTEX
  5
10B42
  8
0
 10
308.01279682511722
 20
75.59058492091998
 30
0.0
  0
VERTEX
  5
10B43
  8
0
 10
308.13526818143959
 20
75.581653301687368
 30
0.0
  0
VERTEX
  5
10B44
  8
0
 10
308.23363671233261
 20
75.565265207540108
 30
0.0
  0
VERTEX
  5
10B45
  8
0
 10
308.3174354083576
 20
75.534310516493463
 30
0.0
  0
VERTEX
  5
10B46
  8
0
 10
308.3830131451532
 20
75.497894024245454
 30
0.0
  0
VERTEX
  5
10B47
  8
0
 10
308.45041644412959
 20
75.454191543004981
 30
0.0
  0
VERTEX
  5
10B48
  8
0
 10
308.48502894900957
 20
75.410491752306825
 30
0.0
  0
VERTEX
  5
10B49
  8
0
 10
308.50688947840717
 20
75.370432265562613
 30
0.0
  0
VERTEX
  5
10B4A
  8
0
 10
308.51279783839618
 20
75.323666008389964
 30
0.0
  0
SEQEND
  5
10B4B
  8
0
  0
POLYLINE
  5
BE68
  8
0
 66
     1
 10
0.0
 20
0.0
 30
0.0
  0
VERTEX
  5
10B4C
  8
0
 10
301.01279754037301
 20
98.825039835848244
 30
0.0
  0
VERTEX
  5
10B4D
  8
0
 10
300.89032618405048
 20
98.833971455080871
 30
0.0
  0
VERTEX
  5
10B4E
  8
0
 10
300.79195765315762
 20
98.850359549228131
 30
0.0
  0
VERTEX
  5
10B4F
  8
0
 10
300.70815895713258
 20
98.881314240274776
 30
0.0
  0
VERTEX
  5
10B50
  8
0
 10
300.64258122033698
 20
98.917730732522784
 30
0.0
  0
VERTEX
  5
10B51
  8
0
 10
300.57517792136059
 20
98.961433213763215
 30
0.0
  0
VERTEX
  5
10B52
  8
0
 10
300.5405654164806
 20
99.005133004461356
 30
0.0
  0
VERTEX
  5
10B53
  8
0
 10
300.518704887083
 20
99.045192491205569
 30
0.0
  0
VERTEX
  5
10B54
  8
0
 10
300.512796527094
 20
99.091958748378204
 30
0.0
  0
SEQEND
  5
10B55
  8
0
  0
POLYLINE
  5
BE69
  8
0
 66
     1
 10
0.0
 20
0.0
 30
0.0
  0
VERTEX
  5
10B56
  8
0
 10
308.01279682511722
 20
98.825039835848244
 30
0.0
  0
VERTEX
  5
10B57
  8
0
 10
308.13526818143959
 20
98.833971455080871
 30
0.0
  0
VERTEX
  5
10B58
  8
0
 10
308.23363671233261
 20
98.850359549228131
 30
0.0
  0
VERTEX
  5
10B59
  8
0
 10
308.3174354083576
 20
98.881314240274776
 30
0.0
  0
VERTEX
  5
10B5A
  8
0
 10
308.3830131451532
 20
98.917730732522784
 30
0.0
  0
VERTEX
  5
10B5B
  8
0
 10
308.45041644412959
 20
98.961433213763215
 30
0.0
  0
VERTEX
  5
10B5C
  8
0
 10
308.48502894900957
 20
99.005133004461356
 30
0.0
  0
VERTEX
  5
10B5D
  8
0
 10
308.50688947840717
 20
99.045192491205569
 30
0.0
  0
VERTEX
  5
10B5E
  8
0
 10
308.51279783839618
 20
99.091958748378204
 30
0.0
  0
SEQEND
  5
10B5F
  8
0
  0
LINE
  5
BE7A
  8
0
 10
308.51279783839618
 20
99.091958748378204
 30
0.0
 11
308.51279783839618
 21
101.20781281051811
 31
0.0
  0
LINE
  5
BE7C
  8
0
 10
300.512796527094
 20
99.091958748378204
 30
0.0
 11
300.51279838973909
 21
101.20781281051811
 31
0.0
  0
LINE
  5
BE7F
  8
0
 10
308.51279783839618
 20
75.323666008389964
 30
0.0
 11
308.51279783839618
 21
73.207811946250786
 31
0.0
  0
LINE
  5
BE84
  8
0
 10
301.01279754037301
 20
98.825039835848244
 30
0.0
 11
308.01279682511722
 21
98.825039835848244
 31
0.0
  0
LINE
  5
BE85
  8
0
 10
301.01279754037301
 20
75.590584920920776
 30
0.0
 11
308.01279682511722
 21
75.590584920920776
 31
0.0
  0
LINE
  5
BE8B
  8
0
 10
300.76279703373348
 20
75.236301431633876
 30
0.0
 11
300.76279703373348
 21
75.321602197565483
 31
0.0
  0
LINE
  5
BE8C
  8
0
 10
308.2627973317567
 20
75.321602197565483
 30
0.0
 11
300.76279703373348
 21
75.321602197565483
 31
0.0
  0
LINE
  5
BE8D
  8
0
 10
308.2627973317567
 20
75.321602197565483
 30
0.0
 11
308.2627973317567
 21
73.207811946250786
 31
0.0
  0
LINE
  5
BE8E
  8
0
 10
300.76279703373348
 20
75.236301431633876
 30
0.0
 11
300.76279703373348
 21
73.207811946250786
 31
0.0
  0
LINE
  5
BE8F
  8
0
 10
308.2627973317567
 20
99.094022559203552
 30
0.0
 11
300.76279703373348
 21
99.094022559203552
 31
0.0
  0
LINE
  5
BE90
  8
0
 10
300.76279703373348
 20
101.20781281051811
 30
0.0
 11
300.76279703373348
 21
99.094022559203552
 31
0.0
  0
LINE
  5
BE91
  8
0
 10
308.2627973317567
 20
101.20781281051811
 30
0.0
 11
308.2627973317567
 21
99.094022559203552
 31
0.0
  0
LINE
  5
BE92
  8
0
 10
308.2627973317567
 20
100.9078123888152
 30
0.0
 11
308.51279783839618
 21
100.9078123888152
 31
0.0
  0
LINE
  5
BE93
  8
0
 10
300.51279838973909
 20
100.9078123888152
 30
0.0
 11
300.76279703373348
 21
100.9078123888152
 31
0.0
  0
LINE
  5
BE94
  8
0
 10
300.76279703373348
 20
73.507812367953647
 30
0.0
 11
300.51279838973909
 21
73.507812367953647
 31
0.0
  0
LINE
  5
BE95
  8
0
 10
308.51279783839618
 20
73.507812367953647
 30
0.0
 11
308.2627973317567
 21
73.507812367953647
 31
0.0
  0
LINE
  5
BEAA
  8
0
 10
308.2627973317567
 20
73.207811946250786
 30
0.0
 11
306.01279649729167
 21
73.207811946250786
 31
0.0
  0
LINE
  5
BEAB
  8
0
 10
303.0127978681985
 20
73.207811946250786
 30
0.0
 11
300.76279703373348
 21
73.207811946250786
 31
0.0
  0
LINE
  5
BEAC
  8
0
 10
300.76279703373348
 20
101.20781281051811
 30
0.0
 11
303.0127978681985
 21
101.20781281051801
 31
0.0
  0
LINE
  5
BF6D
  8
0
 10
307.51280929204268
 20
101.1363153031304
 30
0.0
 11
306.01280625220619
 21
101.136316353667
 31
0.0
  0
LINE
  5
BF6E
  8
0
 10
306.01280630928568
 20
101.2178173234942
 30
0.0
 11
306.01280625220619
 21
101.136316353667
 31
0.0
  0
LINE
  5
BF6F
  8
0
 10
303.01280768019342
 20
101.21781942456219
 30
0.0
 11
303.01280762311359
 21
101.1363184547351
 31
0.0
  0
LINE
  5
BF70
  8
0
 10
303.01280762311359
 20
101.1363184547351
 30
0.0
 11
301.5128083085674
 21
101.1363195052691
 31
0.0
  0
POLYLINE
  5
BF71
  8
0
 66
     1
 10
0.0
 20
0.0
 30
0.0
  0
VERTEX
  5
10B60
  8
0
 10
304.51280594154832
 20
99.714024851313141
 30
0.0
  0
VERTEX
  5
10B61
  8
0
 10
304.85968325421982
 20
99.952261589133855
 30
0.0
  0
VERTEX
  5
10B62
  8
0
 10
305.19501047618269
 20
100.17501258746771
 30
0.0
  0
VERTEX
  5
10B63
  8
0
 10
305.47508281515093
 20
100.3544318764619
 30
0.0
  0
VERTEX
  5
10B64
  8
0
 10
305.93024495239121
 20
100.6016295744528
 30
0.0
  0
VERTEX
  5
10B65
  8
0
 10
306.28188350687918
 20
100.759477891168
 30
0.0
  0
VERTEX
  5
10B66
  8
0
 10
306.75898076722927
 20
100.9284391840842
 30
0.0
  0
VERTEX
  5
10B67
  8
0
 10
307.16850253876783
 20
101.0463369288683
 30
0.0
  0
VERTEX
  5
10B68
  8
0
 10
307.51280929204268
 20
101.1363153031304
 30
0.0
  0
SEQEND
  5
10B69
  8
0
  0
POLYLINE
  5
BF72
  8
0
 66
     1
 10
0.0
 20
0.0
 30
0.0
  0
VERTEX
  5
10B6A
  8
0
 10
304.51280594154832
 20
99.714024851313141
 30
0.0
  0
VERTEX
  5
10B6B
  8
0
 10
304.16592896257771
 20
99.952262075009045
 30
0.0
  0
VERTEX
  5
10B6C
  8
0
 10
303.83060205262569
 20
100.1750135430398
 30
0.0
  0
VERTEX
  5
10B6D
  8
0
 10
303.55052996497221
 20
100.3544332243348
 30
0.0
  0
VERTEX
  5
10B6E
  8
0
 10
303.09536817398572
 20
100.60163155987679
 30
0.0
  0
VERTEX
  5
10B6F
  8
0
 10
302.74372984059852
 20
100.7594803691364
 30
0.0
  0
VERTEX
  5
10B70
  8
0
 10
302.2666328169143
 20
100.92844233032859
 30
0.0
  0
VERTEX
  5
10B71
  8
0
 10
301.85711121051742
 20
101.0463406487351
 30
0.0
  0
VERTEX
  5
10B72
  8
0
 10
301.5128045832771
 20
101.136319505272
 30
0.0
  0
SEQEND
  5
10B73
  8
0
  0
LINE
  5
BF73
  8
0
 10
303.01280768019342
 20
101.21781942456219
 30
0.0
 11
306.01280630928568
 21
101.2178173234941
 31
0.0
  0
LINE
  5
BF74
  8
0
 10
303.0127978681985
 20
74.701605858482651
 30
0.0
 11
303.0127978681985
 21
73.197812335767139
 31
0.0
  0
LINE
  5
BF75
  8
0
 10
306.01279649729167
 20
74.701605858482651
 30
0.0
 11
306.01279649729167
 21
73.197812335767139
 31
0.0
  0
LINE
  5
BF76
  8
0
 10
306.01279649729167
 20
74.701605858482651
 30
0.0
 11
306.01279649729167
 21
74.710516752876572
 31
0.0
  0
LINE
  5
BF77
  8
0
 10
303.0127978681985
 20
74.701605858482651
 30
0.0
 11
303.0127978681985
 21
74.710516752876572
 31
0.0
  0
LINE
  5
BF78
  8
0
 10
306.01279649729167
 20
74.710516752876572
 30
0.0
 11
303.0127978681985
 21
74.710516752876572
 31
0.0
  0
LINE
  5
BF79
  8
0
 10
306.01279649729167
 20
73.197812335767139
 30
0.0
 11
303.0127978681985
 21
73.197812335767139
 31
0.0
  0
LINE
  5
BF87
  8
0
 10
300.51279838973909
 20
73.207811946250786
 30
0.0
 11
300.51279838973909
 21
75.323680751727807
 31
0.0
  0
LINE
  5
EACB
  8
0
 10
313.91279930533301
 20
184.53309262254101
 30
0.0
 11
313.91279930533301
 21
171.50509679772711
 31
0.0
  0
LINE
  5
EACC
  8
0
 10
327.91279787482148
 20
171.4533217167176
 30
0.0
 11
327.91279787482148
 21
184.53309262254101
 31
0.0
  0
LINE
  5
EACD
  8
0
 10
327.89107198180091
 20
184.80864489533769
 30
0.0
 11
326.5133031672371
 21
193.53148290970191
 31
0.0
  0
LINE
  5
EACE
  8
0
 10
315.31229401291739
 20
193.53148290970191
 30
0.0
 11
313.93452519835358
 21
184.80864489533769
 31
0.0
  0
LINE
  5
EACF
  8
0
 10
324.91279924572842
 20
214.84396183946009
 30
0.0
 11
324.91279924572842
 21
228.63013486452621
 31
0.0
  0
LINE
  5
EAD0
  8
0
 10
324.91279924572842
 20
195.61400834945809
 30
0.0
 11
324.91279924572842
 21
207.91575821199291
 31
0.0
  0
LINE
  5
EAD1
  8
0
 10
316.91279793442618
 20
207.91575821199291
 30
0.0
 11
316.91279793442618
 21
195.61400834945809
 31
0.0
  0
LINE
  5
EAD2
  8
0
 10
316.91279793442618
 20
228.6187995716999
 30
0.0
 11
316.91279793442618
 21
214.84396183946009
 31
0.0
  0
LINE
  5
EAD3
  8
0
 10
315.9127996331585
 20
252.09267387249349
 30
0.0
 11
314.91279760660058
 21
251.09267370858069
 31
0.0
  0
LINE
  5
EAD4
  8
0
 10
314.91279760660058
 20
227.09267349996441
 30
0.0
 11
315.9127996331585
 21
226.09267333605169
 31
0.0
  0
LINE
  5
EAD5
  8
0
 10
325.91279754699599
 20
226.09267333605169
 30
0.0
 11
326.91279957355391
 21
227.09267349996441
 31
0.0
  0
LINE
  5
EAD6
  8
0
 10
326.91279957355391
 20
251.09267370858069
 30
0.0
 11
325.91279754699599
 21
252.09267387249349
 31
0.0
  0
LINE
  5
EAD7
  8
0
 10
315.9127996331585
 20
226.09267333605169
 30
0.0
 11
316.91279793442618
 21
226.09267333605169
 31
0.0
  0
LINE
  5
EAD8
  8
0
 10
324.91279924572842
 20
226.09267333605169
 30
0.0
 11
325.91279754699599
 21
226.09267333605169
 31
0.0
  0
LINE
  5
EAD9
  8
0
 10
325.91279754699599
 20
252.09267387249349
 30
0.0
 11
315.9127996331585
 21
252.09267387249349
 31
0.0
  0
ARC
  5
EADA
  8
0
 10
324.61392707981491
 20
183.96164991408571
 30
0.0
 40
3.3479986994015909
 50
9.8274672903010831
 51
76.08346451111899
  0
POLYLINE
  5
EADB
  8
0
 66
     1
 10
0.0
 20
0.0
 30
0.0
 70
   128
  0
VERTEX
  5
10B74
  8
0
 10
313.91279930533301
 20
184.53309262254101
 30
0.0
  0
VERTEX
  5
10B75
  8
0
 10
313.93047953308951
 20
184.78169242002829
 30
0.0
  0
VERTEX
  5
10B76
  8
0
 10
314.09422094286811
 20
185.3247689650284
 30
0.0
  0
VERTEX
  5
10B77
  8
0
 10
314.42586118639838
 20
185.84835106589659
 30
0.0
  0
VERTEX
  5
10B78
  8
0
 10
314.9172307020558
 20
186.33954921820029
 30
0.0
  0
VERTEX
  5
10B79
  8
0
 10
315.55622974695098
 20
186.78626740434041
 30
0.0
  0
VERTEX
  5
10B7A
  8
0
 10
316.32712642015349
 20
187.17750111677509
 30
0.0
  0
VERTEX
  5
10B7B
  8
0
 10
317.21093664230239
 20
187.5036242053734
 30
0.0
  0
VERTEX
  5
10B7C
  8
0
 10
318.18590099276429
 20
187.75660121896129
 30
0.0
  0
VERTEX
  5
10B7D
  8
0
 10
319.22800997556578
 20
187.93020347215989
 30
0.0
  0
VERTEX
  5
10B7E
  8
0
 10
320.31160006584059
 20
188.02016178228709
 30
0.0
  0
VERTEX
  5
10B7F
  8
0
 10
321.40999818505179
 20
188.02425215103489
 30
0.0
  0
VERTEX
  5
10B80
  8
0
 10
322.49615127505189
 20
187.94238144614559
 30
0.0
  0
VERTEX
  5
10B81
  8
0
 10
323.54331920207869
 20
187.7765613243804
 30
0.0
  0
VERTEX
  5
10B82
  8
0
 10
324.52571550668608
 20
187.53087842919689
 30
0.0
  0
VERTEX
  5
10B83
  8
0
 10
325.41914815367591
 20
187.211375181459
 30
0.0
  0
SEQEND
  5
10B84
  8
0
  0
ARC
  5
EADC
  8
0
 10
318.24246982904327
 20
207.8423400423286
 30
0.0
 40
1.331697253497226
 50
128.53683503295991
 51
176.8396081697606
  0
LINE
  5
EADD
  8
0
 10
317.41279894770508
 20
208.88400400140151
 30
0.0
 11
317.41279894770508
 21
215.81220762886869
 31
0.0
  0
ARC
  5
EADE
  8
0
 10
318.1320517888762
 20
214.84396183946009
 30
0.0
 40
1.20616108304009
 50
126.6064853033116
 51
233.39351469668841
  0
LINE
  5
EADF
  8
0
 10
324.4127982324494
 20
215.81220762886869
 30
0.0
 11
324.4127982324494
 21
208.88400400140151
 31
0.0
  0
ARC
  5
EAE0
  8
0
 10
323.58312735111122
 20
207.8423400423286
 30
0.0
 40
1.3316972534972611
 50
3.1603918302393792
 51
51.463164967040093
  0
ARC
  5
EAE1
  8
0
 10
323.69354539127841
 20
214.84396183946009
 30
0.0
 40
1.20616108304009
 50
306.60648530331162
 51
53.393514696688399
  0
LINE
  5
EAE2
  8
0
 10
314.91279760660058
 20
227.09267349996441
 30
0.0
 11
314.91279760660058
 21
251.09267370858069
 31
0.0
  0
LINE
  5
EAE3
  8
0
 10
315.9127996331585
 20
252.09267387249349
 30
0.0
 11
315.9127996331585
 21
226.09267333605169
 31
0.0
  0
LINE
  5
EAE4
  8
0
 10
325.91279754699599
 20
226.09267333605169
 30
0.0
 11
325.91279754699599
 21
252.09267387249341
 31
0.0
  0
LINE
  5
EAE5
  8
0
 10
326.91279957355391
 20
251.09267370858069
 30
0.0
 11
326.91279957355391
 21
227.09267349996441
 31
0.0
  0
POLYLINE
  5
EAE6
  8
0
 66
     1
 10
0.0
 20
0.0
 30
0.0
 70
   128
  0
VERTEX
  5
10B85
  8
0
 10
320.91279859007727
 20
242.58119981818669
 30
0.0
  0
VERTEX
  5
10B86
  8
0
 10
321.63399989069831
 20
242.66010239803069
 30
0.0
  0
VERTEX
  5
10B87
  8
0
 10
322.30988303483849
 20
242.89185247466739
 30
0.0
  0
VERTEX
  5
10B88
  8
0
 10
322.89798343838578
 20
243.26188812115069
 30
0.0
  0
VERTEX
  5
10B89
  8
0
 10
323.36134994686972
 20
243.7469586365747
 30
0.0
  0
VERTEX
  5
10B8A
  8
0
 10
323.67086196602708
 20
244.31658579119321
 30
0.0
  0
VERTEX
  5
10B8B
  8
0
 10
323.80707720579039
 20
244.93497699581849
 30
0.0
  0
VERTEX
  5
10B8C
  8
0
 10
323.76143122376328
 20
245.56327700697651
 30
0.0
  0
VERTEX
  5
10B8D
  8
0
 10
323.53679621876609
 20
246.1620070607292
 30
0.0
  0
VERTEX
  5
10B8E
  8
0
 10
323.1472873157395
 20
246.69354731299751
 30
0.0
  0
VERTEX
  5
10B8F
  8
0
 10
322.61737594665419
 20
247.1244982079493
 30
0.0
  0
VERTEX
  5
10B90
  8
0
 10
321.9803587561978
 20
247.42778247305031
 30
0.0
  0
VERTEX
  5
10B91
  8
0
 10
321.27626398862731
 20
247.5843433857786
 30
0.0
  0
VERTEX
  5
10B92
  8
0
 10
320.54933319152718
 20
247.5843433857786
 30
0.0
  0
VERTEX
  5
10B93
  8
0
 10
319.84523842395669
 20
247.42778247305031
 30
0.0
  0
VERTEX
  5
10B94
  8
0
 10
319.2082212335003
 20
247.1244982079493
 30
0.0
  0
VERTEX
  5
10B95
  8
0
 10
318.67830986441498
 20
246.69354731299751
 30
0.0
  0
VERTEX
  5
10B96
  8
0
 10
318.2888009613884
 20
246.1620070607292
 30
0.0
  0
VERTEX
  5
10B97
  8
0
 10
318.06416595639121
 20
245.56327700697651
 30
0.0
  0
VERTEX
  5
10B98
  8
0
 10
318.0185199743641
 20
244.93497699581849
 30
0.0
  0
VERTEX
  5
10B99
  8
0
 10
318.15473521412741
 20
244.31658579119321
 30
0.0
  0
VERTEX
  5
10B9A
  8
0
 10
318.46424723328482
 20
243.7469586365747
 30
0.0
  0
VERTEX
  5
10B9B
  8
0
 10
318.92761374176871
 20
243.26188812115069
 30
0.0
  0
VERTEX
  5
10B9C
  8
0
 10
319.515714145316
 20
242.89185247466739
 30
0.0
  0
VERTEX
  5
10B9D
  8
0
 10
320.19159728945618
 20
242.66010239803069
 30
0.0
  0
VERTEX
  5
10B9E
  8
0
 10
320.91279859007727
 20
242.58119981818669
 30
0.0
  0
SEQEND
  5
10B9F
  8
0
  0
POLYLINE
  5
EAE7
  8
0
 66
     1
 10
0.0
 20
0.0
 30
0.0
 70
   128
  0
VERTEX
  5
10BA0
  8
0
 10
320.91279859007727
 20
242.8740202085005
 30
0.0
  0
VERTEX
  5
10BA1
  8
0
 10
321.5044380194081
 20
242.9476885226446
 30
0.0
  0
VERTEX
  5
10BA2
  8
0
 10
322.04814413846861
 20
243.16272508435719
 30
0.0
  0
VERTEX
  5
10BA3
  8
0
 10
322.49987284006011
 20
243.50170880638831
 30
0.0
  0
VERTEX
  5
10BA4
  8
0
 10
322.82302687229048
 20
243.93717754714959
 30
0.0
  0
VERTEX
  5
10BA5
  8
0
 10
322.9914248949421
 20
244.43385234185331
 30
0.0
  0
VERTEX
  5
10BA6
  8
0
 10
322.9914248949421
 20
244.9514949330019
 30
0.0
  0
VERTEX
  5
10BA7
  8
0
 10
322.82302687229048
 20
245.44816972770559
 30
0.0
  0
VERTEX
  5
10BA8
  8
0
 10
322.49987284006011
 20
245.8836384684669
 30
0.0
  0
VERTEX
  5
10BA9
  8
0
 10
322.04814413846861
 20
246.22262219049799
 30
0.0
  0
VERTEX
  5
10BAA
  8
0
 10
321.5044380194081
 20
246.43765851937999
 30
0.0
  0
VERTEX
  5
10BAB
  8
0
 10
320.91279859007727
 20
246.51132706635471
 30
0.0
  0
VERTEX
  5
10BAC
  8
0
 10
320.32115916074639
 20
246.43765851937999
 30
0.0
  0
VERTEX
  5
10BAD
  8
0
 10
319.77745304168587
 20
246.22262219049799
 30
0.0
  0
VERTEX
  5
10BAE
  8
0
 10
319.32572434009438
 20
245.8836384684669
 30
0.0
  0
VERTEX
  5
10BAF
  8
0
 10
319.002570307864
 20
245.44816972770559
 30
0.0
  0
VERTEX
  5
10BB0
  8
0
 10
318.83417228521239
 20
244.9514949330019
 30
0.0
  0
VERTEX
  5
10BB1
  8
0
 10
318.83417228521239
 20
244.43385234185331
 30
0.0
  0
VERTEX
  5
10BB2
  8
0
 10
319.002570307864
 20
243.93717754714959
 30
0.0
  0
VERTEX
  5
10BB3
  8
0
 10
319.32572434009438
 20
243.50170880638831
 30
0.0
  0
VERTEX
  5
10BB4
  8
0
 10
319.77745304168587
 20
243.16272508435719
 30
0.0
  0
VERTEX
  5
10BB5
  8
0
 10
320.32115916074639
 20
242.9476885226446
 30
0.0
  0
VERTEX
  5
10BB6
  8
0
 10
320.91279859007727
 20
242.8740202085005
 30
0.0
  0
SEQEND
  5
10BB7
  8
0
  0
POLYLINE
  5
EAE8
  8
0
 66
     1
 10
0.0
 20
0.0
 30
0.0
 70
   128
  0
VERTEX
  5
10BB8
  8
0
 10
324.80926970304381
 20
172.77054810979229
 30
0.0
  0
VERTEX
  5
10BB9
  8
0
 10
325.53596953214537
 20
172.40798050620421
 30
0.0
  0
VERTEX
  5
10BBA
  8
0
 10
326.12966904701119
 20
171.98922807433459
 30
0.0
  0
VERTEX
  5
10BBB
  8
0
 10
326.57329151691329
 20
171.5263235018478
 30
0.0
  0
VERTEX
  5
10BBC
  8
0
 10
326.8540703719986
 20
171.03259587743139
 30
0.0
  0
VERTEX
  5
10BBD
  8
0
 10
326.9639291829003
 20
170.5222460077033
 30
0.0
  0
VERTEX
  5
10BBE
  8
0
 10
326.89970890344512
 20
170.00995153643939
 30
0.0
  0
VERTEX
  5
10BBF
  8
0
 10
326.66325355233079
 20
169.51044971206051
 30
0.0
  0
VERTEX
  5
10BC0
  8
0
 10
326.26137296022313
 20
169.03812015511849
 30
0.0
  0
VERTEX
  5
10BC1
  8
0
 10
325.70561925233733
 20
168.60653782346111
 30
0.0
  0
VERTEX
  5
10BC2
  8
0
 10
325.01198882521521
 20
168.22813028552389
 30
0.0
  0
VERTEX
  5
10BC3
  8
0
 10
324.20042688311469
 20
167.91377538897859
 30
0.0
  0
VERTEX
  5
10BC4
  8
0
 10
323.29429099620711
 20
167.6725181386696
 30
0.0
  0
VERTEX
  5
10BC5
  8
0
 10
322.31963957013022
 20
167.51130247571331
 30
0.0
  0
VERTEX
  5
10BC6
  8
0
 10
321.30452031554108
 20
167.43475521066051
 30
0.0
  0
VERTEX
  5
10BC7
  8
0
 10
320.27812833250891
 20
167.4450966165291
 30
0.0
  0
VERTEX
  5
10BC8
  8
0
 10
319.26999772251969
 20
167.54202121951451
 30
0.0
  0
VERTEX
  5
10BC9
  8
0
 10
318.30912241996663
 20
167.72273505189281
 30
0.0
  0
VERTEX
  5
10BCA
  8
0
 10
317.42315525473492
 20
167.98204505898821
 30
0.0
  0
VERTEX
  5
10BCB
  8
0
 10
316.63757721246611
 20
168.31248575904229
 30
0.0
  0
VERTEX
  5
10BCC
  8
0
 10
315.97498962940108
 20
168.70455766179421
 30
0.0
  0
VERTEX
  5
10BCD
  8
0
 10
315.4544510907067
 20
169.14698058822009
 30
0.0
  0
VERTEX
  5
10BCE
  8
0
 10
315.09094471396338
 20
169.62702149607989
 30
0.0
  0
VERTEX
  5
10BCF
  8
0
 10
314.89491621316802
 20
170.13087445952749
 30
0.0
  0
VERTEX
  5
10BD0
  8
0
 10
314.87201685370343
 20
170.64404809930181
 30
0.0
  0
VERTEX
  5
10BD1
  8
0
 10
315.02289483608138
 20
171.15177536465981
 30
0.0
  0
VERTEX
  5
10BD2
  8
0
 10
315.34321764768492
 20
171.63944566705089
 30
0.0
  0
VERTEX
  5
10BD3
  8
0
 10
315.82376892031562
 20
172.09303701379159
 30
0.0
  0
VERTEX
  5
10BD4
  8
0
 10
316.4507203763855
 20
172.4994959876762
 30
0.0
  0
VERTEX
  5
10BD5
  8
0
 10
317.20603416026961
 20
172.84713262774801
 30
0.0
  0
VERTEX
  5
10BD6
  8
0
 10
318.06798810423737
 20
173.1259408042655
 30
0.0
  0
VERTEX
  5
10BD7
  8
0
 10
319.0117829507721
 20
173.32791114308691
 30
0.0
  0
VERTEX
  5
10BD8
  8
0
 10
320.01026505888831
 20
173.44721729018551
 30
0.0
  0
VERTEX
  5
10BD9
  8
0
 10
321.03471244038468
 20
173.48043942906719
 30
0.0
  0
VERTEX
  5
10BDA
  8
0
 10
322.05565059842002
 20
173.42661643483501
 30
0.0
  0
VERTEX
  5
10BDB
  8
0
 10
323.04371306957142
 20
173.28729057767251
 30
0.0
  0
VERTEX
  5
10BDC
  8
0
 10
323.97047216357117
 20
173.0664851711021
 30
0.0
  0
VERTEX
  5
10BDD
  8
0
 10
324.80926970304381
 20
172.77054810979229
 30
0.0
  0
SEQEND
  5
10BDE
  8
0
  0
ARC
  5
EAE9
  8
0
 10
323.9254079049042
 20
170.29011364734851
 30
0.0
 40
4.1699853493730368
 50
17.018170731344512
 51
69.009549203100264
  0
POLYLINE
  5
EAEA
  8
0
 66
     1
 10
0.0
 20
0.0
 30
0.0
 70
   128
  0
VERTEX
  5
10BDF
  8
0
 10
313.91280675591361
 20
171.51041651227331
 30
0.0
  0
VERTEX
  5
10BE0
  8
0
 10
313.93047953308951
 20
171.75369286992409
 30
0.0
  0
VERTEX
  5
10BE1
  8
0
 10
314.09422094286811
 20
172.2967731402145
 30
0.0
  0
VERTEX
  5
10BE2
  8
0
 10
314.42586118639838
 20
172.82035524108269
 30
0.0
  0
VERTEX
  5
10BE3
  8
0
 10
314.9172307020558
 20
173.31154966809609
 30
0.0
  0
VERTEX
  5
10BE4
  8
0
 10
315.55622974695098
 20
173.75826412894591
 30
0.0
  0
VERTEX
  5
10BE5
  8
0
 10
316.32712642015349
 20
174.14950156667089
 30
0.0
  0
VERTEX
  5
10BE6
  8
0
 10
317.21093664230239
 20
174.4756283805595
 30
0.0
  0
VERTEX
  5
10BE7
  8
0
 10
318.18590099276429
 20
174.72860539414739
 30
0.0
  0
VERTEX
  5
10BE8
  8
0
 10
319.22800997556578
 20
174.90220392205569
 30
0.0
  0
VERTEX
  5
10BE9
  8
0
 10
320.31160006584059
 20
174.99216223218301
 30
0.0
  0
VERTEX
  5
10BEA
  8
0
 10
321.40999818505179
 20
174.99625260093069
 30
0.0
  0
VERTEX
  5
10BEB
  8
0
 10
322.49615127505189
 20
174.91438562133169
 30
0.0
  0
VERTEX
  5
10BEC
  8
0
 10
323.54331920207869
 20
174.74856549956661
 30
0.0
  0
VERTEX
  5
10BED
  8
0
 10
324.52571550668608
 20
174.50287515380239
 30
0.0
  0
VERTEX
  5
10BEE
  8
0
 10
325.41914815367591
 20
174.1833793566451
 30
0.0
  0
SEQEND
  5
10BEF
  8
0
  0
POLYLINE
  5
EAEB
  8
0
 10
326.51330316723715
 20
193.53148290970191
 30
0.0
 66
     1
 70
     8
  0
VERTEX
  8
0
  5
10E3C
 10
326.513
 20
193.531
 30
0.000000
  70
    32
  0
VERTEX
  8
0
  5
10E3D
 10
326.512
 20
193.605
 30
0.000000
  70
    32
  0
VERTEX
  8
0
  5
10E3E
 10
326.507
 20
193.677
 30
0.000000
  70
    32
  0
VERTEX
  8
0
  5
10E3F
 10
326.498
 20
193.750
 30
0.000000
  70
    32
  0
VERTEX
  8
0
  5
10E40
 10
326.486
 20
193.823
 30
0.000000
  70
    32
  0
VERTEX
  8
0
  5
10E41
 10
326.471
 20
193.896
 30
0.000000
  70
    32
  0
VERTEX
  8
0
  5
10E42
 10
326.453
 20
193.968
 30
0.000000
  70
    32
  0
VERTEX
  8
0
  5
10E43
 10
326.431
 20
194.040
 30
0.000000
  70
    32
  0
VERTEX
  8
0
  5
10E44
 10
326.406
 20
194.112
 30
0.000000
  70
    32
  0
VERTEX
  8
0
  5
10E45
 10
326.377
 20
194.183
 30
0.000000
  70
    32
  0
VERTEX
  8
0
  5
10E46
 10
326.345
 20
194.254
 30
0.000000
  70
    32
  0
VERTEX
  8
0
  5
10E47
 10
326.310
 20
194.325
 30
0.000000
  70
    32
  0
VERTEX
  8
0
  5
10E48
 10
326.272
 20
194.395
 30
0.000000
  70
    32
  0
VERTEX
  8
0
  5
10E49
 10
326.231
 20
194.465
 30
0.000000
  70
    32
  0
VERTEX
  8
0
  5
10E4A
 10
326.186
 20
194.534
 30
0.000000
  70
    32
  0
VERTEX
  8
0
  5
10E4B
 10
326.138
 20
194.602
 30
0.000000
  70
    32
  0
VERTEX
  8
0
  5
10E4C
 10
326.087
 20
194.670
 30
0.000000
  70
    32
  0
VERTEX
  8
0
  5
10E4D
 10
326.033
 20
194.737
 30
0.000000
  70
    32
  0
VERTEX
  8
0
  5
10E4E
 10
325.976
 20
194.804
 30
0.000000
  70
    32
  0
VERTEX
  8
0
  5
10E4F
 10
325.915
 20
194.869
 30
0.000000
  70
    32
  0
VERTEX
  8
0
  5
10E50
 10
325.852
 20
194.934
 30
0.000000
  70
    32
  0
VERTEX
  8
0
  5
10E51
 10
325.786
 20
194.998
 30
0.000000
  70
    32
  0
VERTEX
  8
0
  5
10E52
 10
325.717
 20
195.061
 30
0.000000
  70
    32
  0
VERTEX
  8
0
  5
10E53
 10
325.644
 20
195.123
 30
0.000000
  70
    32
  0
VERTEX
  8
0
  5
10E54
 10
325.569
 20
195.185
 30
0.000000
  70
    32
  0
VERTEX
  8
0
  5
10E55
 10
325.492
 20
195.245
 30
0.000000
  70
    32
  0
VERTEX
  8
0
  5
10E56
 10
325.411
 20
195.304
 30
0.000000
  70
    32
  0
VERTEX
  8
0
  5
10E57
 10
325.328
 20
195.362
 30
0.000000
  70
    32
  0
VERTEX
  8
0
  5
10E58
 10
325.242
 20
195.419
 30
0.000000
  70
    32
  0
VERTEX
  8
0
  5
10E59
 10
325.154
 20
195.475
 30
0.000000
  70
    32
  0
VERTEX
  8
0
  5
10E5A
 10
325.062
 20
195.530
 30
0.000000
  70
    32
  0
VERTEX
  8
0
  5
10E5B
 10
324.969
 20
195.583
 30
0.000000
  70
    32
  0
VERTEX
  8
0
  5
10E5C
 10
324.873
 20
195.635
 30
0.000000
  70
    32
  0
VERTEX
  8
0
  5
10E5D
 10
324.775
 20
195.686
 30
0.000000
  70
    32
  0
VERTEX
  8
0
  5
10E5E
 10
324.674
 20
195.736
 30
0.000000
  70
    32
  0
VERTEX
  8
0
  5
10E5F
 10
324.571
 20
195.784
 30
0.000000
  70
    32
  0
VERTEX
  8
0
  5
10E60
 10
324.466
 20
195.831
 30
0.000000
  70
    32
  0
VERTEX
  8
0
  5
10E61
 10
324.358
 20
195.877
 30
0.000000
  70
    32
  0
VERTEX
  8
0
  5
10E62
 10
324.249
 20
195.921
 30
0.000000
  70
    32
  0
VERTEX
  8
0
  5
10E63
 10
324.138
 20
195.964
 30
0.000000
  70
    32
  0
VERTEX
  8
0
  5
10E64
 10
324.024
 20
196.005
 30
0.000000
  70
    32
  0
VERTEX
  8
0
  5
10E65
 10
323.909
 20
196.045
 30
0.000000
  70
    32
  0
VERTEX
  8
0
  5
10E66
 10
323.792
 20
196.084
 30
0.000000
  70
    32
  0
VERTEX
  8
0
  5
10E67
 10
323.673
 20
196.120
 30
0.000000
  70
    32
  0
VERTEX
  8
0
  5
10E68
 10
323.553
 20
196.156
 30
0.000000
  70
    32
  0
VERTEX
  8
0
  5
10E69
 10
323.431
 20
196.189
 30
0.000000
  70
    32
  0
VERTEX
  8
0
  5
10E6A
 10
323.307
 20
196.221
 30
0.000000
  70
    32
  0
VERTEX
  8
0
  5
10E6B
 10
323.182
 20
196.252
 30
0.000000
  70
    32
  0
VERTEX
  8
0
  5
10E6C
 10
323.056
 20
196.280
 30
0.000000
  70
    32
  0
VERTEX
  8
0
  5
10E6D
 10
322.928
 20
196.307
 30
0.000000
  70
    32
  0
VERTEX
  8
0
  5
10E6E
 10
322.800
 20
196.333
 30
0.000000
  70
    32
  0
VERTEX
  8
0
  5
10E6F
 10
322.670
 20
196.357
 30
0.000000
  70
    32
  0
VERTEX
  8
0
  5
10E70
 10
322.539
 20
196.379
 30
0.000000
  70
    32
  0
VERTEX
  8
0
  5
10E71
 10
322.407
 20
196.399
 30
0.000000
  70
    32
  0
VERTEX
  8
0
  5
10E72
 10
322.274
 20
196.418
 30
0.000000
  70
    32
  0
VERTEX
  8
0
  5
10E73
 10
322.140
 20
196.435
 30
0.000000
  70
    32
  0
VERTEX
  8
0
  5
10E74
 10
322.005
 20
196.450
 30
0.000000
  70
    32
  0
VERTEX
  8
0
  5
10E75
 10
321.870
 20
196.463
 30
0.000000
  70
    32
  0
VERTEX
  8
0
  5
10E76
 10
321.735
 20
196.475
 30
0.000000
  70
    32
  0
VERTEX
  8
0
  5
10E77
 10
321.598
 20
196.484
 30
0.000000
  70
    32
  0
VERTEX
  8
0
  5
10E78
 10
321.462
 20
196.493
 30
0.000000
  70
    32
  0
VERTEX
  8
0
  5
10E79
 10
321.325
 20
196.499
 30
0.000000
  70
    32
  0
VERTEX
  8
0
  5
10E7A
 10
321.188
 20
196.503
 30
0.000000
  70
    32
  0
VERTEX
  8
0
  5
10E7B
 10
321.050
 20
196.506
 30
0.000000
  70
    32
  0
VERTEX
  8
0
  5
10E7C
 10
320.913
 20
196.507
 30
0.000000
  70
    32
  0
VERTEX
  8
0
  5
10E7D
 10
320.775
 20
196.506
 30
0.000000
  70
    32
  0
VERTEX
  8
0
  5
10E7E
 10
320.638
 20
196.503
 30
0.000000
  70
    32
  0
VERTEX
  8
0
  5
10E7F
 10
320.501
 20
196.499
 30
0.000000
  70
    32
  0
VERTEX
  8
0
  5
10E80
 10
320.364
 20
196.493
 30
0.000000
  70
    32
  0
VERTEX
  8
0
  5
10E81
 10
320.227
 20
196.484
 30
0.000000
  70
    32
  0
VERTEX
  8
0
  5
10E82
 10
320.091
 20
196.475
 30
0.000000
  70
    32
  0
VERTEX
  8
0
  5
10E83
 10
319.955
 20
196.463
 30
0.000000
  70
    32
  0
VERTEX
  8
0
  5
10E84
 10
319.820
 20
196.450
 30
0.000000
  70
    32
  0
VERTEX
  8
0
  5
10E85
 10
319.686
 20
196.435
 30
0.000000
  70
    32
  0
VERTEX
  8
0
  5
10E86
 10
319.552
 20
196.418
 30
0.000000
  70
    32
  0
VERTEX
  8
0
  5
10E87
 10
319.419
 20
196.399
 30
0.000000
  70
    32
  0
VERTEX
  8
0
  5
10E88
 10
319.287
 20
196.379
 30
0.000000
  70
    32
  0
VERTEX
  8
0
  5
10E89
 10
319.156
 20
196.357
 30
0.000000
  70
    32
  0
VERTEX
  8
0
  5
10E8A
 10
319.026
 20
196.333
 30
0.000000
  70
    32
  0
VERTEX
  8
0
  5
10E8B
 10
318.897
 20
196.307
 30
0.000000
  70
    32
  0
VERTEX
  8
0
  5
10E8C
 10
318.770
 20
196.280
 30
0.000000
  70
    32
  0
VERTEX
  8
0
  5
10E8D
 10
318.643
 20
196.252
 30
0.000000
  70
    32
  0
VERTEX
  8
0
  5
10E8E
 10
318.518
 20
196.221
 30
0.000000
  70
    32
  0
VERTEX
  8
0
  5
10E8F
 10
318.395
 20
196.189
 30
0.000000
  70
    32
  0
VERTEX
  8
0
  5
10E90
 10
318.273
 20
196.156
 30
0.000000
  70
    32
  0
VERTEX
  8
0
  5
10E91
 10
318.152
 20
196.120
 30
0.000000
  70
    32
  0
VERTEX
  8
0
  5
10E92
 10
318.034
 20
196.084
 30
0.000000
  70
    32
  0
VERTEX
  8
0
  5
10E93
 10
317.917
 20
196.045
 30
0.000000
  70
    32
  0
VERTEX
  8
0
  5
10E94
 10
317.801
 20
196.005
 30
0.000000
  70
    32
  0
VERTEX
  8
0
  5
10E95
 10
317.688
 20
195.964
 30
0.000000
  70
    32
  0
VERTEX
  8
0
  5
10E96
 10
317.577
 20
195.921
 30
0.000000
  70
    32
  0
VERTEX
  8
0
  5
10E97
 10
317.467
 20
195.877
 30
0.000000
  70
    32
  0
VERTEX
  8
0
  5
10E98
 10
317.360
 20
195.831
 30
0.000000
  70
    32
  0
VERTEX
  8
0
  5
10E99
 10
317.255
 20
195.784
 30
0.000000
  70
    32
  0
VERTEX
  8
0
  5
10E9A
 10
317.152
 20
195.736
 30
0.000000
  70
    32
  0
VERTEX
  8
0
  5
10E9B
 10
317.051
 20
195.686
 30
0.000000
  70
    32
  0
VERTEX
  8
0
  5
10E9C
 10
316.953
 20
195.635
 30
0.000000
  70
    32
  0
VERTEX
  8
0
  5
10E9D
 10
316.857
 20
195.583
 30
0.000000
  70
    32
  0
VERTEX
  8
0
  5
10E9E
 10
316.763
 20
195.530
 30
0.000000
  70
    32
  0
VERTEX
  8
0
  5
10E9F
 10
316.672
 20
195.475
 30
0.000000
  70
    32
  0
VERTEX
  8
0
  5
10EA0
 10
316.584
 20
195.419
 30
0.000000
  70
    32
  0
VERTEX
  8
0
  5
10EA1
 10
316.498
 20
195.362
 30
0.000000
  70
    32
  0
VERTEX
  8
0
  5
10EA2
 10
316.414
 20
195.304
 30
0.000000
  70
    32
  0
VERTEX
  8
0
  5
10EA3
 10
316.334
 20
195.245
 30
0.000000
  70
    32
  0
VERTEX
  8
0
  5
10EA4
 10
316.256
 20
195.185
 30
0.000000
  70
    32
  0
VERTEX
  8
0
  5
10EA5
 10
316.181
 20
195.123
 30
0.000000
  70
    32
  0
VERTEX
  8
0
  5
10EA6
 10
316.109
 20
195.061
 30
0.000000
  70
    32
  0
VERTEX
  8
0
  5
10EA7
 10
316.040
 20
194.998
 30
0.000000
  70
    32
  0
VERTEX
  8
0
  5
10EA8
 10
315.974
 20
194.934
 30
0.000000
  70
    32
  0
VERTEX
  8
0
  5
10EA9
 10
315.910
 20
194.869
 30
0.000000
  70
    32
  0
VERTEX
  8
0
  5
10EAA
 10
315.850
 20
194.804
 30
0.000000
  70
    32
  0
VERTEX
  8
0
  5
10EAB
 10
315.793
 20
194.737
 30
0.000000
  70
    32
  0
VERTEX
  8
0
  5
10EAC
 10
315.739
 20
194.670
 30
0.000000
  70
    32
  0
VERTEX
  8
0
  5
10EAD
 10
315.688
 20
194.602
 30
0.000000
  70
    32
  0
VERTEX
  8
0
  5
10EAE
 10
315.640
 20
194.534
 30
0.000000
  70
    32
  0
VERTEX
  8
0
  5
10EAF
 10
315.595
 20
194.465
 30
0.000000
  70
    32
  0
VERTEX
  8
0
  5
10EB0
 10
315.553
 20
194.395
 30
0.000000
  70
    32
  0
VERTEX
  8
0
  5
10EB1
 10
315.515
 20
194.325
 30
0.000000
  70
    32
  0
VERTEX
  8
0
  5
10EB2
 10
315.480
 20
194.254
 30
0.000000
  70
    32
  0
VERTEX
  8
0
  5
10EB3
 10
315.448
 20
194.183
 30
0.000000
  70
    32
  0
VERTEX
  8
0
  5
10EB4
 10
315.420
 20
194.112
 30
0.000000
  70
    32
  0
VERTEX
  8
0
  5
10EB5
 10
315.395
 20
194.040
 30
0.000000
  70
    32
  0
VERTEX
  8
0
  5
10EB6
 10
315.373
 20
193.968
 30
0.000000
  70
    32
  0
VERTEX
  8
0
  5
10EB7
 10
315.354
 20
193.896
 30
0.000000
  70
    32
  0
VERTEX
  8
0
  5
10EB8
 10
315.339
 20
193.823
 30
0.000000
  70
    32
  0
VERTEX
  8
0
  5
10EB9
 10
315.327
 20
193.750
 30
0.000000
  70
    32
  0
VERTEX
  8
0
  5
10EBA
 10
315.319
 20
193.677
 30
0.000000
  70
    32
  0
VERTEX
  8
0
  5
10EBB
 10
315.314
 20
193.605
 30
0.000000
  70
    32
  0
VERTEX
  8
0
  5
10EBC
 10
315.312
 20
193.531
 30
0.000000
  70
    32
  0
SEQEND
  8
0
  5
10EBD
  0
POLYLINE
  5
EAEC
  8
0
 10
313.91281746949915
 20
171.51056399119176
 30
0.0
 66
     1
 70
     8
  0
VERTEX
  8
0
  5
10EBE
 10
313.913
 20
171.511
 30
0.000000
  70
    32
  0
VERTEX
  8
0
  5
10EBF
 10
313.913
 20
171.409
 30
0.000000
  70
    32
  0
VERTEX
  8
0
  5
10EC0
 10
313.918
 20
171.308
 30
0.000000
  70
    32
  0
VERTEX
  8
0
  5
10EC1
 10
313.927
 20
171.207
 30
0.000000
  70
    32
  0
VERTEX
  8
0
  5
10EC2
 10
313.940
 20
171.106
 30
0.000000
  70
    32
  0
VERTEX
  8
0
  5
10EC3
 10
313.958
 20
171.006
 30
0.000000
  70
    32
  0
VERTEX
  8
0
  5
10EC4
 10
313.980
 20
170.905
 30
0.000000
  70
    32
  0
VERTEX
  8
0
  5
10EC5
 10
314.006
 20
170.805
 30
0.000000
  70
    32
  0
VERTEX
  8
0
  5
10EC6
 10
314.036
 20
170.706
 30
0.000000
  70
    32
  0
VERTEX
  8
0
  5
10EC7
 10
314.070
 20
170.607
 30
0.000000
  70
    32
  0
VERTEX
  8
0
  5
10EC8
 10
314.108
 20
170.508
 30
0.000000
  70
    32
  0
VERTEX
  8
0
  5
10EC9
 10
314.151
 20
170.410
 30
0.000000
  70
    32
  0
VERTEX
  8
0
  5
10ECA
 10
314.198
 20
170.313
 30
0.000000
  70
    32
  0
VERTEX
  8
0
  5
10ECB
 10
314.248
 20
170.216
 30
0.000000
  70
    32
  0
VERTEX
  8
0
  5
10ECC
 10
314.303
 20
170.121
 30
0.000000
  70
    32
  0
VERTEX
  8
0
  5
10ECD
 10
314.362
 20
170.026
 30
0.000000
  70
    32
  0
VERTEX
  8
0
  5
10ECE
 10
314.425
 20
169.931
 30
0.000000
  70
    32
  0
VERTEX
  8
0
  5
10ECF
 10
314.491
 20
169.838
 30
0.000000
  70
    32
  0
VERTEX
  8
0
  5
10ED0
 10
314.562
 20
169.746
 30
0.000000
  70
    32
  0
VERTEX
  8
0
  5
10ED1
 10
314.636
 20
169.655
 30
0.000000
  70
    32
  0
VERTEX
  8
0
  5
10ED2
 10
314.714
 20
169.565
 30
0.000000
  70
    32
  0
VERTEX
  8
0
  5
10ED3
 10
314.796
 20
169.476
 30
0.000000
  70
    32
  0
VERTEX
  8
0
  5
10ED4
 10
314.882
 20
169.389
 30
0.000000
  70
    32
  0
VERTEX
  8
0
  5
10ED5
 10
314.971
 20
169.302
 30
0.000000
  70
    32
  0
VERTEX
  8
0
  5
10ED6
 10
315.064
 20
169.217
 30
0.000000
  70
    32
  0
VERTEX
  8
0
  5
10ED7
 10
315.161
 20
169.134
 30
0.000000
  70
    32
  0
VERTEX
  8
0
  5
10ED8
 10
315.261
 20
169.051
 30
0.000000
  70
    32
  0
VERTEX
  8
0
  5
10ED9
 10
315.364
 20
168.971
 30
0.000000
  70
    32
  0
VERTEX
  8
0
  5
10EDA
 10
315.471
 20
168.892
 30
0.000000
  70
    32
  0
VERTEX
  8
0
  5
10EDB
 10
315.581
 20
168.814
 30
0.000000
  70
    32
  0
VERTEX
  8
0
  5
10EDC
 10
315.694
 20
168.738
 30
0.000000
  70
    32
  0
VERTEX
  8
0
  5
10EDD
 10
315.811
 20
168.664
 30
0.000000
  70
    32
  0
VERTEX
  8
0
  5
10EDE
 10
315.930
 20
168.591
 30
0.000000
  70
    32
  0
VERTEX
  8
0
  5
10EDF
 10
316.053
 20
168.520
 30
0.000000
  70
    32
  0
VERTEX
  8
0
  5
10EE0
 10
316.178
 20
168.451
 30
0.000000
  70
    32
  0
VERTEX
  8
0
  5
10EE1
 10
316.307
 20
168.384
 30
0.000000
  70
    32
  0
VERTEX
  8
0
  5
10EE2
 10
316.438
 20
168.319
 30
0.000000
  70
    32
  0
VERTEX
  8
0
  5
10EE3
 10
316.572
 20
168.255
 30
0.000000
  70
    32
  0
VERTEX
  8
0
  5
10EE4
 10
316.708
 20
168.194
 30
0.000000
  70
    32
  0
VERTEX
  8
0
  5
10EE5
 10
316.848
 20
168.134
 30
0.000000
  70
    32
  0
VERTEX
  8
0
  5
10EE6
 10
316.989
 20
168.077
 30
0.000000
  70
    32
  0
VERTEX
  8
0
  5
10EE7
 10
317.133
 20
168.022
 30
0.000000
  70
    32
  0
VERTEX
  8
0
  5
10EE8
 10
317.279
 20
167.968
 30
0.000000
  70
    32
  0
VERTEX
  8
0
  5
10EE9
 10
317.428
 20
167.917
 30
0.000000
  70
    32
  0
VERTEX
  8
0
  5
10EEA
 10
317.578
 20
167.868
 30
0.000000
  70
    32
  0
VERTEX
  8
0
  5
10EEB
 10
317.731
 20
167.822
 30
0.000000
  70
    32
  0
VERTEX
  8
0
  5
10EEC
 10
317.885
 20
167.777
 30
0.000000
  70
    32
  0
VERTEX
  8
0
  5
10EED
 10
318.041
 20
167.735
 30
0.000000
  70
    32
  0
VERTEX
  8
0
  5
10EEE
 10
318.200
 20
167.695
 30
0.000000
  70
    32
  0
VERTEX
  8
0
  5
10EEF
 10
318.359
 20
167.657
 30
0.000000
  70
    32
  0
VERTEX
  8
0
  5
10EF0
 10
318.520
 20
167.622
 30
0.000000
  70
    32
  0
VERTEX
  8
0
  5
10EF1
 10
318.683
 20
167.589
 30
0.000000
  70
    32
  0
VERTEX
  8
0
  5
10EF2
 10
318.847
 20
167.558
 30
0.000000
  70
    32
  0
VERTEX
  8
0
  5
10EF3
 10
319.013
 20
167.530
 30
0.000000
  70
    32
  0
VERTEX
  8
0
  5
10EF4
 10
319.179
 20
167.504
 30
0.000000
  70
    32
  0
VERTEX
  8
0
  5
10EF5
 10
319.346
 20
167.480
 30
0.000000
  70
    32
  0
VERTEX
  8
0
  5
10EF6
 10
319.515
 20
167.459
 30
0.000000
  70
    32
  0
VERTEX
  8
0
  5
10EF7
 10
319.684
 20
167.441
 30
0.000000
  70
    32
  0
VERTEX
  8
0
  5
10EF8
 10
319.854
 20
167.425
 30
0.000000
  70
    32
  0
VERTEX
  8
0
  5
10EF9
 10
320.025
 20
167.411
 30
0.000000
  70
    32
  0
VERTEX
  8
0
  5
10EFA
 10
320.196
 20
167.400
 30
0.000000
  70
    32
  0
VERTEX
  8
0
  5
10EFB
 10
320.368
 20
167.391
 30
0.000000
  70
    32
  0
VERTEX
  8
0
  5
10EFC
 10
320.540
 20
167.385
 30
0.000000
  70
    32
  0
VERTEX
  8
0
  5
10EFD
 10
320.712
 20
167.381
 30
0.000000
  70
    32
  0
VERTEX
  8
0
  5
10EFE
 10
320.884
 20
167.380
 30
0.000000
  70
    32
  0
VERTEX
  8
0
  5
10EFF
 10
321.057
 20
167.381
 30
0.000000
  70
    32
  0
VERTEX
  8
0
  5
10F00
 10
321.229
 20
167.385
 30
0.000000
  70
    32
  0
VERTEX
  8
0
  5
10F01
 10
321.401
 20
167.391
 30
0.000000
  70
    32
  0
VERTEX
  8
0
  5
10F02
 10
321.573
 20
167.400
 30
0.000000
  70
    32
  0
VERTEX
  8
0
  5
10F03
 10
321.744
 20
167.411
 30
0.000000
  70
    32
  0
VERTEX
  8
0
  5
10F04
 10
321.915
 20
167.425
 30
0.000000
  70
    32
  0
VERTEX
  8
0
  5
10F05
 10
322.085
 20
167.441
 30
0.000000
  70
    32
  0
VERTEX
  8
0
  5
10F06
 10
322.255
 20
167.459
 30
0.000000
  70
    32
  0
VERTEX
  8
0
  5
10F07
 10
322.424
 20
167.480
 30
0.000000
  70
    32
  0
VERTEX
  8
0
  5
10F08
 10
322.591
 20
167.504
 30
0.000000
  70
    32
  0
VERTEX
  8
0
  5
10F09
 10
322.758
 20
167.530
 30
0.000000
  70
    32
  0
VERTEX
  8
0
  5
10F0A
 10
322.924
 20
167.558
 30
0.000000
  70
    32
  0
VERTEX
  8
0
  5
10F0B
 10
323.088
 20
167.589
 30
0.000000
  70
    32
  0
VERTEX
  8
0
  5
10F0C
 10
323.252
 20
167.622
 30
0.000000
  70
    32
  0
VERTEX
  8
0
  5
10F0D
 10
323.413
 20
167.657
 30
0.000000
  70
    32
  0
VERTEX
  8
0
  5
10F0E
 10
323.574
 20
167.695
 30
0.000000
  70
    32
  0
VERTEX
  8
0
  5
10F0F
 10
323.732
 20
167.735
 30
0.000000
  70
    32
  0
VERTEX
  8
0
  5
10F10
 10
323.889
 20
167.777
 30
0.000000
  70
    32
  0
VERTEX
  8
0
  5
10F11
 10
324.044
 20
167.822
 30
0.000000
  70
    32
  0
VERTEX
  8
0
  5
10F12
 10
324.197
 20
167.868
 30
0.000000
  70
    32
  0
VERTEX
  8
0
  5
10F13
 10
324.348
 20
167.917
 30
0.000000
  70
    32
  0
VERTEX
  8
0
  5
10F14
 10
324.498
 20
167.968
 30
0.000000
  70
    32
  0
VERTEX
  8
0
  5
10F15
 10
324.645
 20
168.022
 30
0.000000
  70
    32
  0
VERTEX
  8
0
  5
10F16
 10
324.789
 20
168.077
 30
0.000000
  70
    32
  0
VERTEX
  8
0
  5
10F17
 10
324.932
 20
168.134
 30
0.000000
  70
    32
  0
VERTEX
  8
0
  5
10F18
 10
325.071
 20
168.194
 30
0.000000
  70
    32
  0
VERTEX
  8
0
  5
10F19
 10
325.209
 20
168.255
 30
0.000000
  70
    32
  0
VERTEX
  8
0
  5
10F1A
 10
325.344
 20
168.319
 30
0.000000
  70
    32
  0
VERTEX
  8
0
  5
10F1B
 10
325.476
 20
168.384
 30
0.000000
  70
    32
  0
VERTEX
  8
0
  5
10F1C
 10
325.605
 20
168.451
 30
0.000000
  70
    32
  0
VERTEX
  8
0
  5
10F1D
 10
325.731
 20
168.520
 30
0.000000
  70
    32
  0
VERTEX
  8
0
  5
10F1E
 10
325.855
 20
168.591
 30
0.000000
  70
    32
  0
VERTEX
  8
0
  5
10F1F
 10
325.976
 20
168.664
 30
0.000000
  70
    32
  0
VERTEX
  8
0
  5
10F20
 10
326.093
 20
168.738
 30
0.000000
  70
    32
  0
VERTEX
  8
0
  5
10F21
 10
326.207
 20
168.814
 30
0.000000
  70
    32
  0
VERTEX
  8
0
  5
10F22
 10
326.319
 20
168.892
 30
0.000000
  70
    32
  0
VERTEX
  8
0
  5
10F23
 10
326.426
 20
168.971
 30
0.000000
  70
    32
  0
VERTEX
  8
0
  5
10F24
 10
326.531
 20
169.051
 30
0.000000
  70
    32
  0
VERTEX
  8
0
  5
10F25
 10
326.632
 20
169.134
 30
0.000000
  70
    32
  0
VERTEX
  8
0
  5
10F26
 10
326.730
 20
169.217
 30
0.000000
  70
    32
  0
VERTEX
  8
0
  5
10F27
 10
326.824
 20
169.302
 30
0.000000
  70
    32
  0
VERTEX
  8
0
  5
10F28
 10
326.914
 20
169.389
 30
0.000000
  70
    32
  0
VERTEX
  8
0
  5
10F29
 10
327.001
 20
169.476
 30
0.000000
  70
    32
  0
VERTEX
  8
0
  5
10F2A
 10
327.084
 20
169.565
 30
0.000000
  70
    32
  0
VERTEX
  8
0
  5
10F2B
 10
327.164
 20
169.655
 30
0.000000
  70
    32
  0
VERTEX
  8
0
  5
10F2C
 10
327.239
 20
169.746
 30
0.000000
  70
    32
  0
VERTEX
  8
0
  5
10F2D
 10
327.311
 20
169.838
 30
0.000000
  70
    32
  0
VERTEX
  8
0
  5
10F2E
 10
327.379
 20
169.931
 30
0.000000
  70
    32
  0
VERTEX
  8
0
  5
10F2F
 10
327.443
 20
170.026
 30
0.000000
  70
    32
  0
VERTEX
  8
0
  5
10F30
 10
327.503
 20
170.121
 30
0.000000
  70
    32
  0
VERTEX
  8
0
  5
10F31
 10
327.559
 20
170.216
 30
0.000000
  70
    32
  0
VERTEX
  8
0
  5
10F32
 10
327.612
 20
170.313
 30
0.000000
  70
    32
  0
VERTEX
  8
0
  5
10F33
 10
327.660
 20
170.410
 30
0.000000
  70
    32
  0
VERTEX
  8
0
  5
10F34
 10
327.703
 20
170.508
 30
0.000000
  70
    32
  0
VERTEX
  8
0
  5
10F35
 10
327.743
 20
170.607
 30
0.000000
  70
    32
  0
VERTEX
  8
0
  5
10F36
 10
327.779
 20
170.706
 30
0.000000
  70
    32
  0
VERTEX
  8
0
  5
10F37
 10
327.810
 20
170.805
 30
0.000000
  70
    32
  0
VERTEX
  8
0
  5
10F38
 10
327.838
 20
170.905
 30
0.000000
  70
    32
  0
VERTEX
  8
0
  5
10F39
 10
327.861
 20
171.006
 30
0.000000
  70
    32
  0
VERTEX
  8
0
  5
10F3A
 10
327.880
 20
171.106
 30
0.000000
  70
    32
  0
VERTEX
  8
0
  5
10F3B
 10
327.894
 20
171.207
 30
0.000000
  70
    32
  0
VERTEX
  8
0
  5
10F3C
 10
327.905
 20
171.308
 30
0.000000
  70
    32
  0
VERTEX
  8
0
  5
10F3D
 10
327.911
 20
171.409
 30
0.000000
  70
    32
  0
VERTEX
  8
0
  5
10F3E
 10
327.913
 20
171.511
 30
0.000000
  70
    32
  0
SEQEND
  8
0
  5
10F3F
  0
POLYLINE
  5
EAED
  8
0
 10
324.91279924572859
 20
228.63013486452576
 30
0.0
 66
     1
 70
     8
  0
VERTEX
  8
0
  5
10F40
 10
324.913
 20
228.630
 30
0.000000
  70
    32
  0
VERTEX
  8
0
  5
10F41
 10
324.884
 20
228.683
 30
0.000000
  70
    32
  0
VERTEX
  8
0
  5
10F42
 10
324.853
 20
228.736
 30
0.000000
  70
    32
  0
VERTEX
  8
0
  5
10F43
 10
324.821
 20
228.788
 30
0.000000
  70
    32
  0
VERTEX
  8
0
  5
10F44
 10
324.788
 20
228.840
 30
0.000000
  70
    32
  0
VERTEX
  8
0
  5
10F45
 10
324.753
 20
228.891
 30
0.000000
  70
    32
  0
VERTEX
  8
0
  5
10F46
 10
324.717
 20
228.942
 30
0.000000
  70
    32
  0
VERTEX
  8
0
  5
10F47
 10
324.680
 20
228.993
 30
0.000000
  70
    32
  0
VERTEX
  8
0
  5
10F48
 10
324.641
 20
229.043
 30
0.000000
  70
    32
  0
VERTEX
  8
0
  5
10F49
 10
324.601
 20
229.092
 30
0.000000
  70
    32
  0
VERTEX
  8
0
  5
10F4A
 10
324.559
 20
229.141
 30
0.000000
  70
    32
  0
VERTEX
  8
0
  5
10F4B
 10
324.516
 20
229.189
 30
0.000000
  70
    32
  0
VERTEX
  8
0
  5
10F4C
 10
324.472
 20
229.237
 30
0.000000
  70
    32
  0
VERTEX
  8
0
  5
10F4D
 10
324.427
 20
229.284
 30
0.000000
  70
    32
  0
VERTEX
  8
0
  5
10F4E
 10
324.380
 20
229.331
 30
0.000000
  70
    32
  0
VERTEX
  8
0
  5
10F4F
 10
324.332
 20
229.376
 30
0.000000
  70
    32
  0
VERTEX
  8
0
  5
10F50
 10
324.283
 20
229.422
 30
0.000000
  70
    32
  0
VERTEX
  8
0
  5
10F51
 10
324.233
 20
229.466
 30
0.000000
  70
    32
  0
VERTEX
  8
0
  5
10F52
 10
324.181
 20
229.510
 30
0.000000
  70
    32
  0
VERTEX
  8
0
  5
10F53
 10
324.129
 20
229.553
 30
0.000000
  70
    32
  0
VERTEX
  8
0
  5
10F54
 10
324.075
 20
229.596
 30
0.000000
  70
    32
  0
VERTEX
  8
0
  5
10F55
 10
324.020
 20
229.638
 30
0.000000
  70
    32
  0
VERTEX
  8
0
  5
10F56
 10
323.964
 20
229.679
 30
0.000000
  70
    32
  0
VERTEX
  8
0
  5
10F57
 10
323.906
 20
229.719
 30
0.000000
  70
    32
  0
VERTEX
  8
0
  5
10F58
 10
323.848
 20
229.758
 30
0.000000
  70
    32
  0
VERTEX
  8
0
  5
10F59
 10
323.789
 20
229.797
 30
0.000000
  70
    32
  0
VERTEX
  8
0
  5
10F5A
 10
323.728
 20
229.835
 30
0.000000
  70
    32
  0
VERTEX
  8
0
  5
10F5B
 10
323.667
 20
229.872
 30
0.000000
  70
    32
  0
VERTEX
  8
0
  5
10F5C
 10
323.604
 20
229.908
 30
0.000000
  70
    32
  0
VERTEX
  8
0
  5
10F5D
 10
323.541
 20
229.944
 30
0.000000
  70
    32
  0
VERTEX
  8
0
  5
10F5E
 10
323.476
 20
229.978
 30
0.000000
  70
    32
  0
VERTEX
  8
0
  5
10F5F
 10
323.411
 20
230.012
 30
0.000000
  70
    32
  0
VERTEX
  8
0
  5
10F60
 10
323.345
 20
230.045
 30
0.000000
  70
    32
  0
VERTEX
  8
0
  5
10F61
 10
323.278
 20
230.077
 30
0.000000
  70
    32
  0
VERTEX
  8
0
  5
10F62
 10
323.210
 20
230.108
 30
0.000000
  70
    32
  0
VERTEX
  8
0
  5
10F63
 10
323.141
 20
230.138
 30
0.000000
  70
    32
  0
VERTEX
  8
0
  5
10F64
 10
323.072
 20
230.167
 30
0.000000
  70
    32
  0
VERTEX
  8
0
  5
10F65
 10
323.002
 20
230.195
 30
0.000000
  70
    32
  0
VERTEX
  8
0
  5
10F66
 10
322.930
 20
230.223
 30
0.000000
  70
    32
  0
VERTEX
  8
0
  5
10F67
 10
322.859
 20
230.249
 30
0.000000
  70
    32
  0
VERTEX
  8
0
  5
10F68
 10
322.786
 20
230.274
 30
0.000000
  70
    32
  0
VERTEX
  8
0
  5
10F69
 10
322.713
 20
230.299
 30
0.000000
  70
    32
  0
VERTEX
  8
0
  5
10F6A
 10
322.639
 20
230.322
 30
0.000000
  70
    32
  0
VERTEX
  8
0
  5
10F6B
 10
322.565
 20
230.345
 30
0.000000
  70
    32
  0
VERTEX
  8
0
  5
10F6C
 10
322.490
 20
230.366
 30
0.000000
  70
    32
  0
VERTEX
  8
0
  5
10F6D
 10
322.414
 20
230.387
 30
0.000000
  70
    32
  0
VERTEX
  8
0
  5
10F6E
 10
322.338
 20
230.406
 30
0.000000
  70
    32
  0
VERTEX
  8
0
  5
10F6F
 10
322.261
 20
230.425
 30
0.000000
  70
    32
  0
VERTEX
  8
0
  5
10F70
 10
322.184
 20
230.442
 30
0.000000
  70
    32
  0
VERTEX
  8
0
  5
10F71
 10
322.107
 20
230.459
 30
0.000000
  70
    32
  0
VERTEX
  8
0
  5
10F72
 10
322.029
 20
230.474
 30
0.000000
  70
    32
  0
VERTEX
  8
0
  5
10F73
 10
321.950
 20
230.488
 30
0.000000
  70
    32
  0
VERTEX
  8
0
  5
10F74
 10
321.871
 20
230.502
 30
0.000000
  70
    32
  0
VERTEX
  8
0
  5
10F75
 10
321.792
 20
230.514
 30
0.000000
  70
    32
  0
VERTEX
  8
0
  5
10F76
 10
321.713
 20
230.525
 30
0.000000
  70
    32
  0
VERTEX
  8
0
  5
10F77
 10
321.633
 20
230.535
 30
0.000000
  70
    32
  0
VERTEX
  8
0
  5
10F78
 10
321.553
 20
230.544
 30
0.000000
  70
    32
  0
VERTEX
  8
0
  5
10F79
 10
321.473
 20
230.552
 30
0.000000
  70
    32
  0
VERTEX
  8
0
  5
10F7A
 10
321.392
 20
230.559
 30
0.000000
  70
    32
  0
VERTEX
  8
0
  5
10F7B
 10
321.312
 20
230.565
 30
0.000000
  70
    32
  0
VERTEX
  8
0
  5
10F7C
 10
321.231
 20
230.569
 30
0.000000
  70
    32
  0
VERTEX
  8
0
  5
10F7D
 10
321.150
 20
230.573
 30
0.000000
  70
    32
  0
VERTEX
  8
0
  5
10F7E
 10
321.069
 20
230.576
 30
0.000000
  70
    32
  0
VERTEX
  8
0
  5
10F7F
 10
320.988
 20
230.577
 30
0.000000
  70
    32
  0
VERTEX
  8
0
  5
10F80
 10
320.907
 20
230.578
 30
0.000000
  70
    32
  0
VERTEX
  8
0
  5
10F81
 10
320.826
 20
230.577
 30
0.000000
  70
    32
  0
VERTEX
  8
0
  5
10F82
 10
320.745
 20
230.575
 30
0.000000
  70
    32
  0
VERTEX
  8
0
  5
10F83
 10
320.664
 20
230.572
 30
0.000000
  70
    32
  0
VERTEX
  8
0
  5
10F84
 10
320.583
 20
230.569
 30
0.000000
  70
    32
  0
VERTEX
  8
0
  5
10F85
 10
320.503
 20
230.564
 30
0.000000
  70
    32
  0
VERTEX
  8
0
  5
10F86
 10
320.422
 20
230.557
 30
0.000000
  70
    32
  0
VERTEX
  8
0
  5
10F87
 10
320.342
 20
230.550
 30
0.000000
  70
    32
  0
VERTEX
  8
0
  5
10F88
 10
320.262
 20
230.542
 30
0.000000
  70
    32
  0
VERTEX
  8
0
  5
10F89
 10
320.182
 20
230.533
 30
0.000000
  70
    32
  0
VERTEX
  8
0
  5
10F8A
 10
320.102
 20
230.523
 30
0.000000
  70
    32
  0
VERTEX
  8
0
  5
10F8B
 10
320.022
 20
230.511
 30
0.000000
  70
    32
  0
VERTEX
  8
0
  5
10F8C
 10
319.943
 20
230.499
 30
0.000000
  70
    32
  0
VERTEX
  8
0
  5
10F8D
 10
319.865
 20
230.485
 30
0.000000
  70
    32
  0
VERTEX
  8
0
  5
10F8E
 10
319.786
 20
230.471
 30
0.000000
  70
    32
  0
VERTEX
  8
0
  5
10F8F
 10
319.708
 20
230.455
 30
0.000000
  70
    32
  0
VERTEX
  8
0
  5
10F90
 10
319.631
 20
230.439
 30
0.000000
  70
    32
  0
VERTEX
  8
0
  5
10F91
 10
319.554
 20
230.421
 30
0.000000
  70
    32
  0
VERTEX
  8
0
  5
10F92
 10
319.477
 20
230.402
 30
0.000000
  70
    32
  0
VERTEX
  8
0
  5
10F93
 10
319.401
 20
230.383
 30
0.000000
  70
    32
  0
VERTEX
  8
0
  5
10F94
 10
319.326
 20
230.362
 30
0.000000
  70
    32
  0
VERTEX
  8
0
  5
10F95
 10
319.251
 20
230.340
 30
0.000000
  70
    32
  0
VERTEX
  8
0
  5
10F96
 10
319.177
 20
230.318
 30
0.000000
  70
    32
  0
VERTEX
  8
0
  5
10F97
 10
319.103
 20
230.294
 30
0.000000
  70
    32
  0
VERTEX
  8
0
  5
10F98
 10
319.030
 20
230.269
 30
0.000000
  70
    32
  0
VERTEX
  8
0
  5
10F99
 10
318.958
 20
230.244
 30
0.000000
  70
    32
  0
VERTEX
  8
0
  5
10F9A
 10
318.886
 20
230.217
 30
0.000000
  70
    32
  0
VERTEX
  8
0
  5
10F9B
 10
318.815
 20
230.189
 30
0.000000
  70
    32
  0
VERTEX
  8
0
  5
10F9C
 10
318.745
 20
230.161
 30
0.000000
  70
    32
  0
VERTEX
  8
0
  5
10F9D
 10
318.676
 20
230.132
 30
0.000000
  70
    32
  0
VERTEX
  8
0
  5
10F9E
 10
318.607
 20
230.101
 30
0.000000
  70
    32
  0
VERTEX
  8
0
  5
10F9F
 10
318.539
 20
230.070
 30
0.000000
  70
    32
  0
VERTEX
  8
0
  5
10FA0
 10
318.472
 20
230.038
 30
0.000000
  70
    32
  0
VERTEX
  8
0
  5
10FA1
 10
318.406
 20
230.005
 30
0.000000
  70
    32
  0
VERTEX
  8
0
  5
10FA2
 10
318.341
 20
229.971
 30
0.000000
  70
    32
  0
VERTEX
  8
0
  5
10FA3
 10
318.277
 20
229.936
 30
0.000000
  70
    32
  0
VERTEX
  8
0
  5
10FA4
 10
318.214
 20
229.901
 30
0.000000
  70
    32
  0
VERTEX
  8
0
  5
10FA5
 10
318.152
 20
229.864
 30
0.000000
  70
    32
  0
VERTEX
  8
0
  5
10FA6
 10
318.091
 20
229.827
 30
0.000000
  70
    32
  0
VERTEX
  8
0
  5
10FA7
 10
318.030
 20
229.789
 30
0.000000
  70
    32
  0
VERTEX
  8
0
  5
10FA8
 10
317.971
 20
229.750
 30
0.000000
  70
    32
  0
VERTEX
  8
0
  5
10FA9
 10
317.913
 20
229.710
 30
0.000000
  70
    32
  0
VERTEX
  8
0
  5
10FAA
 10
317.856
 20
229.670
 30
0.000000
  70
    32
  0
VERTEX
  8
0
  5
10FAB
 10
317.800
 20
229.629
 30
0.000000
  70
    32
  0
VERTEX
  8
0
  5
10FAC
 10
317.745
 20
229.587
 30
0.000000
  70
    32
  0
VERTEX
  8
0
  5
10FAD
 10
317.692
 20
229.544
 30
0.000000
  70
    32
  0
VERTEX
  8
0
  5
10FAE
 10
317.639
 20
229.501
 30
0.000000
  70
    32
  0
VERTEX
  8
0
  5
10FAF
 10
317.588
 20
229.457
 30
0.000000
  70
    32
  0
VERTEX
  8
0
  5
10FB0
 10
317.538
 20
229.412
 30
0.000000
  70
    32
  0
VERTEX
  8
0
  5
10FB1
 10
317.489
 20
229.367
 30
0.000000
  70
    32
  0
VERTEX
  8
0
  5
10FB2
 10
317.441
 20
229.321
 30
0.000000
  70
    32
  0
VERTEX
  8
0
  5
10FB3
 10
317.395
 20
229.274
 30
0.000000
  70
    32
  0
VERTEX
  8
0
  5
10FB4
 10
317.350
 20
229.227
 30
0.000000
  70
    32
  0
VERTEX
  8
0
  5
10FB5
 10
317.306
 20
229.179
 30
0.000000
  70
    32
  0
VERTEX
  8
0
  5
10FB6
 10
317.263
 20
229.131
 30
0.000000
  70
    32
  0
VERTEX
  8
0
  5
10FB7
 10
317.222
 20
229.082
 30
0.000000
  70
    32
  0
VERTEX
  8
0
  5
10FB8
 10
317.182
 20
229.032
 30
0.000000
  70
    32
  0
VERTEX
  8
0
  5
10FB9
 10
317.144
 20
228.982
 30
0.000000
  70
    32
  0
VERTEX
  8
0
  5
10FBA
 10
317.107
 20
228.932
 30
0.000000
  70
    32
  0
VERTEX
  8
0
  5
10FBB
 10
317.071
 20
228.881
 30
0.000000
  70
    32
  0
VERTEX
  8
0
  5
10FBC
 10
317.036
 20
228.829
 30
0.000000
  70
    32
  0
VERTEX
  8
0
  5
10FBD
 10
317.003
 20
228.777
 30
0.000000
  70
    32
  0
VERTEX
  8
0
  5
10FBE
 10
316.972
 20
228.725
 30
0.000000
  70
    32
  0
VERTEX
  8
0
  5
10FBF
 10
316.942
 20
228.672
 30
0.000000
  70
    32
  0
VERTEX
  8
0
  5
10FC0
 10
316.913
 20
228.619
 30
0.000000
  70
    32
  0
SEQEND
  8
0
  5
10FC1
  0
POLYLINE
  5
EAEE
  8
0
 66
     1
 10
0.0
 20
0.0
 30
0.0
  0
VERTEX
  5
10BF0
  8
0
 10
324.91279924572882
 20
228.6301348645257
 30
0.0
  0
VERTEX
  5
10BF1
  8
0
 10
325.08521914085759
 20
228.2788727042302
 30
0.0
  0
VERTEX
  5
10BF2
  8
0
 10
325.14597492860412
 20
228.01166416997509
 30
0.0
  0
VERTEX
  5
10BF3
  8
0
 10
325.17739462536701
 20
227.74493186173589
 30
0.0
  0
VERTEX
  5
10BF4
  8
0
 10
325.14789952848241
 20
227.5487108483197
 30
0.0
  0
VERTEX
  5
10BF5
  8
0
 10
325.10354408780489
 20
227.4428646593191
 30
0.0
  0
VERTEX
  5
10BF6
  8
0
 10
325.01530087963692
 20
227.32511844947331
 30
0.0
  0
VERTEX
  5
10BF7
  8
0
 10
324.91279924572842
 20
227.23815912463539
 30
0.0
  0
SEQEND
  5
10BF8
  8
0
  0
POLYLINE
  5
EAEF
  8
0
 66
     1
 10
0.0
 20
0.0
 30
0.0
  0
VERTEX
  5
10BF9
  8
0
 10
316.91279793442573
 20
228.6301348645257
 30
0.0
  0
VERTEX
  5
10BFA
  8
0
 10
316.7403780392969
 20
228.2788727042302
 30
0.0
  0
VERTEX
  5
10BFB
  8
0
 10
316.67962225155043
 20
228.01166416997509
 30
0.0
  0
VERTEX
  5
10BFC
  8
0
 10
316.64820255478747
 20
227.74493186173589
 30
0.0
  0
VERTEX
  5
10BFD
  8
0
 10
316.67769765167208
 20
227.5487108483197
 30
0.0
  0
VERTEX
  5
10BFE
  8
0
 10
316.7220530923496
 20
227.4428646593191
 30
0.0
  0
VERTEX
  5
10BFF
  8
0
 10
316.81029630051762
 20
227.32511844947331
 30
0.0
  0
VERTEX
  5
10C00
  8
0
 10
316.91279793442618
 20
227.23815912463539
 30
0.0
  0
SEQEND
  5
10C01
  8
0
  0
ARC
  5
EAF0
  8
0
 10
320.91055769898782
 20
245.82144821495251
 30
0.0
 40
4.2736833824889731
 50
187.14957831620251
 51
353.44807786166501
  0
POLYLINE
  5
EAF1
  8
0
 66
     1
 10
0.0
 20
0.0
 30
0.0
 70
   130
  0
VERTEX
  5
EAF2
  8
0
 10
325.15632906373679
 20
245.3338057516236
 30
0.0
 42
0.0122542547158862
  0
VERTEX
  5
EAF3
  8
0
 10
325.16543253413238
 20
245.51757080561171
 30
0.0
 42
0.0300251108820151
 70
     1
  0
VERTEX
  5
EAF4
  8
0
 10
325.16279975236779
 20
245.59267373838301
 30
0.0
 42
0.0047652579015361
  0
VERTEX
  5
EAF5
  8
0
 10
325.12796990408469
 20
245.92442724962751
 30
0.0
 42
0.0111887452228918
 70
     1
  0
VERTEX
  5
EAF6
  8
0
 10
325.10863406002869
 20
246.06518950063261
 30
0.0
 42
0.0104988450404194
  0
VERTEX
  5
EAF7
  8
0
 10
325.05954867251597
 20
246.335111739279
 30
0.0
 42
0.0179223965381954
 70
     1
  0
VERTEX
  5
EAF8
  8
0
 10
325.02185088324222
 20
246.49137494635161
 30
0.0
 42
0.0177783218052356
  0
VERTEX
  5
EAF9
  8
0
 10
324.97878872378902
 20
246.62668349426929
 30
0.0
 42
0.0129476083166114
 70
     1
  0
VERTEX
  5
EAFA
  8
0
 10
324.90837314155488
 20
246.8084666741415
 30
0.0
 42
0.0148586459841528
  0
VERTEX
  5
EAFB
  8
0
 10
324.8426645706586
 20
246.9535859790553
 30
0.0
 42
0.0121591903451474
 70
     1
  0
VERTEX
  5
EAFC
  8
0
 10
324.75291453098731
 20
247.12631525430831
 30
0.0
 42
0.0268598501278955
  0
VERTEX
  5
EAFD
  8
0
 10
324.64369502532548
 20
247.30160086023349
 30
0.0
 42
0.0230712169684585
 70
     1
  0
VERTEX
  5
EAFE
  8
0
 10
324.49686032571208
 20
247.49194448667501
 30
0.0
 42
0.0257508511238402
  0
VERTEX
  5
EAFF
  8
0
 10
324.31417869325469
 20
247.68620358085349
 30
0.0
 42
0.0203806512774659
 70
     1
  0
VERTEX
  5
EB00
  8
0
 10
324.06179595913642
 20
247.9092883989687
 30
0.0
 42
0.0118079086845454
  0
VERTEX
  5
EB01
  8
0
 10
323.85913805784639
 20
248.06640548629039
 30
0.0
 42
0.0141081400832882
 70
     1
  0
VERTEX
  5
EB02
  8
0
 10
323.68292684828612
 20
248.1889493639587
 30
0.0
 42
0.0220278826842408
  0
VERTEX
  5
EB03
  8
0
 10
323.45083823575891
 20
248.32662111232
 30
0.0
 42
0.0154327828562308
 70
     1
  0
VERTEX
  5
EB04
  8
0
 10
323.1058755725453
 20
248.49773978510839
 30
0.0
 42
0.0207240720449826
  0
VERTEX
  5
EB05
  8
0
 10
322.7952867038257
 20
248.62474754649739
 30
0.0
 42
0.0184994963780008
 70
     1
  0
VERTEX
  5
EB06
  8
0
 10
322.43730171497828
 20
248.73931743613181
 30
0.0
 42
0.0262358566743977
  0
VERTEX
  5
EB07
  8
0
 10
321.98649993511299
 20
248.8402607237156
 30
0.0
 42
0.0229242911714714
 70
     1
  0
VERTEX
  5
EB08
  8
0
 10
321.46181501242518
 20
248.9045840421613
 30
0.0
 42
0.0138858963611788
  0
VERTEX
  5
EB09
  8
0
 10
320.98740385751529
 20
248.92755156694369
 30
0.0
 42
0.0201406187126542
 70
     1
  0
VERTEX
  5
EB0A
  8
0
 10
320.6599329461996
 20
248.92110909813019
 30
0.0
 42
0.0132376637372535
  0
VERTEX
  5
EB0B
  8
0
 10
320.31945380482011
 20
248.8916112683174
 30
0.0
 42
0.0132588724589247
 70
     1
  0
VERTEX
  5
EB0C
  8
0
 10
319.98155610400499
 20
248.84419724252851
 30
0.0
 42
0.0151399914424939
  0
VERTEX
  5
EB0D
  8
0
 10
319.6346381679104
 20
248.77524336171169
 30
0.0
 42
0.0121804169559156
 70
     1
  0
VERTEX
  5
EB0E
  8
0
 10
319.2087852076184
 20
248.66612341237681
 30
0.0
 42
0.0206237771127015
  0
VERTEX
  5
EB0F
  8
0
 10
318.83259336289029
 20
248.5429407796131
 30
0.0
 42
0.0240318347378954
 70
     1
  0
VERTEX
  5
EB10
  8
0
 10
318.52041697385363
 20
248.4088377118737
 30
0.0
 42
0.0280878131129802
  0
VERTEX
  5
EB11
  8
0
 10
318.22850221741601
 20
248.2455701548366
 30
0.0
 42
0.0240603253434206
 70
     1
  0
VERTEX
  5
EB12
  8
0
 10
317.90947935714212
 20
248.0205860761682
 30
0.0
 42
0.01488630090834
  0
VERTEX
  5
EB13
  8
0
 10
317.70453788768458
 20
247.85071280675049
 30
0.0
 42
0.0135714717028514
 70
     1
  0
VERTEX
  5
EB14
  8
0
 10
317.49071194426602
 20
247.6519043692833
 30
0.0
 42
0.0282006120815871
  0
VERTEX
  5
EB15
  8
0
 10
317.26923314229413
 20
247.40848987282419
 30
0.0
 42
0.0284965612251486
 70
     1
  0
VERTEX
  5
EB16
  8
0
 10
317.07870757061761
 20
247.144351340642
 30
0.0
 42
0.0410828719033552
  0
VERTEX
  5
EB17
  8
0
 10
316.92388986057949
 20
246.85113003994039
 30
0.0
 42
0.0341909755900677
 70
     1
  0
VERTEX
  5
EB18
  8
0
 10
316.79285180938678
 20
246.47509358924151
 30
0.0
 42
0.0199398065221257
  0
VERTEX
  5
EB19
  8
0
 10
316.74730976585209
 20
246.27800034326489
 30
0.0
 42
0.0091094985744887
 70
     1
  0
VERTEX
  5
EB1A
  8
0
 10
316.67286243696748
 20
245.84165957755459
 30
0.0
 42
0.036459971594578
  0
VERTEX
  5
EB1B
  8
0
 10
316.65712343795622
 20
245.63998579706771
 30
0.0
 42
0.0210129433912686
 70
     1
  0
VERTEX
  5
EB1C
  8
0
 10
316.67010385685262
 20
245.28954515378339
 30
0.0
  0
SEQEND
  5
EB1D
  8
0
  0
LINE
  5
EB1E
  8
1
 10
320.91800777219669
 20
244.4387022321408
 30
0.0
 11
320.91800777219669
 21
162.72134285845581
 31
0.0
  0
LINE
  5
EB20
  8
0
 10
327.91279787482148
 20
118.7078012434918
 30
0.0
 11
327.91279787482148
 21
126.229519983955
 31
0.0
  0
LINE
  5
EB21
  8
0
 10
313.91279930533301
 20
126.229519983955
 30
0.0
 11
313.91279930533301
 21
118.7078012434918
 31
0.0
  0
LINE
  5
EB22
  8
0
 10
314.11084691347008
 20
117.27598219198759
 30
0.0
 11
315.45380289019482
 21
112.4911336509663
 31
0.0
  0
LINE
  5
EB23
  8
0
 10
326.37179428995978
 20
112.4911336509663
 30
0.0
 11
327.7147502666844
 21
117.27598219198759
 31
0.0
  0
LINE
  5
EB24
  8
0
 10
316.91279793442618
 20
101.207814207502
 30
0.0
 11
316.91279793442618
 21
92.431882733257027
 31
0.0
  0
LINE
  5
EB25
  8
0
 10
316.91279793442618
 20
110.2987457817038
 30
0.0
 11
316.91279793442618
 21
105.20781113786281
 31
0.0
  0
LINE
  5
EB26
  8
0
 10
324.91279924572842
 20
105.20781113786281
 30
0.0
 11
324.91279924572842
 21
110.25905910926519
 31
0.0
  0
LINE
  5
EB27
  8
0
 10
324.91279924572842
 20
92.367547116980674
 30
0.0
 11
324.91279924572842
 21
101.207814207502
 31
0.0
  0
LINE
  5
EB28
  8
0
 10
325.91279754699599
 20
74.207812575824875
 30
0.0
 11
326.91279957355391
 21
75.207812739737633
 31
0.0
  0
LINE
  5
EB29
  8
0
 10
326.91279957355391
 20
99.207812017031344
 30
0.0
 11
325.91279754699599
 21
100.2078121809441
 31
0.0
  0
LINE
  5
EB2A
  8
0
 10
315.9127996331585
 20
100.2078121809441
 30
0.0
 11
314.91279760660058
 21
99.207812017031344
 31
0.0
  0
LINE
  5
EB2B
  8
0
 10
314.91279760660058
 20
75.207812739737633
 30
0.0
 11
315.9127996331585
 21
74.207812575824875
 31
0.0
  0
LINE
  5
EB2C
  8
0
 10
315.9127996331585
 20
74.207812575824875
 30
0.0
 11
325.91279754699599
 21
74.207812575824875
 31
0.0
  0
LINE
  5
EB2D
  8
0
 10
325.91279754699599
 20
100.2078121809441
 30
0.0
 11
324.91279924572842
 21
100.2078121809441
 31
0.0
  0
LINE
  5
EB2E
  8
0
 10
316.91279793442618
 20
100.2078121809441
 30
0.0
 11
315.9127996331585
 21
100.2078121809441
 31
0.0
  0
LINE
  5
EB2F
  8
0
 10
327.91279787482148
 20
126.229519983955
 30
0.0
 11
327.91033918322449
 21
126.0688035098988
 31
0.0
  0
POLYLINE
  5
EB30
  8
0
 66
     1
 10
0.0
 20
0.0
 30
0.0
 70
   128
  0
VERTEX
  5
10C02
  8
0
 10
327.91279787482148
 20
118.7078012434918
 30
0.0
  0
VERTEX
  5
10C03
  8
0
 10
327.89511764706498
 20
118.277213564344
 30
0.0
  0
VERTEX
  5
10C04
  8
0
 10
327.73137623728638
 20
117.3365777639824
 30
0.0
  0
VERTEX
  5
10C05
  8
0
 10
327.39973599375622
 20
116.4297042695957
 30
0.0
  0
VERTEX
  5
10C06
  8
0
 10
326.90836647809869
 20
115.5789261965233
 30
0.0
  0
VERTEX
  5
10C07
  8
0
 10
326.26936743320363
 20
114.8051908521134
 30
0.0
  0
VERTEX
  5
10C08
  8
0
 10
325.498470760001
 20
114.1275493709522
 30
0.0
  0
VERTEX
  5
10C09
  8
0
 10
324.6146605378521
 20
113.5626910535771
 30
0.0
  0
VERTEX
  5
10C0A
  8
0
 10
323.6396961873902
 20
113.12452240867199
 30
0.0
  0
VERTEX
  5
10C0B
  8
0
 10
322.59758720458871
 20
112.8238318769413
 30
0.0
  0
VERTEX
  5
10C0C
  8
0
 10
321.5139971143139
 20
112.6680216102081
 30
0.0
  0
VERTEX
  5
10C0D
  8
0
 10
320.4155989951027
 20
112.6609361080605
 30
0.0
  0
VERTEX
  5
10C0E
  8
0
 10
319.3294459051026
 20
112.80273928327141
 30
0.0
  0
VERTEX
  5
10C0F
  8
0
 10
318.2822779780758
 20
113.0899479894119
 30
0.0
  0
VERTEX
  5
10C10
  8
0
 10
317.29988167346841
 20
113.5154879002052
 30
0.0
  0
VERTEX
  5
10C11
  8
0
 10
316.40644902647858
 20
114.06887604875151
 30
0.0
  0
VERTEX
  5
10C12
  8
0
 10
315.6239778763188
 20
114.73649277371941
 30
0.0
  0
VERTEX
  5
10C13
  8
0
 10
314.9717354244126
 20
115.5018946437317
 30
0.0
  0
VERTEX
  5
10C14
  8
0
 10
314.4657813972367
 20
116.34623914045871
 30
0.0
  0
VERTEX
  5
10C15
  8
0
 10
314.11857316554909
 20
117.2487316934544
 30
0.0
  0
VERTEX
  5
10C16
  8
0
 10
313.93866399587517
 20
118.18715094608839
 30
0.0
  0
VERTEX
  5
10C17
  8
0
 10
313.91279930533301
 20
118.7078012434918
 30
0.0
  0
SEQEND
  5
10C18
  8
0
  0
LINE
  5
EB31
  8
0
 10
326.37179428995978
 20
112.4911336509663
 30
0.0
 11
326.19471261562239
 21
111.9828550426441
 31
0.0
  0
LINE
  5
EB32
  8
0
 10
315.45380289019482
 20
112.4911336509663
 30
0.0
 11
315.43174544633757
 21
112.57278828901831
 31
0.0
  0
ARC
  5
EB33
  8
0
 10
320.02268993723152
 20
105.22194207493069
 30
0.0
 40
3.1099241071919992
 50
180.26034263625019
 51
212.94281634029539
  0
ARC
  5
EB34
  8
0
 10
319.985883499588
 20
101.20781327617939
 30
0.0
 40
3.071362550601564
 50
146.90501016306521
 51
213.09498983693479
  0
LINE
  5
EB35
  8
0
 10
317.41279894770508
 20
99.530761158295306
 30
0.0
 11
317.41279894770508
 21
103.53075995130121
 31
0.0
  0
ARC
  5
EB36
  8
0
 10
321.80290724292308
 20
105.22194207493069
 30
0.0
 40
3.1099241071919992
 50
327.05718365970472
 51
359.73965736375629
  0
LINE
  5
EB37
  8
0
 10
324.4127982324494
 20
103.53075995130121
 30
0.0
 11
324.4127982324494
 21
99.530761158295306
 31
0.0
  0
ARC
  5
EB38
  8
0
 10
321.83971368056649
 20
101.20781327617939
 30
0.0
 40
3.071362550601612
 50
326.90501016306519
 51
33.094989836934822
  0
LINE
  5
EB39
  8
0
 10
325.91279754699599
 20
74.207812575824875
 30
0.0
 11
325.91279754699599
 21
100.2078121809441
 31
0.0
  0
LINE
  5
EB3A
  8
0
 10
326.91279957355391
 20
99.207812017031344
 30
0.0
 11
326.91279957355391
 21
75.207812739737633
 31
0.0
  0
LINE
  5
EB3B
  8
0
 10
314.91279760660058
 20
75.207812739737591
 30
0.0
 11
314.91279760660058
 21
99.207812017031344
 31
0.0
  0
LINE
  5
EB3C
  8
0
 10
315.9127996331585
 20
100.2078121809441
 30
0.0
 11
315.9127996331585
 21
74.207812575824875
 31
0.0
  0
POLYLINE
  5
EB3D
  8
0
 66
     1
 10
0.0
 20
0.0
 30
0.0
 70
   128
  0
VERTEX
  5
10C19
  8
0
 10
320.91279859007727
 20
74.690507753022331
 30
0.0
  0
VERTEX
  5
10C1A
  8
0
 10
321.76831895769959
 20
74.734006570853609
 30
0.0
  0
VERTEX
  5
10C1B
  8
0
 10
322.58881042064559
 20
74.862722335584763
 30
0.0
  0
VERTEX
  5
10C1C
  8
0
 10
323.3406894868744
 20
75.071385624088663
 30
0.0
  0
VERTEX
  5
10C1D
  8
0
 10
323.9931666320694
 20
75.351452948727029
 30
0.0
  0
VERTEX
  5
10C1E
  8
0
 10
324.51953525008088
 20
75.691459262945074
 30
0.0
  0
VERTEX
  5
10C1F
  8
0
 10
324.89824453653227
 20
76.077484088220004
 30
0.0
  0
VERTEX
  5
10C20
  8
0
 10
325.07626751542688
 20
76.399941161605824
 30
0.0
  0
SEQEND
  5
10C21
  8
0
  0
ARC
  5
EB3E
  8
0
 10
320.38857084457283
 20
79.335837354719303
 30
0.0
 40
4.674815700919023
 50
218.88562810868561
 51
276.43861686299579
  0
POLYLINE
  5
EB3F
  8
0
 66
     1
 10
0.0
 20
0.0
 30
0.0
 70
   128
  0
VERTEX
  5
10C22
  8
0
 10
320.91279859007727
 20
75.365508003361839
 30
0.0
  0
VERTEX
  5
10C23
  8
0
 10
321.63399989069831
 20
75.411062250115293
 30
0.0
  0
VERTEX
  5
10C24
  8
0
 10
322.30988303483849
 20
75.544863036103862
 30
0.0
  0
VERTEX
  5
10C25
  8
0
 10
322.89798343838578
 20
75.758503312446493
 30
0.0
  0
VERTEX
  5
10C26
  8
0
 10
323.36134994686972
 20
76.038558995552677
 30
0.0
  0
VERTEX
  5
10C27
  8
0
 10
323.67086196602708
 20
76.367433211036342
 30
0.0
  0
VERTEX
  5
10C28
  8
0
 10
323.80707720579039
 20
76.724461773611921
 30
0.0
  0
VERTEX
  5
10C29
  8
0
 10
323.76143122376328
 20
77.087210519440774
 30
0.0
  0
VERTEX
  5
10C2A
  8
0
 10
323.53679621876609
 20
77.432887656815666
 30
0.0
  0
VERTEX
  5
10C2B
  8
0
 10
323.1472873157395
 20
77.739772414990085
 30
0.0
  0
VERTEX
  5
10C2C
  8
0
 10
322.61737594665419
 20
77.988582691379193
 30
0.0
  0
VERTEX
  5
10C2D
  8
0
 10
321.9803587561978
 20
78.163683442600373
 30
0.0
  0
VERTEX
  5
10C2E
  8
0
 10
321.27626398862731
 20
78.254073886402253
 30
0.0
  0
VERTEX
  5
10C2F
  8
0
 10
320.54933319152718
 20
78.254073886402253
 30
0.0
  0
VERTEX
  5
10C30
  8
0
 10
319.84523842395669
 20
78.163683442600373
 30
0.0
  0
VERTEX
  5
10C31
  8
0
 10
319.2082212335003
 20
77.988582691379193
 30
0.0
  0
VERTEX
  5
10C32
  8
0
 10
318.67830986441498
 20
77.739772414990085
 30
0.0
  0
VERTEX
  5
10C33
  8
0
 10
318.2888009613884
 20
77.432887656815666
 30
0.0
  0
VERTEX
  5
10C34
  8
0
 10
318.06416595639121
 20
77.087210519440774
 30
0.0
  0
VERTEX
  5
10C35
  8
0
 10
318.0185199743641
 20
76.724461773611921
 30
0.0
  0
VERTEX
  5
10C36
  8
0
 10
318.15473521412741
 20
76.367433211036342
 30
0.0
  0
VERTEX
  5
10C37
  8
0
 10
318.46424723328482
 20
76.038558995552677
 30
0.0
  0
VERTEX
  5
10C38
  8
0
 10
318.92761374176871
 20
75.758503312446493
 30
0.0
  0
VERTEX
  5
10C39
  8
0
 10
319.515714145316
 20
75.544863036103862
 30
0.0
  0
VERTEX
  5
10C3A
  8
0
 10
320.19159728945618
 20
75.411062250115293
 30
0.0
  0
VERTEX
  5
10C3B
  8
0
 10
320.91279859007727
 20
75.365508003361839
 30
0.0
  0
SEQEND
  5
10C3C
  8
0
  0
POLYLINE
  5
EB40
  8
0
 66
     1
 10
0.0
 20
0.0
 30
0.0
 70
   128
  0
VERTEX
  5
10C3D
  8
0
 10
320.91279859007727
 20
76.458327966012376
 30
0.0
  0
VERTEX
  5
10C3E
  8
0
 10
321.5044380194081
 20
76.500860536672491
 30
0.0
  0
VERTEX
  5
10C3F
  8
0
 10
322.04814413846861
 20
76.625011889465469
 30
0.0
  0
VERTEX
  5
10C40
  8
0
 10
322.49987284006011
 20
76.820724206246751
 30
0.0
  0
VERTEX
  5
10C41
  8
0
 10
322.82302687229048
 20
77.072142651506084
 30
0.0
  0
VERTEX
  5
10C42
  8
0
 10
322.9914248949421
 20
77.358897803552765
 30
0.0
  0
VERTEX
  5
10C43
  8
0
 10
322.9914248949421
 20
77.657758286424297
 30
0.0
  0
VERTEX
  5
10C44
  8
0
 10
322.8740894264115
 20
77.8836058734137
 30
0.0
  0
SEQEND
  5
10C45
  8
0
  0
POLYLINE
  5
EB41
  8
0
 66
     1
 10
0.0
 20
0.0
 30
0.0
 70
   128
  0
VERTEX
  5
10C46
  8
0
 10
318.95150775374299
 20
77.8836058734137
 30
0.0
  0
VERTEX
  5
10C47
  8
0
 10
318.83417228521239
 20
77.657758286424297
 30
0.0
  0
VERTEX
  5
10C48
  8
0
 10
318.83417228521239
 20
77.358897803552765
 30
0.0
  0
VERTEX
  5
10C49
  8
0
 10
319.002570307864
 20
77.072142651506084
 30
0.0
  0
VERTEX
  5
10C4A
  8
0
 10
319.32572434009438
 20
76.820724206246751
 30
0.0
  0
VERTEX
  5
10C4B
  8
0
 10
319.77745304168587
 20
76.625011889465469
 30
0.0
  0
VERTEX
  5
10C4C
  8
0
 10
320.32115916074639
 20
76.500860536672491
 30
0.0
  0
VERTEX
  5
10C4D
  8
0
 10
320.91279859007727
 20
76.458327966012376
 30
0.0
  0
SEQEND
  5
10C4E
  8
0
  0
POLYLINE
  5
EB42
  8
0
 66
     1
 10
0.0
 20
0.0
 30
0.0
 70
   128
  0
VERTEX
  5
10C4F
  8
0
 10
324.80926970304381
 20
130.84705083651119
 30
0.0
  0
VERTEX
  5
10C50
  8
0
 10
325.53596953214537
 20
130.21907120031889
 30
0.0
  0
VERTEX
  5
10C51
  8
0
 10
326.12966904701119
 20
129.49376462978901
 30
0.0
  0
VERTEX
  5
10C52
  8
0
 10
326.57329151691329
 20
128.69200020117341
 30
0.0
  0
VERTEX
  5
10C53
  8
0
 10
326.8540703719986
 20
127.83683746141971
 30
0.0
  0
VERTEX
  5
10C54
  8
0
 10
326.9639291829003
 20
126.9528819529492
 30
0.0
  0
VERTEX
  5
10C55
  8
0
 10
326.89970890344512
 20
126.0655625073391
 30
0.0
  0
VERTEX
  5
10C56
  8
0
 10
326.66325355233079
 20
125.2004048137146
 30
0.0
  0
VERTEX
  5
10C57
  8
0
 10
326.26137296022313
 20
124.38230126185
 30
0.0
  0
VERTEX
  5
10C58
  8
0
 10
325.70561925233733
 20
123.63478078527029
 30
0.0
  0
VERTEX
  5
10C59
  8
0
 10
325.01198882521521
 20
122.97935321015891
 30
0.0
  0
VERTEX
  5
10C5A
  8
0
 10
324.20042688311469
 20
122.43487595600659
 30
0.0
  0
VERTEX
  5
10C5B
  8
0
 10
323.29429099620711
 20
122.01700641793791
 30
0.0
  0
VERTEX
  5
10C5C
  8
0
 10
322.31963957013022
 20
121.7377698330361
 30
0.0
  0
VERTEX
  5
10C5D
  8
0
 10
321.30452031554108
 20
121.6051979271847
 30
0.0
  0
VERTEX
  5
10C5E
  8
0
 10
320.27812833250891
 20
121.6231053976494
 30
0.0
  0
VERTEX
  5
10C5F
  8
0
 10
319.26999772251969
 20
121.790978154369
 30
0.0
  0
VERTEX
  5
10C60
  8
0
 10
318.30912241996663
 20
122.1039844958264
 30
0.0
  0
VERTEX
  5
10C61
  8
0
 10
317.42315525473492
 20
122.5531203953701
 30
0.0
  0
VERTEX
  5
10C62
  8
0
 10
316.63757721246611
 20
123.12546654624521
 30
0.0
  0
VERTEX
  5
10C63
  8
0
 10
315.97498962940108
 20
123.8045534400421
 30
0.0
  0
VERTEX
  5
10C64
  8
0
 10
315.4544510907067
 20
124.570849379726
 30
0.0
  0
VERTEX
  5
10C65
  8
0
 10
315.09094471396338
 20
125.40231182260089
 30
0.0
  0
VERTEX
  5
10C66
  8
0
 10
314.89491621316802
 20
126.2750132290798
 30
0.0
  0
VERTEX
  5
10C67
  8
0
 10
314.87201685370343
 20
127.16385259313159
 30
0.0
  0
VERTEX
  5
10C68
  8
0
 10
315.02289483608138
 20
128.04325952214779
 30
0.0
  0
VERTEX
  5
10C69
  8
0
 10
315.34321764768492
 20
128.88793184442099
 30
0.0
  0
VERTEX
  5
10C6A
  8
0
 10
315.82376892031562
 20
129.67357321662479
 30
0.0
  0
VERTEX
  5
10C6B
  8
0
 10
316.4507203763855
 20
130.3775823025185
 30
0.0
  0
VERTEX
  5
10C6C
  8
0
 10
317.20603416026961
 20
130.9797046987492
 30
0.0
  0
VERTEX
  5
10C6D
  8
0
 10
318.06798810423737
 20
131.46262153071939
 30
0.0
  0
VERTEX
  5
10C6E
  8
0
 10
319.0117829507721
 20
131.81243374032559
 30
0.0
  0
VERTEX
  5
10C6F
  8
0
 10
320.01026505888831
 20
132.01908304376181
 30
0.0
  0
VERTEX
  5
10C70
  8
0
 10
321.03471244038468
 20
132.07662387771191
 30
0.0
  0
VERTEX
  5
10C71
  8
0
 10
322.05565059842002
 20
131.9833947627026
 30
0.0
  0
VERTEX
  5
10C72
  8
0
 10
323.04371306957142
 20
131.7420853583294
 30
0.0
  0
VERTEX
  5
10C73
  8
0
 10
323.97047216357117
 20
131.35963588041841
 30
0.0
  0
VERTEX
  5
10C74
  8
0
 10
324.80926970304381
 20
130.84705083651119
 30
0.0
  0
SEQEND
  5
10C75
  8
0
  0
POLYLINE
  5
EB43
  8
0
 66
     1
 10
0.0
 20
0.0
 30
0.0
 70
   128
  0
VERTEX
  5
10C76
  8
0
 10
327.91033918322449
 20
126.0688035098988
 30
0.0
  0
VERTEX
  5
10C77
  8
0
 10
327.89511764706498
 20
125.79893230480729
 30
0.0
  0
VERTEX
  5
10C78
  8
0
 10
327.73137623728638
 20
124.8582965044457
 30
0.0
  0
VERTEX
  5
10C79
  8
0
 10
327.39973599375622
 20
123.951423010059
 30
0.0
  0
VERTEX
  5
10C7A
  8
0
 10
326.90836647809869
 20
123.1006449369866
 30
0.0
  0
VERTEX
  5
10C7B
  8
0
 10
326.26936743320363
 20
122.3269095925766
 30
0.0
  0
VERTEX
  5
10C7C
  8
0
 10
325.498470760001
 20
121.64926811141549
 30
0.0
  0
VERTEX
  5
10C7D
  8
0
 10
324.6146605378521
 20
121.0844097940403
 30
0.0
  0
VERTEX
  5
10C7E
  8
0
 10
323.6396961873902
 20
120.64624114913519
 30
0.0
  0
VERTEX
  5
10C7F
  8
0
 10
322.59758720458871
 20
120.3455506174046
 30
0.0
  0
VERTEX
  5
10C80
  8
0
 10
321.5139971143139
 20
120.1897403506714
 30
0.0
  0
VERTEX
  5
10C81
  8
0
 10
320.4155989951027
 20
120.1826548485237
 30
0.0
  0
VERTEX
  5
10C82
  8
0
 10
319.3294459051026
 20
120.32445802373471
 30
0.0
  0
VERTEX
  5
10C83
  8
0
 10
318.2822779780758
 20
120.6116667298752
 30
0.0
  0
VERTEX
  5
10C84
  8
0
 10
317.29988167346841
 20
121.0372066406685
 30
0.0
  0
VERTEX
  5
10C85
  8
0
 10
316.40644902647858
 20
121.59059478921471
 30
0.0
  0
VERTEX
  5
10C86
  8
0
 10
315.6239778763188
 20
122.2582115141827
 30
0.0
  0
VERTEX
  5
10C87
  8
0
 10
314.9717354244126
 20
123.023613384195
 30
0.0
  0
VERTEX
  5
10C88
  8
0
 10
314.4657813972367
 20
123.86795788092191
 30
0.0
  0
VERTEX
  5
10C89
  8
0
 10
314.11857316554909
 20
124.7704504339176
 30
0.0
  0
VERTEX
  5
10C8A
  8
0
 10
313.93866399587517
 20
125.70886968655169
 30
0.0
  0
VERTEX
  5
10C8B
  8
0
 10
313.91299674571877
 20
126.2751138119179
 30
0.0
  0
SEQEND
  5
10C8C
  8
0
  0
ARC
  5
EB44
  8
0
 10
320.9340188305332
 20
114.5564581346329
 30
0.0
 40
5.8564777789702038
 50
200.6498799285892
 51
333.93148967221902
  0
POLYLINE
  5
EB45
  8
0
 10
327.89399693440004
 20
125.7924942116212
 30
0.0
 66
     1
 70
     8
  0
VERTEX
  8
0
  5
10FC2
 10
327.894
 20
125.792
 30
0.000000
  70
    32
  0
VERTEX
  8
0
  5
10FC3
 10
327.905
 20
125.953
 30
0.000000
  70
    32
  0
VERTEX
  8
0
  5
10FC4
 10
327.911
 20
126.113
 30
0.000000
  70
    32
  0
VERTEX
  8
0
  5
10FC5
 10
327.913
 20
126.273
 30
0.000000
  70
    32
  0
VERTEX
  8
0
  5
10FC6
 10
327.910
 20
126.433
 30
0.000000
  70
    32
  0
VERTEX
  8
0
  5
10FC7
 10
327.902
 20
126.594
 30
0.000000
  70
    32
  0
VERTEX
  8
0
  5
10FC8
 10
327.890
 20
126.754
 30
0.000000
  70
    32
  0
VERTEX
  8
0
  5
10FC9
 10
327.872
 20
126.913
 30
0.000000
  70
    32
  0
VERTEX
  8
0
  5
10FCA
 10
327.851
 20
127.072
 30
0.000000
  70
    32
  0
VERTEX
  8
0
  5
10FCB
 10
327.824
 20
127.231
 30
0.000000
  70
    32
  0
VERTEX
  8
0
  5
10FCC
 10
327.793
 20
127.389
 30
0.000000
  70
    32
  0
VERTEX
  8
0
  5
10FCD
 10
327.758
 20
127.546
 30
0.000000
  70
    32
  0
VERTEX
  8
0
  5
10FCE
 10
327.718
 20
127.703
 30
0.000000
  70
    32
  0
VERTEX
  8
0
  5
10FCF
 10
327.673
 20
127.858
 30
0.000000
  70
    32
  0
VERTEX
  8
0
  5
10FD0
 10
327.624
 20
128.012
 30
0.000000
  70
    32
  0
VERTEX
  8
0
  5
10FD1
 10
327.570
 20
128.165
 30
0.000000
  70
    32
  0
VERTEX
  8
0
  5
10FD2
 10
327.512
 20
128.317
 30
0.000000
  70
    32
  0
VERTEX
  8
0
  5
10FD3
 10
327.450
 20
128.468
 30
0.000000
  70
    32
  0
VERTEX
  8
0
  5
10FD4
 10
327.383
 20
128.617
 30
0.000000
  70
    32
  0
VERTEX
  8
0
  5
10FD5
 10
327.312
 20
128.764
 30
0.000000
  70
    32
  0
VERTEX
  8
0
  5
10FD6
 10
327.236
 20
128.910
 30
0.000000
  70
    32
  0
VERTEX
  8
0
  5
10FD7
 10
327.157
 20
129.054
 30
0.000000
  70
    32
  0
VERTEX
  8
0
  5
10FD8
 10
327.073
 20
129.196
 30
0.000000
  70
    32
  0
VERTEX
  8
0
  5
10FD9
 10
326.985
 20
129.336
 30
0.000000
  70
    32
  0
VERTEX
  8
0
  5
10FDA
 10
326.893
 20
129.474
 30
0.000000
  70
    32
  0
VERTEX
  8
0
  5
10FDB
 10
326.797
 20
129.610
 30
0.000000
  70
    32
  0
VERTEX
  8
0
  5
10FDC
 10
326.697
 20
129.744
 30
0.000000
  70
    32
  0
VERTEX
  8
0
  5
10FDD
 10
326.593
 20
129.875
 30
0.000000
  70
    32
  0
VERTEX
  8
0
  5
10FDE
 10
326.486
 20
130.004
 30
0.000000
  70
    32
  0
VERTEX
  8
0
  5
10FDF
 10
326.375
 20
130.131
 30
0.000000
  70
    32
  0
VERTEX
  8
0
  5
10FE0
 10
326.260
 20
130.255
 30
0.000000
  70
    32
  0
VERTEX
  8
0
  5
10FE1
 10
326.141
 20
130.376
 30
0.000000
  70
    32
  0
VERTEX
  8
0
  5
10FE2
 10
326.019
 20
130.494
 30
0.000000
  70
    32
  0
VERTEX
  8
0
  5
10FE3
 10
325.894
 20
130.610
 30
0.000000
  70
    32
  0
VERTEX
  8
0
  5
10FE4
 10
325.765
 20
130.723
 30
0.000000
  70
    32
  0
VERTEX
  8
0
  5
10FE5
 10
325.633
 20
130.832
 30
0.000000
  70
    32
  0
VERTEX
  8
0
  5
10FE6
 10
325.498
 20
130.939
 30
0.000000
  70
    32
  0
VERTEX
  8
0
  5
10FE7
 10
325.360
 20
131.043
 30
0.000000
  70
    32
  0
VERTEX
  8
0
  5
10FE8
 10
325.219
 20
131.143
 30
0.000000
  70
    32
  0
VERTEX
  8
0
  5
10FE9
 10
325.075
 20
131.240
 30
0.000000
  70
    32
  0
VERTEX
  8
0
  5
10FEA
 10
324.928
 20
131.334
 30
0.000000
  70
    32
  0
VERTEX
  8
0
  5
10FEB
 10
324.779
 20
131.424
 30
0.000000
  70
    32
  0
VERTEX
  8
0
  5
10FEC
 10
324.627
 20
131.511
 30
0.000000
  70
    32
  0
VERTEX
  8
0
  5
10FED
 10
324.472
 20
131.594
 30
0.000000
  70
    32
  0
VERTEX
  8
0
  5
10FEE
 10
324.315
 20
131.674
 30
0.000000
  70
    32
  0
VERTEX
  8
0
  5
10FEF
 10
324.156
 20
131.751
 30
0.000000
  70
    32
  0
VERTEX
  8
0
  5
10FF0
 10
323.995
 20
131.823
 30
0.000000
  70
    32
  0
VERTEX
  8
0
  5
10FF1
 10
323.832
 20
131.892
 30
0.000000
  70
    32
  0
VERTEX
  8
0
  5
10FF2
 10
323.666
 20
131.957
 30
0.000000
  70
    32
  0
VERTEX
  8
0
  5
10FF3
 10
323.499
 20
132.018
 30
0.000000
  70
    32
  0
VERTEX
  8
0
  5
10FF4
 10
323.330
 20
132.076
 30
0.000000
  70
    32
  0
VERTEX
  8
0
  5
10FF5
 10
323.160
 20
132.129
 30
0.000000
  70
    32
  0
VERTEX
  8
0
  5
10FF6
 10
322.988
 20
132.179
 30
0.000000
  70
    32
  0
VERTEX
  8
0
  5
10FF7
 10
322.814
 20
132.224
 30
0.000000
  70
    32
  0
VERTEX
  8
0
  5
10FF8
 10
322.640
 20
132.266
 30
0.000000
  70
    32
  0
VERTEX
  8
0
  5
10FF9
 10
322.464
 20
132.304
 30
0.000000
  70
    32
  0
VERTEX
  8
0
  5
10FFA
 10
322.287
 20
132.337
 30
0.000000
  70
    32
  0
VERTEX
  8
0
  5
10FFB
 10
322.109
 20
132.367
 30
0.000000
  70
    32
  0
VERTEX
  8
0
  5
10FFC
 10
321.931
 20
132.393
 30
0.000000
  70
    32
  0
VERTEX
  8
0
  5
10FFD
 10
321.752
 20
132.414
 30
0.000000
  70
    32
  0
VERTEX
  8
0
  5
10FFE
 10
321.572
 20
132.431
 30
0.000000
  70
    32
  0
VERTEX
  8
0
  5
10FFF
 10
321.392
 20
132.444
 30
0.000000
  70
    32
  0
VERTEX
  8
0
  5
11000
 10
321.211
 20
132.453
 30
0.000000
  70
    32
  0
VERTEX
  8
0
  5
11001
 10
321.030
 20
132.458
 30
0.000000
  70
    32
  0
VERTEX
  8
0
  5
11002
 10
320.850
 20
132.459
 30
0.000000
  70
    32
  0
VERTEX
  8
0
  5
11003
 10
320.669
 20
132.456
 30
0.000000
  70
    32
  0
VERTEX
  8
0
  5
11004
 10
320.488
 20
132.448
 30
0.000000
  70
    32
  0
VERTEX
  8
0
  5
11005
 10
320.308
 20
132.436
 30
0.000000
  70
    32
  0
VERTEX
  8
0
  5
11006
 10
320.128
 20
132.421
 30
0.000000
  70
    32
  0
VERTEX
  8
0
  5
11007
 10
319.949
 20
132.401
 30
0.000000
  70
    32
  0
VERTEX
  8
0
  5
11008
 10
319.770
 20
132.377
 30
0.000000
  70
    32
  0
VERTEX
  8
0
  5
11009
 10
319.592
 20
132.349
 30
0.000000
  70
    32
  0
VERTEX
  8
0
  5
1100A
 10
319.415
 20
132.316
 30
0.000000
  70
    32
  0
VERTEX
  8
0
  5
1100B
 10
319.239
 20
132.280
 30
0.000000
  70
    32
  0
VERTEX
  8
0
  5
1100C
 10
319.064
 20
132.240
 30
0.000000
  70
    32
  0
VERTEX
  8
0
  5
1100D
 10
318.890
 20
132.196
 30
0.000000
  70
    32
  0
VERTEX
  8
0
  5
1100E
 10
318.717
 20
132.148
 30
0.000000
  70
    32
  0
VERTEX
  8
0
  5
1100F
 10
318.547
 20
132.095
 30
0.000000
  70
    32
  0
VERTEX
  8
0
  5
11010
 10
318.377
 20
132.039
 30
0.000000
  70
    32
  0
VERTEX
  8
0
  5
11011
 10
318.209
 20
131.980
 30
0.000000
  70
    32
  0
VERTEX
  8
0
  5
11012
 10
318.044
 20
131.916
 30
0.000000
  70
    32
  0
VERTEX
  8
0
  5
11013
 10
317.880
 20
131.848
 30
0.000000
  70
    32
  0
VERTEX
  8
0
  5
11014
 10
317.718
 20
131.777
 30
0.000000
  70
    32
  0
VERTEX
  8
0
  5
11015
 10
317.558
 20
131.702
 30
0.000000
  70
    32
  0
VERTEX
  8
0
  5
11016
 10
317.400
 20
131.624
 30
0.000000
  70
    32
  0
VERTEX
  8
0
  5
11017
 10
317.245
 20
131.542
 30
0.000000
  70
    32
  0
VERTEX
  8
0
  5
11018
 10
317.092
 20
131.456
 30
0.000000
  70
    32
  0
VERTEX
  8
0
  5
11019
 10
316.942
 20
131.367
 30
0.000000
  70
    32
  0
VERTEX
  8
0
  5
1101A
 10
316.795
 20
131.274
 30
0.000000
  70
    32
  0
VERTEX
  8
0
  5
1101B
 10
316.650
 20
131.178
 30
0.000000
  70
    32
  0
VERTEX
  8
0
  5
1101C
 10
316.508
 20
131.079
 30
0.000000
  70
    32
  0
VERTEX
  8
0
  5
1101D
 10
316.369
 20
130.977
 30
0.000000
  70
    32
  0
VERTEX
  8
0
  5
1101E
 10
316.233
 20
130.871
 30
0.000000
  70
    32
  0
VERTEX
  8
0
  5
1101F
 10
316.100
 20
130.763
 30
0.000000
  70
    32
  0
VERTEX
  8
0
  5
11020
 10
315.970
 20
130.651
 30
0.000000
  70
    32
  0
VERTEX
  8
0
  5
11021
 10
315.844
 20
130.536
 30
0.000000
  70
    32
  0
VERTEX
  8
0
  5
11022
 10
315.721
 20
130.419
 30
0.000000
  70
    32
  0
VERTEX
  8
0
  5
11023
 10
315.601
 20
130.299
 30
0.000000
  70
    32
  0
VERTEX
  8
0
  5
11024
 10
315.485
 20
130.176
 30
0.000000
  70
    32
  0
VERTEX
  8
0
  5
11025
 10
315.373
 20
130.050
 30
0.000000
  70
    32
  0
VERTEX
  8
0
  5
11026
 10
315.264
 20
129.922
 30
0.000000
  70
    32
  0
VERTEX
  8
0
  5
11027
 10
315.159
 20
129.792
 30
0.000000
  70
    32
  0
VERTEX
  8
0
  5
11028
 10
315.058
 20
129.659
 30
0.000000
  70
    32
  0
VERTEX
  8
0
  5
11029
 10
314.961
 20
129.524
 30
0.000000
  70
    32
  0
VERTEX
  8
0
  5
1102A
 10
314.868
 20
129.386
 30
0.000000
  70
    32
  0
VERTEX
  8
0
  5
1102B
 10
314.779
 20
129.247
 30
0.000000
  70
    32
  0
VERTEX
  8
0
  5
1102C
 10
314.694
 20
129.105
 30
0.000000
  70
    32
  0
VERTEX
  8
0
  5
1102D
 10
314.613
 20
128.962
 30
0.000000
  70
    32
  0
VERTEX
  8
0
  5
1102E
 10
314.536
 20
128.817
 30
0.000000
  70
    32
  0
VERTEX
  8
0
  5
1102F
 10
314.464
 20
128.670
 30
0.000000
  70
    32
  0
VERTEX
  8
0
  5
11030
 10
314.396
 20
128.522
 30
0.000000
  70
    32
  0
VERTEX
  8
0
  5
11031
 10
314.332
 20
128.372
 30
0.000000
  70
    32
  0
VERTEX
  8
0
  5
11032
 10
314.272
 20
128.220
 30
0.000000
  70
    32
  0
VERTEX
  8
0
  5
11033
 10
314.217
 20
128.068
 30
0.000000
  70
    32
  0
VERTEX
  8
0
  5
11034
 10
314.167
 20
127.914
 30
0.000000
  70
    32
  0
VERTEX
  8
0
  5
11035
 10
314.121
 20
127.759
 30
0.000000
  70
    32
  0
VERTEX
  8
0
  5
11036
 10
314.079
 20
127.603
 30
0.000000
  70
    32
  0
VERTEX
  8
0
  5
11037
 10
314.043
 20
127.446
 30
0.000000
  70
    32
  0
VERTEX
  8
0
  5
11038
 10
314.010
 20
127.288
 30
0.000000
  70
    32
  0
VERTEX
  8
0
  5
11039
 10
313.982
 20
127.130
 30
0.000000
  70
    32
  0
VERTEX
  8
0
  5
1103A
 10
313.959
 20
126.971
 30
0.000000
  70
    32
  0
VERTEX
  8
0
  5
1103B
 10
313.941
 20
126.811
 30
0.000000
  70
    32
  0
VERTEX
  8
0
  5
1103C
 10
313.927
 20
126.651
 30
0.000000
  70
    32
  0
VERTEX
  8
0
  5
1103D
 10
313.918
 20
126.491
 30
0.000000
  70
    32
  0
VERTEX
  8
0
  5
1103E
 10
313.913
 20
126.331
 30
0.000000
  70
    32
  0
VERTEX
  8
0
  5
1103F
 10
313.914
 20
126.171
 30
0.000000
  70
    32
  0
VERTEX
  8
0
  5
11040
 10
313.919
 20
126.010
 30
0.000000
  70
    32
  0
VERTEX
  8
0
  5
11041
 10
313.928
 20
125.850
 30
0.000000
  70
    32
  0
VERTEX
  8
0
  5
11042
 10
313.942
 20
125.690
 30
0.000000
  70
    32
  0
SEQEND
  8
0
  5
11043
  0
POLYLINE
  5
EB46
  8
0
 66
     1
 10
0.0
 20
0.0
 30
0.0
 70
     2
  0
VERTEX
  5
EB47
  8
0
 10
316.91279793442618
 20
94.786650529332775
 30
0.0
 42
0.0070977129537174
  0
VERTEX
  5
EB48
  8
0
 10
316.83459145765482
 20
94.575749036915823
 30
0.0
 42
0.0118990934050461
 70
     1
  0
VERTEX
  5
EB49
  8
0
 10
316.79275008906188
 20
94.448255261717605
 30
0.0
 42
0.0009225172009342
  0
VERTEX
  5
EB4A
  8
0
 10
316.72197379104182
 20
94.212342652753961
 30
0.0
 42
0.0052527296724394
 70
     1
  0
VERTEX
  5
EB4B
  8
0
 10
316.71005593886548
 20
94.170758740756625
 30
0.0
 42
0.0188313063762996
  0
VERTEX
  5
EB4C
  8
0
 10
316.6710511801507
 20
94.004885840118533
 30
0.0
 42
0.0300998476857844
 70
     1
  0
VERTEX
  5
EB4D
  8
0
 10
316.65689471372389
 20
93.899165454261734
 30
0.0
 42
0.0182348815747521
  0
VERTEX
  5
EB4E
  8
0
 10
316.65277355471062
 20
93.786200950863332
 30
0.0
 42
0.0116836560469976
 70
     1
  0
VERTEX
  5
EB4F
  8
0
 10
316.65689471372389
 20
93.609860752789274
 30
0.0
 42
0.0022823573648718
  0
VERTEX
  5
EB50
  8
0
 10
316.66228206628881
 20
93.504930545706685
 30
0.0
 42
0.0033206119561724
 70
     1
  0
VERTEX
  5
EB51
  8
0
 10
316.66679292321709
 20
93.432854432462619
 30
0.0
 42
0.0120045507565987
  0
VERTEX
  5
EB52
  8
0
 10
316.68022547550299
 20
93.289071801549454
 30
0.0
 42
0.0127416123937932
 70
     1
  0
VERTEX
  5
EB53
  8
0
 10
316.69956726687542
 20
93.154396004348683
 30
0.0
 42
0.0192421756103008
  0
VERTEX
  5
EB54
  8
0
 10
316.72521498758402
 20
93.032027537786945
 30
0.0
 42
0.0106277668392467
 70
     1
  0
VERTEX
  5
EB55
  8
0
 10
316.78478007037847
 20
92.813696021764159
 30
0.0
 42
0.0078429449866535
  0
VERTEX
  5
EB56
  8
0
 10
316.83826731950279
 20
92.642772960460007
 30
0.0
 42
0.007967582885702
 70
     1
  0
VERTEX
  5
EB57
  8
0
 10
316.89621087877731
 20
92.476272000550608
 30
0.0
 42
0.0153324454267482
  0
VERTEX
  5
EB58
  8
0
 10
316.97606895296673
 20
92.277198279447276
 30
0.0
 42
0.0124582109618635
 70
     1
  0
VERTEX
  5
EB59
  8
0
 10
317.08780003370248
 20
92.038053117718192
 30
0.0
 42
0.0139628807844287
  0
VERTEX
  5
EB5A
  8
0
 10
317.17305008972471
 20
91.8781920258414
 30
0.0
 42
0.0100566583347289
 70
     1
  0
VERTEX
  5
EB5B
  8
0
 10
317.30192231553519
 20
91.662197311434312
 30
0.0
 42
0.0188363670789937
  0
VERTEX
  5
EB5C
  8
0
 10
317.47895906527719
 20
91.401037468833493
 30
0.0
 42
0.0239495099101274
 70
     1
  0
VERTEX
  5
EB5D
  8
0
 10
317.635276370871
 20
91.20824217528687
 30
0.0
 42
0.014109676561057
  0
VERTEX
  5
EB5E
  8
0
 10
317.79833046990552
 20
91.035790582998544
 30
0.0
 42
0.0093598909546484
 70
     1
  0
VERTEX
  5
EB5F
  8
0
 10
318.05602622591232
 20
90.787673090603946
 30
0.0
 42
0.0067475795192343
  0
VERTEX
  5
EB60
  8
0
 10
318.25613900449929
 20
90.607051237463367
 30
0.0
 42
0.0128850319044092
 70
     1
  0
VERTEX
  5
EB61
  8
0
 10
318.36457840632471
 20
90.516639490299468
 30
0.0
 42
0.0268794913240872
  0
VERTEX
  5
EB62
  8
0
 10
318.5006261742929
 20
90.420440845301314
 30
0.0
 42
0.0104024826605141
 70
     1
  0
VERTEX
  5
EB63
  8
0
 10
318.86947774236342
 20
90.198878083626155
 30
0.0
 42
0.0127083366548927
  0
VERTEX
  5
EB64
  8
0
 10
319.17862820010942
 20
90.032109068770566
 30
0.0
 42
0.0208998506823847
 70
     1
  0
VERTEX
  5
EB65
  8
0
 10
319.3730491502975
 20
89.943532812436885
 30
0.0
 42
0.0305704302382593
  0
VERTEX
  5
EB66
  8
0
 10
319.57611121849823
 20
89.875207033332032
 30
0.0
 42
0.0165937379920226
 70
     1
  0
VERTEX
  5
EB67
  8
0
 10
319.96014772605849
 20
89.785177563719373
 30
0.0
 42
0.0147862034855792
  0
VERTEX
  5
EB68
  8
0
 10
320.32303833647529
 20
89.723812306856843
 30
0.0
 42
0.0175725131612294
 70
     1
  0
VERTEX
  5
EB69
  8
0
 10
320.63111647690488
 20
89.692028323544747
 30
0.0
 42
0.0234949819314384
  0
VERTEX
  5
EB6A
  8
0
 10
320.98427793660858
 20
89.684723149530072
 30
0.0
 42
0.023310577390597
 70
     1
  0
VERTEX
  5
EB6B
  8
0
 10
321.33936031666872
 20
89.710658856211268
 30
0.0
 42
0.0168449830889748
  0
VERTEX
  5
EB6C
  8
0
 10
321.68562429921298
 20
89.764129484760147
 30
0.0
 42
0.0167735486742898
 70
     1
  0
VERTEX
  5
EB6D
  8
0
 10
322.02896906202568
 20
89.841067450139946
 30
0.0
 42
0.0131426167291601
  0
VERTEX
  5
EB6E
  8
0
 10
322.31753479072898
 20
89.924130072061104
 30
0.0
 42
0.0137792692073695
 70
     1
  0
VERTEX
  5
EB6F
  8
0
 10
322.58811009607319
 20
90.018053231523723
 30
0.0
 42
0.0238645569252171
  0
VERTEX
  5
EB70
  8
0
 10
322.89603086525312
 20
90.151660913420898
 30
0.0
 42
0.025081284389838
 70
     1
  0
VERTEX
  5
EB71
  8
0
 10
323.17520622178199
 20
90.306817074170155
 30
0.0
 42
0.0214730132867814
  0
VERTEX
  5
EB72
  8
0
 10
323.45167166741612
 20
90.496099654339133
 30
0.0
 42
0.0226392682382272
 70
     1
  0
VERTEX
  5
EB73
  8
0
 10
323.69707216691398
 20
90.698044567534936
 30
0.0
 42
0.0096733745079558
  0
VERTEX
  5
EB74
  8
0
 10
323.89314656965507
 20
90.881874139623307
 30
0.0
 42
0.010323997548593
 70
     1
  0
VERTEX
  5
EB75
  8
0
 10
324.06983285627939
 20
91.061328829267978
 30
0.0
 42
0.0145270092291752
  0
VERTEX
  5
EB76
  8
0
 10
324.25744785202193
 20
91.271850953563245
 30
0.0
 42
0.0125421362240613
 70
     1
  0
VERTEX
  5
EB77
  8
0
 10
324.4612310901029
 20
91.527076741719625
 30
0.0
 42
0.0263972785564253
  0
VERTEX
  5
EB78
  8
0
 10
324.63171332132612
 20
91.778461706434229
 30
0.0
 42
0.0244303477033641
 70
     1
  0
VERTEX
  5
EB79
  8
0
 10
324.78739669329752
 20
92.067345073258167
 30
0.0
 42
0.0261786670471269
  0
VERTEX
  5
EB7A
  8
0
 10
324.91852247610132
 20
92.383555729532219
 30
0.0
 42
0.0203945291531759
 70
     1
  0
VERTEX
  5
EB7B
  8
0
 10
325.0483272158117
 20
92.803228007268245
 30
0.0
 42
0.0132865323556857
  0
VERTEX
  5
EB7C
  8
0
 10
325.13216726890909
 20
93.157132081553556
 30
0.0
 42
0.0248792878737209
 70
     1
  0
VERTEX
  5
EB7D
  8
0
 10
325.1624138804209
 20
93.349079508081573
 30
0.0
 42
0.0212618379444194
  0
VERTEX
  5
EB7E
  8
0
 10
325.17632963145161
 20
93.566124896190374
 30
0.0
 42
0.0220837806140212
 70
     1
  0
VERTEX
  5
EB7F
  8
0
 10
325.17158687456498
 20
93.775474806195717
 30
0.0
 42
0.0155998462803326
  0
VERTEX
  5
EB80
  8
0
 10
325.14870823268888
 20
94.008162513249573
 30
0.0
 42
0.0297875708218897
 70
     1
  0
VERTEX
  5
EB81
  8
0
 10
325.12571700374338
 20
94.128511847067585
 30
0.0
 42
0.0092272106275018
  0
VERTEX
  5
EB82
  8
0
 10
325.11573954101732
 20
94.165020728883775
 30
0.0
 42
0.001459372533901
 70
     1
  0
VERTEX
  5
EB83
  8
0
 10
325.0477416534186
 20
94.394436385359342
 30
0.0
 42
0.0135237274756913
  0
VERTEX
  5
EB84
  8
0
 10
324.99841565892712
 20
94.544229103826893
 30
0.0
 42
0.0088405916689027
 70
     1
  0
VERTEX
  5
EB85
  8
0
 10
324.91279924572842
 20
94.769745161958355
 30
0.0
  0
SEQEND
  5
EB86
  8
0
  0
POLYLINE
  5
EB87
  8
0
 66
     1
 10
0.0
 20
0.0
 30
0.0
 70
     2
  0
VERTEX
  5
EB88
  8
0
 10
325.07626751542688
 20
76.399941161605824
 30
0.0
 42
0.0136194405989041
  0
VERTEX
  5
EB89
  8
0
 10
324.97046950282402
 20
76.620457422389137
 30
0.0
 42
0.0233347530822382
 70
     1
  0
VERTEX
  5
EB8A
  8
0
 10
324.89936055239468
 20
76.744296937740756
 30
0.0
 42
0.0036645982422697
  0
VERTEX
  5
EB8B
  8
0
 10
324.72456795258591
 20
77.013886809727211
 30
0.0
 42
0.0199560034756597
 70
     1
  0
VERTEX
  5
EB8C
  8
0
 10
324.69015509335799
 20
77.061840263265623
 30
0.0
 42
0.0202573009818774
  0
VERTEX
  5
EB8D
  8
0
 10
324.58061939656272
 20
77.191129002663516
 30
0.0
 42
0.0155965373101569
 70
     1
  0
VERTEX
  5
EB8E
  8
0
 10
324.42671223079469
 20
77.348403922449535
 30
0.0
 42
0.0111729479594784
  0
VERTEX
  5
EB8F
  8
0
 10
324.25665383831529
 20
77.504521716062555
 30
0.0
 42
0.0134375759887161
 70
     1
  0
VERTEX
  5
EB90
  8
0
 10
324.10903196470548
 20
77.627222083204771
 30
0.0
 42
0.0130346543441323
  0
VERTEX
  5
EB91
  8
0
 10
323.93325506647398
 20
77.758239132141881
 30
0.0
 42
0.0108020478175793
 70
     1
  0
VERTEX
  5
EB92
  8
0
 10
323.71386683797709
 20
77.906040243960007
 30
0.0
 42
0.0118805385192597
  0
VERTEX
  5
EB93
  8
0
 10
323.4576062910873
 20
78.062271462901464
 30
0.0
 42
0.0347061697752847
 70
     1
  0
VERTEX
  5
EB94
  8
0
 10
323.36519162817149
 20
78.107409238863085
 30
0.0
 42
0.0005328240968816
  0
VERTEX
  5
EB95
  8
0
 10
323.20667790517467
 20
78.171438833023643
 30
0.0
 42
-0.0003456345337514
 70
     1
  0
VERTEX
  5
EB96
  8
0
 10
322.96227901483962
 20
78.270054232683165
 30
0.0
 42
-0.000182905467254
  0
VERTEX
  5
EB97
  8
0
 10
322.74391942863758
 20
78.358431244875391
 30
0.0
 42
0.0003730772728781
 70
     1
  0
VERTEX
  5
EB98
  8
0
 10
322.63684959637931
 20
78.401718396475445
 30
0.0
 42
0.0188838054578403
  0
VERTEX
  5
EB99
  8
0
 10
322.55902614778188
 20
78.429746567890589
 30
0.0
 42
0.0056758509963407
 70
     1
  0
VERTEX
  5
EB9A
  8
0
 10
322.29592353894492
 20
78.510147228668785
 30
0.0
 42
0.0088369603555272
  0
VERTEX
  5
EB9B
  8
0
 10
322.07141526391121
 20
78.571689766432783
 30
0.0
 42
0.0143725829644842
 70
     1
  0
VERTEX
  5
EB9C
  8
0
 10
321.93175169016467
 20
78.603087391378523
 30
0.0
 42
0.0140121239135177
  0
VERTEX
  5
EB9D
  8
0
 10
321.77527026740432
 20
78.6290419314453
 30
0.0
 42
0.0092462579577726
 70
     1
  0
VERTEX
  5
EB9E
  8
0
 10
321.53658656343617
 20
78.657302389318403
 30
0.0
 42
0.0040851709489603
  0
VERTEX
  5
EB9F
  8
0
 10
321.37885241173262
 20
78.671726221525859
 30
0.0
 42
0.0044925130632868
 70
     1
  0
VERTEX
  5
EBA0
  8
0
 10
321.23521583106691
 20
78.682379836904857
 30
0.0
 42
0.0120277271760086
  0
VERTEX
  5
EBA1
  8
0
 10
321.05425439346442
 20
78.689802655360978
 30
0.0
 42
0.0079301374198608
 70
     1
  0
VERTEX
  5
EBA2
  8
0
 10
320.7795799972501
 20
78.690099734226834
 30
0.0
 42
0.0157721669417637
  0
VERTEX
  5
EBA3
  8
0
 10
320.52059674714752
 20
78.678095018923756
 30
0.0
 42
0.0125185242735574
 70
     1
  0
VERTEX
  5
EBA4
  8
0
 10
320.19570939671399
 20
78.644546418616216
 30
0.0
 42
0.0130602745914802
  0
VERTEX
  5
EBA5
  8
0
 10
319.92446456127618
 20
78.602426787475252
 30
0.0
 42
0.0145216887713291
 70
     1
  0
VERTEX
  5
EBA6
  8
0
 10
319.68296666182317
 20
78.551152055611084
 30
0.0
 42
0.0132795966466251
  0
VERTEX
  5
EBA7
  8
0
 10
319.45134290935772
 20
78.488340227718282
 30
0.0
 42
0.0093397098663152
 70
     1
  0
VERTEX
  5
EBA8
  8
0
 10
319.12641489710398
 20
78.384239566421485
 30
0.0
 42
0.0116311721405212
  0
VERTEX
  5
EBA9
  8
0
 10
318.80890152371012
 20
78.267622146585637
 30
0.0
 42
0.0180892753314759
 70
     1
  0
VERTEX
  5
EBAA
  8
0
 10
318.60952082664932
 20
78.180627240009045
 30
0.0
 42
0.0181703169807502
  0
VERTEX
  5
EBAB
  8
0
 10
318.41034014976782
 20
78.075933222603254
 30
0.0
 42
0.0139055336416933
 70
     1
  0
VERTEX
  5
EBAC
  8
0
 10
318.15941034502788
 20
77.922748457066774
 30
0.0
 42
0.008657951477188
  0
VERTEX
  5
EBAD
  8
0
 10
317.9330310189643
 20
77.770121429665124
 30
0.0
 42
0.0103347033931117
 70
     1
  0
VERTEX
  5
EBAE
  8
0
 10
317.74836711847092
 20
77.635143298319491
 30
0.0
 42
0.0129688530058077
  0
VERTEX
  5
EBAF
  8
0
 10
317.54643155768741
 20
77.472580854204608
 30
0.0
 42
0.0154818172660211
 70
     1
  0
VERTEX
  5
EBB0
  8
0
 10
317.38527968460812
 20
77.326995578911266
 30
0.0
 42
0.0143714914790748
  0
VERTEX
  5
EBB1
  8
0
 10
317.2769489017337
 20
77.216697810926036
 30
0.0
 42
0.0097273898970527
 70
     1
  0
VERTEX
  5
EBB2
  8
0
 10
317.12495180805848
 20
77.046238716175395
 30
0.0
 42
0.0171952543482952
  0
VERTEX
  5
EBB3
  8
0
 10
316.99467696414649
 20
76.883269609290238
 30
0.0
 42
0.0226046947599845
 70
     1
  0
VERTEX
  5
EBB4
  8
0
 10
316.90572842074113
 20
76.7517852614167
 30
0.0
 42
0.0327337001382882
  0
VERTEX
  5
EBB5
  8
0
 10
316.82203923915222
 20
76.592641682174673
 30
0.0
 42
0.0287440752919653
 70
     1
  0
VERTEX
  5
EBB6
  8
0
 10
316.74969130970931
 20
76.401138465905291
 30
0.0
 42
0.0085550986846809
  0
VERTEX
  5
EBB7
  8
0
 10
316.71473197356318
 20
76.282531147695195
 30
0.0
 42
0.0097928531030114
 70
     1
  0
VERTEX
  5
EBB8
  8
0
 10
316.68801255339258
 20
76.177861981371535
 30
0.0
 42
0.0173834967476679
  0
VERTEX
  5
EBB9
  8
0
 10
316.66788198740011
 20
76.076254769386452
 30
0.0
 42
0.014492772433954
 70
     1
  0
VERTEX
  5
EBBA
  8
0
 10
316.65155055935787
 20
75.953101720856722
 30
0.0
 42
0.053440815255957
  0
VERTEX
  5
EBBB
  8
0
 10
316.65197540370127
 20
75.844778587513048
 30
0.0
 42
0.0344558654658859
 70
     1
  0
VERTEX
  5
EBBC
  8
0
 10
316.68193583201491
 20
75.679745905297324
 30
0.0
 42
0.0492901370726372
  0
VERTEX
  5
EBBD
  8
0
 10
316.73734405245432
 20
75.526515337570146
 30
0.0
 42
0.059561584771958
 70
     1
  0
VERTEX
  5
EBBE
  8
0
 10
316.80955864132562
 20
75.412463370431652
 30
0.0
 42
0.0312345511280072
  0
VERTEX
  5
EBBF
  8
0
 10
316.91145558860222
 20
75.302178313004134
 30
0.0
 42
0.0205127224381337
 70
     1
  0
VERTEX
  5
EBC0
  8
0
 10
317.08303275831207
 20
75.15125527994681
 30
0.0
 42
0.013593184719541
  0
VERTEX
  5
EBC1
  8
0
 10
317.28717629279072
 20
74.995019081727634
 30
0.0
 42
0.0365324853177983
 70
     1
  0
VERTEX
  5
EBC2
  8
0
 10
317.36866364959042
 20
74.944719516260449
 30
0.0
 42
0.0273175028801743
  0
VERTEX
  5
EBC3
  8
0
 10
317.50503688676872
 20
74.882939103083146
 30
0.0
 42
0.0201632824378528
 70
     1
  0
VERTEX
  5
EBC4
  8
0
 10
317.69683492204967
 20
74.817152693208101
 30
0.0
 42
0.0053779707634316
  0
VERTEX
  5
EBC5
  8
0
 10
317.91257594024682
 20
74.755267984119229
 30
0.0
 42
0.0057339540115986
 70
     1
  0
VERTEX
  5
EBC6
  8
0
 10
318.11616367824809
 20
74.701735922603831
 30
0.0
 42
0.0079211185697664
  0
VERTEX
  5
EBC7
  8
0
 10
318.43703232090502
 20
74.626669794188871
 30
0.0
 42
0.0107548878487374
 70
     1
  0
VERTEX
  5
EBC8
  8
0
 10
318.67526868651339
 20
74.580243543932085
 30
0.0
 42
0.016067354376214
  0
VERTEX
  5
EBC9
  8
0
 10
318.9613102002736
 20
74.540277706620287
 30
0.0
 42
0.00818167248148
 70
     1
  0
VERTEX
  5
EBCA
  8
0
 10
319.52608130743471
 20
74.489124550850221
 30
0.0
 42
0.0054531080682534
  0
VERTEX
  5
EBCB
  8
0
 10
320.2046206313662
 20
74.446280618204383
 30
0.0
 42
0.0127849739132607
 70
     1
  0
VERTEX
  5
EBCC
  8
0
 10
320.49454711665572
 20
74.438571674838414
 30
0.0
 42
0.0029702723451552
  0
VERTEX
  5
EBCD
  8
0
 10
320.7806183619569
 20
74.439980885144465
 30
0.0
 42
0.0064268944634346
 70
     1
  0
VERTEX
  5
EBCE
  8
0
 10
320.91279859007727
 20
74.443116812236923
 30
0.0
 42
0.0015615147051
  0
VERTEX
  5
EBCF
  8
0
 10
321.16335549439827
 20
74.453068352400379
 30
0.0
 42
-0.0010937633907019
 70
     1
  0
VERTEX
  5
EBD0
  8
0
 10
321.52104994603178
 20
74.467610311825666
 30
0.0
 42
-0.0020422045049119
  0
VERTEX
  5
EBD1
  8
0
 10
321.91615476633751
 20
74.481191613419838
 30
0.0
 42
0.0017653011121578
 70
     1
  0
VERTEX
  5
EBD2
  8
0
 10
322.37324348856009
 20
74.496650112499324
 30
0.0
 42
0.0119343831594617
  0
VERTEX
  5
EBD3
  8
0
 10
322.68569484555479
 20
74.515797556032823
 30
0.0
 42
0.0106342858175613
 70
     1
  0
VERTEX
  5
EBD4
  8
0
 10
323.03500810806332
 20
74.553084260905763
 30
0.0
 42
0.0183606676718649
  0
VERTEX
  5
EBD5
  8
0
 10
323.23779859192467
 20
74.586711066591903
 30
0.0
 42
0.0087905713397897
 70
     1
  0
VERTEX
  5
EBD6
  8
0
 10
323.656817618199
 20
74.679806247440666
 30
0.0
 42
0.0142614401327568
  0
VERTEX
  5
EBD7
  8
0
 10
323.99910676828358
 20
74.772596400438232
 30
0.0
 42
0.0201462756264688
 70
     1
  0
VERTEX
  5
EBD8
  8
0
 10
324.23636992770162
 20
74.854802611501128
 30
0.0
 42
0.0293630191851576
  0
VERTEX
  5
EBD9
  8
0
 10
324.46092278952528
 20
74.958475431043581
 30
0.0
 42
0.0303062037807811
 70
     1
  0
VERTEX
  5
EBDA
  8
0
 10
324.66499700043818
 20
75.084109395808156
 30
0.0
 42
0.0116239294547686
  0
VERTEX
  5
EBDB
  8
0
 10
324.77049541544511
 20
75.161950278268506
 30
0.0
 42
0.0185610799115126
 70
     1
  0
VERTEX
  5
EBDC
  8
0
 10
324.83351607799159
 20
75.21460638187753
 30
0.0
 42
0.0247810887215969
  0
VERTEX
  5
EBDD
  8
0
 10
324.91209688091573
 20
75.292765434385984
 30
0.0
 42
0.0243665288583783
 70
     1
  0
VERTEX
  5
EBDE
  8
0
 10
324.98382831216168
 20
75.379710245616508
 30
0.0
 42
0.0291886730269237
  0
VERTEX
  5
EBDF
  8
0
 10
325.04108392618127
 20
75.466582763643402
 30
0.0
 42
0.026366832363971
 70
     1
  0
VERTEX
  5
EBE0
  8
0
 10
325.09340752334538
 20
75.569170071210721
 30
0.0
 42
0.0266944660013923
  0
VERTEX
  5
EBE1
  8
0
 10
325.13508058718207
 20
75.67804759669005
 30
0.0
 42
0.0406123742106717
 70
     1
  0
VERTEX
  5
EBE2
  8
0
 10
325.15264056486831
 20
75.752710222750721
 30
0.0
 42
0.021080832036949
  0
VERTEX
  5
EBE3
  8
0
 10
325.1620321235946
 20
75.839608545921493
 30
0.0
 42
0.0196604442320259
 70
     1
  0
VERTEX
  5
EBE4
  8
0
 10
325.16448584055888
 20
75.933289955419951
 30
0.0
 42
0.0096411565481272
  0
VERTEX
  5
EBE5
  8
0
 10
325.16117270075671
 20
76.035475649248639
 30
0.0
 42
0.0141364106339988
 70
     1
  0
VERTEX
  5
EBE6
  8
0
 10
325.15560230023311
 20
76.104988431477778
 30
0.0
 42
0.0174873705642728
  0
VERTEX
  5
EBE7
  8
0
 10
325.15121965679828
 20
76.135382675145394
 30
0.0
 42
0.0044846214557569
 70
     1
  0
VERTEX
  5
EBE8
  8
0
 10
325.12894668195219
 20
76.253003556571258
 30
0.0
 42
0.0370478415977166
  0
VERTEX
  5
EBE9
  8
0
 10
325.11377432282819
 20
76.307787454262126
 30
0.0
 42
0.021147778935399
 70
     1
  0
VERTEX
  5
EBEA
  8
0
 10
325.07626751542688
 20
76.399941161605824
 30
0.0
  0
SEQEND
  5
EBEB
  8
0
  0
LINE
  5
EBEC
  8
1
 10
320.91289731027018
 20
136.50010387252931
 30
0.0
 11
320.91289731027018
 21
83.773568478915664
 31
0.0
  0
LINE
  5
ECAF
  8
1
 10
127.9405356766033
 20
261.59267360427259
 30
0.0
 11
139.9405356766033
 21
261.59267360427259
 31
0.0
  0
LINE
  5
ECB0
  8
1
 10
127.9405356766033
 20
216.5926736042727
 30
0.0
 11
139.9405356766033
 21
216.5926736042727
 31
0.0
  0
LINE
  5
ECB1
  8
0
 10
147.86903474939339
 20
237.59454143502589
 30
0.0
 11
147.859093812232
 21
237.5956254945028
 31
0.0
  0
LINE
  5
ECB2
  8
0
 10
120.0120366038131
 20
240.59080732324
 30
0.0
 11
120.0219775409746
 21
240.589721401118
 31
0.0
  0
LINE
  5
ECB3
  8
1
 10
133.9405356766037
 20
239.09267360427259
 30
0.0
 11
176.44743894341261
 21
165.4685574737432
 31
0.0
  0
POLYLINE
  5
ECB4
  8
0
 66
     1
 10
0.0
 20
0.0
 30
0.0
 70
   128
  0
VERTEX
  5
10C8D
  8
0
 10
178.8104046941794
 20
173.48104879627519
 30
0.0
  0
VERTEX
  5
10C8E
  8
0
 10
178.7815111125573
 20
173.4643673448065
 30
0.0
  0
VERTEX
  5
10C8F
  8
0
 10
178.61363556576089
 20
173.3674475743766
 30
0.0
  0
VERTEX
  5
10C90
  8
0
 10
178.30062962537701
 20
173.18673304731831
 30
0.0
  0
VERTEX
  5
10C91
  8
0
 10
177.851492622005
 20
172.92742495210939
 30
0.0
  0
VERTEX
  5
10C92
  8
0
 10
177.27914950587629
 20
172.59697899572041
 30
0.0
  0
VERTEX
  5
10C93
  8
0
 10
176.6000618310845
 20
172.20490844569119
 30
0.0
  0
VERTEX
  5
10C94
  8
0
 10
175.8337643677414
 20
171.76248815832099
 30
0.0
  0
VERTEX
  5
10C95
  8
0
 10
175.0023055252413
 20
171.28244101442851
 30
0.0
  0
VERTEX
  5
10C96
  8
0
 10
174.12960535588439
 20
170.77858590822319
 30
0.0
  0
VERTEX
  5
10C97
  8
0
 10
173.2407642652615
 20
170.26541525895789
 30
0.0
  0
VERTEX
  5
10C98
  8
0
 10
172.36135609075919
 20
169.75769015084481
 30
0.0
  0
VERTEX
  5
10C99
  8
0
 10
171.51668505908029
 20
169.2700176130781
 30
0.0
  0
VERTEX
  5
10C9A
  8
0
 10
170.73104274376419
 20
168.81642789985591
 30
0.0
  0
VERTEX
  5
10C9B
  8
0
 10
170.02703440383721
 20
168.40996763391931
 30
0.0
  0
VERTEX
  5
10C9C
  8
0
 10
169.4249110441333
 20
168.06233266263189
 30
0.0
  0
VERTEX
  5
10C9D
  8
0
 10
168.94199766450129
 20
167.7835185064894
 30
0.0
  0
VERTEX
  5
10C9E
  8
0
 10
168.59218011546821
 20
167.58155741582709
 30
0.0
  0
VERTEX
  5
10C9F
  8
0
 10
168.38553330953519
 20
167.46224694292621
 30
0.0
  0
VERTEX
  5
10CA0
  8
0
 10
168.32693358894809
 20
167.428415422542
 30
0.0
  0
SEQEND
  5
10CA1
  8
0
  0
POLYLINE
  5
ECB5
  8
0
 66
     1
 10
0.0
 20
0.0
 30
0.0
 70
   128
  0
VERTEX
  5
10CA2
  8
0
 10
179.02441716592739
 20
175.0050940483612
 30
0.0
  0
VERTEX
  5
10CA3
  8
0
 10
179.00910915736949
 20
174.99625257695149
 30
0.0
  0
VERTEX
  5
10CA4
  8
0
 10
178.8673022333077
 20
174.9143846399713
 30
0.0
  0
VERTEX
  5
10CA5
  8
0
 10
178.58009344233051
 20
174.74856466514819
 30
0.0
  0
VERTEX
  5
10CA6
  8
0
 10
178.1545558584294
 20
174.5028777396688
 30
0.0
  0
VERTEX
  5
10CA7
  8
0
 10
177.60117030741549
 20
174.1833774434532
 30
0.0
  0
VERTEX
  5
10CA8
  8
0
 10
176.9335538935884
 20
173.7979285679402
 30
0.0
  0
VERTEX
  5
10CA9
  8
0
 10
176.1681486801335
 20
173.3560255225878
 30
0.0
  0
VERTEX
  5
10CAA
  8
0
 10
175.32380932342221
 20
172.86854003252441
 30
0.0
  0
VERTEX
  5
10CAB
  8
0
 10
174.42131500751739
 20
172.34748673192689
 30
0.0
  0
VERTEX
  5
10CAC
  8
0
 10
173.48289388227059
 20
171.8056912049592
 30
0.0
  0
VERTEX
  5
10CAD
  8
0
 10
172.53165616973999
 20
171.25649355070169
 30
0.0
  0
VERTEX
  5
10CAE
  8
0
 10
171.59101695919389
 20
170.7134191870245
 30
0.0
  0
VERTEX
  5
10CAF
  8
0
 10
170.68414481168199
 20
170.189834753301
 30
0.0
  0
VERTEX
  5
10CB0
  8
0
 10
169.83336892315489
 20
169.69863654254431
 30
0.0
  0
VERTEX
  5
10CB1
  8
0
 10
169.0596351796157
 20
169.25191930890421
 30
0.0
  0
VERTEX
  5
10CB2
  8
0
 10
168.381992879054
 20
168.86068329042311
 30
0.0
  0
VERTEX
  5
10CB3
  8
0
 10
167.81712961468381
 20
168.5345650449816
 30
0.0
  0
VERTEX
  5
10CB4
  8
0
 10
167.37896077189041
 20
168.28158837414591
 30
0.0
  0
VERTEX
  5
10CB5
  8
0
 10
167.0782747707967
 20
168.1079819989439
 30
0.0
  0
VERTEX
  5
10CB6
  8
0
 10
166.9224653182236
 20
168.01802873104219
 30
0.0
  0
VERTEX
  5
10CB7
  8
0
 10
166.900062017663
 20
168.00509349204609
 30
0.0
  0
SEQEND
  5
10CB8
  8
0
  0
POLYLINE
  5
ECB6
  8
0
 66
     1
 10
0.0
 20
0.0
 30
0.0
 70
   128
  0
VERTEX
  5
10CB9
  8
0
 10
165.2382637516539
 20
196.11930474970109
 30
0.0
  0
VERTEX
  5
10CBA
  8
0
 10
165.23825866281271
 20
196.11930338615019
 30
0.0
  0
VERTEX
  5
10CBB
  8
0
 10
165.1632669029955
 20
196.0760044956952
 30
0.0
  0
VERTEX
  5
10CBC
  8
0
 10
164.94272506704141
 20
195.94867567543139
 30
0.0
  0
VERTEX
  5
10CBD
  8
0
 10
164.58333420860981
 20
195.74118233751969
 30
0.0
  0
VERTEX
  5
10CBE
  8
0
 10
164.09601060167819
 20
195.45982564074981
 30
0.0
  0
VERTEX
  5
10CBF
  8
0
 10
163.4955693321017
 20
195.1131595334902
 30
0.0
  0
VERTEX
  5
10CC0
  8
0
 10
162.8002471405261
 20
194.71171563633629
 30
0.0
  0
VERTEX
  5
10CC1
  8
0
 10
162.0311747422511
 20
194.26769277033421
 30
0.0
  0
VERTEX
  5
10CC2
  8
0
 10
161.21171992969261
 20
193.7945791362848
 30
0.0
  0
VERTEX
  5
10CC3
  8
0
 10
160.36677742468461
 20
193.3067493173038
 30
0.0
  0
VERTEX
  5
10CC4
  8
0
 10
159.52202533690931
 20
192.8190332438073
 30
0.0
  0
VERTEX
  5
10CC5
  8
0
 10
158.7031273739822
 20
192.3462433516803
 30
0.0
  0
VERTEX
  5
10CC6
  8
0
 10
157.93496944360589
 20
191.90274640809571
 30
0.0
  0
VERTEX
  5
10CC7
  8
0
 10
157.24089016869951
 20
191.50201734370739
 30
0.0
  0
VERTEX
  5
10CC8
  8
0
 10
156.64197396589859
 20
191.15623439256689
 30
0.0
  0
VERTEX
  5
10CC9
  8
0
 10
156.15642604461249
 20
190.8759043638897
 30
0.0
  0
VERTEX
  5
10CCA
  8
0
 10
155.79899570112411
 20
190.66954176096701
 30
0.0
  0
VERTEX
  5
10CCB
  8
0
 10
155.580542233969
 20
190.5434161134545
 30
0.0
  0
VERTEX
  5
10CCC
  8
0
 10
155.50770140632719
 20
190.50136170347301
 30
0.0
  0
SEQEND
  5
10CCD
  8
0
  0
ARC
  5
ECB7
  8
0
 10
133.9405356766033
 20
239.0926736042727
 30
0.0
 40
14.000000000000011
 50
339.17250306798809
 51
20.82749693201189
  0
LINE
  5
ECB8
  8
0
 10
139.54846661997311
 20
214.4593412921655
 30
0.0
 11
147.02570818824049
 21
234.1148949161994
 31
0.0
  0
LINE
  5
ECB9
  8
0
 10
147.02570818824049
 20
244.07045104809879
 30
0.0
 11
139.54846661997311
 21
263.7260070004391
 31
0.0
  0
CIRCLE
  5
ECBA
  8
0
 10
133.9405356766033
 20
216.5926736042727
 30
0.0
 40
2.4999999999999711
  0
ARC
  5
ECBB
  8
0
 10
133.9405356766033
 20
216.5926736042727
 30
0.0
 40
6.0000000000000231
 50
200.82749693201191
 51
339.17250306798809
  0
CIRCLE
  5
ECBC
  8
0
 10
133.9405356766033
 20
261.5926736042727
 30
0.0
 40
2.5
  0
ARC
  5
ECBD
  8
0
 10
133.9405356766033
 20
261.5926736042727
 30
0.0
 40
6.0000000000000142
 50
20.82749693201189
 51
159.17250306798809
  0
LINE
  5
ECBE
  8
0
 10
120.85536316496611
 20
234.1148949161994
 30
0.0
 11
128.33260473323341
 21
214.4593412921655
 31
0.0
  0
CIRCLE
  5
ECBF
  8
0
 10
133.9405356766033
 20
239.0926736042727
 30
0.0
 40
11.0
  0
ARC
  5
ECC0
  8
0
 10
133.9405356766033
 20
239.0926736042727
 30
0.0
 40
13.999999999999989
 50
159.17250306798809
 51
200.82749693201191
  0
LINE
  5
ECC1
  8
0
 10
128.33260473323341
 20
263.7260070004391
 30
0.0
 11
120.85536316496611
 21
244.07045104809879
 31
0.0
  0
CIRCLE
  5
ECC2
  8
0
 10
133.9405356766033
 20
216.5926736042727
 30
0.0
 40
3.4999999999999711
  0
CIRCLE
  5
ECC3
  8
0
 10
133.9405356766033
 20
261.5926736042727
 30
0.0
 40
3.5
  0
CIRCLE
  5
ECC4
  8
0
 10
133.9405356766033
 20
239.0926736042727
 30
0.0
 40
11.49999999999997
  0
CIRCLE
  5
ECC5
  8
0
 10
133.9405356766033
 20
239.0926736042727
 30
0.0
 40
10.0
  0
CIRCLE
  5
ECC6
  8
0
 10
133.9405356766033
 20
239.0926736042727
 30
0.0
 40
8.8452994616207548
  0
POLYLINE
  5
ECC7
  8
0
 66
     1
 10
0.0
 20
0.0
 30
0.0
 70
   128
  0
VERTEX
  5
10CCE
  8
0
 10
163.25463611909021
 20
196.31916111603911
 30
0.0
  0
VERTEX
  5
10CCF
  8
0
 10
163.23565956216129
 20
196.30820491282111
 30
0.0
  0
VERTEX
  5
10CD0
  8
0
 10
163.08509188604421
 20
196.2212733460382
 30
0.0
  0
VERTEX
  5
10CD1
  8
0
 10
162.7905353215487
 20
196.05121286545909
 30
0.0
  0
VERTEX
  5
10CD2
  8
0
 10
162.36486293230561
 20
195.8054489124705
 30
0.0
  0
VERTEX
  5
10CD3
  8
0
 10
161.82668347929479
 20
195.49473278269389
 30
0.0
  0
VERTEX
  5
10CD4
  8
0
 10
161.1995148267961
 20
195.13263379509181
 30
0.0
  0
VERTEX
  5
10CD5
  8
0
 10
160.5107626088265
 20
194.73498473498151
 30
0.0
  0
VERTEX
  5
10CD6
  8
0
 10
159.79053365508801
 20
194.3191603014138
 30
0.0
  0
VERTEX
  5
10CD7
  8
0
 10
159.07030979019049
 20
193.9033372313971
 30
0.0
  0
VERTEX
  5
10CD8
  8
0
 10
158.38155757222151
 20
193.50568817128681
 30
0.0
  0
VERTEX
  5
10CD9
  8
0
 10
157.7543889197222
 20
193.14358918368461
 30
0.0
  0
VERTEX
  5
10CDA
  8
0
 10
157.21620760406631
 20
192.8328698277121
 30
0.0
  0
VERTEX
  5
10CDB
  8
0
 10
156.79053707746829
 20
192.5871091009196
 30
0.0
  0
VERTEX
  5
10CDC
  8
0
 10
156.49598051297289
 20
192.41704862034041
 30
0.0
  0
VERTEX
  5
10CDD
  8
0
 10
156.3454128368557
 20
192.33011705355759
 30
0.0
  0
VERTEX
  5
10CDE
  8
0
 10
156.32643627992729
 20
192.31916085033939
 30
0.0
  0
SEQEND
  5
10CDF
  8
0
  0
LINE
  5
ECC8
  8
0
 10
149.61758728935681
 20
215.8122084019991
 30
0.0
 11
153.61758823683201
 21
208.88400601841531
 31
0.0
  0
POLYLINE
  5
ECC9
  8
0
 66
     1
 10
0.0
 20
0.0
 30
0.0
 70
   128
  0
VERTEX
  5
10CE0
  8
0
 10
146.26348427000221
 20
213.87571471629141
 30
0.0
  0
VERTEX
  5
10CE1
  8
0
 10
146.65878133286421
 20
214.10394066885101
 30
0.0
  0
VERTEX
  5
10CE2
  8
0
 10
147.07450889146861
 20
214.34396101460129
 30
0.0
  0
VERTEX
  5
10CE3
  8
0
 10
147.5040453351566
 20
214.5919548084336
 30
0.0
  0
VERTEX
  5
10CE4
  8
0
 10
147.94053531401821
 20
214.8439607525963
 30
0.0
  0
VERTEX
  5
10CE5
  8
0
 10
148.37702715552541
 20
215.09596992295499
 30
0.0
  0
VERTEX
  5
10CE6
  8
0
 10
148.8065610547923
 20
215.34396303501191
 30
0.0
  0
VERTEX
  5
10CE7
  8
0
 10
149.2222902264952
 20
215.5839824494395
 30
0.0
  0
VERTEX
  5
10CE8
  8
0
 10
149.61758728935681
 20
215.8122084019991
 30
0.0
  0
SEQEND
  5
10CE9
  8
0
  0
LINE
  5
ECCA
  8
0
 10
150.26348614880001
 20
206.9475139458057
 30
0.0
 11
146.26348427000221
 21
213.87571471629141
 31
0.0
  0
POLYLINE
  5
ECCB
  8
0
 66
     1
 10
0.0
 20
0.0
 30
0.0
 70
   128
  0
VERTEX
  5
10CEA
  8
0
 10
153.61758823683201
 20
208.88400601841531
 30
0.0
  0
VERTEX
  5
10CEB
  8
0
 10
153.22228956087201
 20
208.6557809971782
 30
0.0
  0
VERTEX
  5
10CEC
  8
0
 10
152.80656200226761
 20
208.41576065142809
 30
0.0
  0
VERTEX
  5
10CED
  8
0
 10
152.37702555857959
 20
208.16776685759581
 30
0.0
  0
VERTEX
  5
10CEE
  8
0
 10
151.94053719281601
 20
207.91575998211039
 30
0.0
  0
VERTEX
  5
10CEF
  8
0
 10
151.50404373821129
 20
207.66375174307419
 30
0.0
  0
VERTEX
  5
10CF0
  8
0
 10
151.07451077026639
 20
207.4157602441154
 30
0.0
  0
VERTEX
  5
10CF1
  8
0
 10
150.65878134901681
 20
207.17573667216919
 30
0.0
  0
VERTEX
  5
10CF2
  8
0
 10
150.26348614880001
 20
206.9475139458057
 30
0.0
  0
SEQEND
  5
10CF3
  8
0
  0
POLYLINE
  5
ECCC
  8
0
 66
     1
 10
0.0
 20
0.0
 30
0.0
 70
   128
  0
VERTEX
  5
10CF4
  8
0
 10
163.94774289704901
 20
196.37290860853929
 30
0.0
  0
VERTEX
  5
10CF5
  8
0
 10
163.92336517857251
 20
196.35883345506039
 30
0.0
  0
VERTEX
  5
10CF6
  8
0
 10
163.76073835971829
 20
196.26493997549639
 30
0.0
  0
VERTEX
  5
10CF7
  8
0
 10
163.4513009197949
 20
196.08628610147181
 30
0.0
  0
VERTEX
  5
10CF8
  8
0
 10
163.00694616405639
 20
195.82974022191641
 30
0.0
  0
VERTEX
  5
10CF9
  8
0
 10
162.44475356232209
 20
195.50515570890269
 30
0.0
  0
VERTEX
  5
10CFA
  8
0
 10
161.78632639723219
 20
195.12501345231539
 30
0.0
  0
VERTEX
  5
10CFB
  8
0
 10
161.05696194400201
 20
194.70391589160161
 30
0.0
  0
VERTEX
  5
10CFC
  8
0
 10
160.2846995179934
 20
194.25804832230131
 30
0.0
  0
VERTEX
  5
10CFD
  8
0
 10
159.4992059109918
 20
193.804544816082
 30
0.0
  0
VERTEX
  5
10CFE
  8
0
 10
158.73067782292671
 20
193.36083142366729
 30
0.0
  0
VERTEX
  5
10CFF
  8
0
 10
158.00863892520459
 20
192.9439656883097
 30
0.0
  0
VERTEX
  5
10D00
  8
0
 10
157.3608445204363
 20
192.56996135600019
 30
0.0
  0
VERTEX
  5
10D01
  8
0
 10
156.8121893304556
 20
192.25319300985461
 30
0.0
  0
VERTEX
  5
10D02
  8
0
 10
156.38375082041281
 20
192.00583429417719
 30
0.0
  0
VERTEX
  5
10D03
  8
0
 10
156.0919983603448
 20
191.83738966237641
 30
0.0
  0
VERTEX
  5
10D04
  8
0
 10
155.94814241466341
 20
191.75433454989329
 30
0.0
  0
VERTEX
  5
10D05
  8
0
 10
155.93333614293991
 20
191.74578841746791
 30
0.0
  0
SEQEND
  5
10D06
  8
0
  0
POLYLINE
  5
ECCD
  8
0
 66
     1
 10
0.0
 20
0.0
 30
0.0
 70
   128
  0
VERTEX
  5
10D07
  8
0
 10
171.5027011914726
 20
188.03309147013081
 30
0.0
  0
VERTEX
  5
10D08
  8
0
 10
171.48738995671829
 20
188.02425186136631
 30
0.0
  0
VERTEX
  5
10D09
  8
0
 10
171.34558625885299
 20
187.942382061741
 30
0.0
  0
VERTEX
  5
10D0A
  8
0
 10
171.05837746787529
 20
187.77656208691781
 30
0.0
  0
VERTEX
  5
10D0B
  8
0
 10
170.63283988397461
 20
187.53087516143839
 30
0.0
  0
VERTEX
  5
10D0C
  8
0
 10
170.07945110676519
 20
187.2113767278679
 30
0.0
  0
VERTEX
  5
10D0D
  8
0
 10
169.4118346929381
 20
186.82592785235499
 30
0.0
  0
VERTEX
  5
10D0E
  8
0
 10
168.64643270567919
 20
186.38402294435741
 30
0.0
  0
VERTEX
  5
10D0F
  8
0
 10
167.80208689657539
 20
185.89654117958429
 30
0.0
  0
VERTEX
  5
10D10
  8
0
 10
166.8995958068663
 20
185.3754860163416
 30
0.0
  0
VERTEX
  5
10D11
  8
0
 10
165.96117468161989
 20
184.83369048937391
 30
0.0
  0
VERTEX
  5
10D12
  8
0
 10
165.00993696908969
 20
184.2844928351164
 30
0.0
  0
VERTEX
  5
10D13
  8
0
 10
164.0693009847391
 20
183.7414166087942
 30
0.0
  0
VERTEX
  5
10D14
  8
0
 10
163.1624288372268
 20
183.2178321750707
 30
0.0
  0
VERTEX
  5
10D15
  8
0
 10
162.31164972250369
 20
182.72663582695901
 30
0.0
  0
VERTEX
  5
10D16
  8
0
 10
161.53791275276939
 20
182.2799204559642
 30
0.0
  0
VERTEX
  5
10D17
  8
0
 10
160.86027367840319
 20
181.8886825748379
 30
0.0
  0
VERTEX
  5
10D18
  8
0
 10
160.29541364022859
 20
181.5625624667511
 30
0.0
  0
VERTEX
  5
10D19
  8
0
 10
159.8572447974357
 20
181.30958579591561
 30
0.0
  0
VERTEX
  5
10D1A
  8
0
 10
159.556555570146
 20
181.1359812833586
 30
0.0
  0
VERTEX
  5
10D1B
  8
0
 10
159.4007442549277
 20
181.046024789261
 30
0.0
  0
VERTEX
  5
10D1C
  8
0
 10
159.37834604320821
 20
181.03309091381581
 30
0.0
  0
SEQEND
  5
10D1D
  8
0
  0
LINE
  5
ECCE
  8
0
 10
120.0120366038131
 20
240.59080732324
 30
0.0
 11
120.0219775409746
 21
240.589721401118
 31
0.0
  0
LINE
  5
ECCF
  8
0
 10
147.86903474939339
 20
237.59454143502589
 30
0.0
 11
147.859093812232
 21
237.5956254945028
 31
0.0
  0
LINE
  5
ECD0
  8
0
 10
156.7362405293652
 20
192.20935406237911
 30
0.0
 11
156.32643627992729
 21
192.31916085033939
 31
0.0
  0
LINE
  5
ECD1
  8
0
 10
163.25463611909021
 20
196.31916111603911
 30
0.0
 11
163.14483069468039
 21
195.90935177775961
 31
0.0
  0
LINE
  5
ECD2
  8
0
 10
144.80444660342479
 20
228.2758263513104
 30
0.0
 11
163.25463611909021
 21
196.31916111603911
 31
0.0
  0
LINE
  5
ECD3
  8
0
 10
156.32643627992729
 20
192.31916085033939
 30
0.0
 11
141.13536895811009
 21
218.63085878542549
 31
0.0
  0
LINE
  5
ECD4
  8
0
 10
163.14483069468039
 20
195.90935177775961
 30
0.0
 11
163.9477410344038
 21
196.3729053823433
 31
0.0
  0
LINE
  5
ECD5
  8
0
 10
155.93333614293991
 20
191.74578841746791
 30
0.0
 11
156.7362405293652
 21
192.20935406237911
 31
0.0
  0
ARC
  5
ECD6
  8
0
 10
156.4333415957426
 20
190.87976528359491
 30
0.0
 40
1.000000000000022
 50
120.0001963882241
 51
202.2348339815708
  0
ARC
  5
ECD7
  8
0
 10
164.4477361130707
 20
195.50687811556611
 30
0.0
 40
0.9999999999999674
 50
37.76516601843413
 51
119.9998036117737
  0
ARC
  5
ECD8
  8
0
 10
173.9417153289005
 20
169.80858105533551
 30
0.0
 40
0.0024015206803624
 50
115.7227823073648
 51
123.8545729220468
  0
ARC
  5
ECD9
  8
0
 10
161.44037619063869
 20
191.46121308439419
 30
0.0
 40
25.00000136570722
 50
285.98956102023431
 51
300.00000000000159
  0
ARC
  5
ECDA
  8
0
 10
161.440670249156
 20
191.46138285915771
 30
0.0
 40
25.00000136570722
 50
300.00000000000159
 51
314.0104389797782
  0
ARC
  5
ECDB
  8
0
 10
167.98261695086779
 20
168.6300592406009
 30
0.0
 40
1.2500006828506069
 50
209.99818339807589
 51
285.98905878569479
  0
ARC
  5
ECDC
  8
0
 10
177.941909095477
 20
174.38005924122919
 30
0.0
 40
1.2500006828506049
 50
314.01094121429912
 51
30.001816601923821
  0
LINE
  5
ECDD
  8
0
 10
166.900062017663
 20
168.00509349204609
 30
0.0
 11
159.37834604320821
 21
181.03309091381581
 31
0.0
  0
LINE
  5
ECDE
  8
0
 10
171.5027011914726
 20
188.03309147013081
 30
0.0
 11
179.02441716592739
 21
175.0050940483612
 31
0.0
  0
LINE
  5
ECDF
  8
0
 10
165.2382637516539
 20
196.11930474970109
 30
0.0
 11
171.5027011914726
 21
188.03309147013081
 31
0.0
  0
LINE
  5
ECE0
  8
0
 10
159.37834604320821
 20
181.03309091381581
 30
0.0
 11
155.50770140632719
 21
190.50136170347301
 31
0.0
  0
LINE
  5
ECE1
  8
1
 10
109.9114691941283
 20
239.09267360427259
 30
0.0
 11
158.20612313324179
 21
239.09267360427259
 31
0.0
  0
LINE
  5
ECE2
  8
1
 10
133.9405356766033
 20
207.86554693570301
 30
0.0
 11
133.9405356766033
 21
270.31980027284231
 31
0.0
  0
CIRCLE
  5
ECE3
  8
0
 10
133.9405356766033
 20
239.09267360427259
 30
0.0
 40
4.0000001899898052
  0
LINE
  5
ED29
  8
0
 10
448.34804656402957
 20
213.87571502549099
 30
0.0
 11
444.99394354467489
 21
215.81220871119871
 31
0.0
  0
LINE
  5
ED2A
  8
0
 10
415.80112416767952
 20
173.4810515506563
 30
0.0
 11
426.28459890259222
 21
167.4284145904119
 31
0.0
  0
LINE
  5
ED2B
  8
0
 10
415.58711366810343
 20
175.00509435756109
 30
0.0
 11
427.71146992653303
 21
168.00509572410871
 31
0.0
  0
LINE
  5
ED2C
  8
0
 10
423.13122599163307
 20
188.0201611300815
 30
0.0
 11
435.23318479082309
 21
181.03309122301559
 31
0.0
  0
CIRCLE
  5
ED2D
  8
0
 10
460.67099515742888
 20
216.59267391347259
 30
0.0
 40
2.5
  0
CIRCLE
  5
ED2E
  8
0
 10
460.67099515742888
 20
216.59267391347259
 30
0.0
 40
3.0
  0
LINE
  5
ED2F
  8
1
 10
454.67099515742848
 20
261.59267391347242
 30
0.0
 11
466.67099515742848
 21
261.59267391347242
 31
0.0
  0
LINE
  5
ED30
  8
1
 10
454.67099515742848
 20
216.59267391347259
 30
0.0
 11
466.67099515742848
 21
216.59267391347259
 31
0.0
  0
LINE
  5
ED31
  8
1
 10
436.64192867495331
 20
239.09267391347251
 30
0.0
 11
484.93658261406739
 21
239.09267391347251
 31
0.0
  0
LINE
  5
ED32
  8
1
 10
460.67099515742842
 20
207.86554724490281
 30
0.0
 11
460.67099515742842
 21
270.31980058204209
 31
0.0
  0
ARC
  5
ED34
  8
0
 10
460.67099985098503
 20
239.09267289259759
 30
0.0
 40
14.00000474983435
 50
159.17250599275241
 51
200.8274890529805
  0
LINE
  5
ED35
  8
0
 10
473.75616766906558
 20
244.07045135729831
 30
0.0
 11
471.72096241659699
 21
249.42043016188691
 31
0.0
  0
LINE
  5
ED36
  8
0
 10
474.59949423021862
 20
240.59080763243961
 30
0.0
 11
474.58955329305712
 21
240.5897217103176
 31
0.0
  0
LINE
  5
ED37
  8
1
 10
460.67099515742939
 20
239.09267391347251
 30
0.0
 11
417.9289962831744
 21
165.06136024621441
 31
0.0
  0
POLYLINE
  5
ED38
  8
0
 66
     1
 10
0.0
 20
0.0
 30
0.0
 70
   128
  0
VERTEX
  5
10D1E
  8
0
 10
431.35689471494101
 20
196.31916142523889
 30
0.0
  0
VERTEX
  5
10D1F
  8
0
 10
431.37587127186998
 20
196.3082052220208
 30
0.0
  0
VERTEX
  5
10D20
  8
0
 10
431.52643894798712
 20
196.22127365523801
 30
0.0
  0
VERTEX
  5
10D21
  8
0
 10
431.82099551248251
 20
196.0512131746589
 30
0.0
  0
VERTEX
  5
10D22
  8
0
 10
432.24666790172517
 20
195.80544922167039
 30
0.0
  0
VERTEX
  5
10D23
  8
0
 10
432.78484735473648
 20
195.49473309189369
 30
0.0
  0
VERTEX
  5
10D24
  8
0
 10
433.4120160072352
 20
195.13263410429161
 30
0.0
  0
VERTEX
  5
10D25
  8
0
 10
434.10076822520477
 20
194.7349850441812
 30
0.0
  0
VERTEX
  5
10D26
  8
0
 10
434.82099717894289
 20
194.31916061061361
 30
0.0
  0
VERTEX
  5
10D27
  8
0
 10
435.54122104384078
 20
193.90333754059679
 30
0.0
  0
VERTEX
  5
10D28
  8
0
 10
436.22997326180979
 20
193.5056884804865
 30
0.0
  0
VERTEX
  5
10D29
  8
0
 10
436.85714191430861
 20
193.1435894928843
 30
0.0
  0
VERTEX
  5
10D2A
  8
0
 10
437.3953232299645
 20
192.83287013691159
 30
0.0
  0
VERTEX
  5
10D2B
  8
0
 10
437.82099375656247
 20
192.5871094101191
 30
0.0
  0
VERTEX
  5
10D2C
  8
0
 10
438.11555032105838
 20
192.41704892954019
 30
0.0
  0
VERTEX
  5
10D2D
  8
0
 10
438.26611799717551
 20
192.33011736275711
 30
0.0
  0
VERTEX
  5
10D2E
  8
0
 10
438.28509455410398
 20
192.31916115953911
 30
0.0
  0
SEQEND
  5
10D2F
  8
0
  0
CIRCLE
  5
ED39
  8
0
 10
460.67099515742888
 20
261.59267391347259
 30
0.0
 40
3.0
  0
POLYLINE
  5
ED3A
  8
0
 66
     1
 10
0.0
 20
0.0
 30
0.0
 70
   128
  0
VERTEX
  5
10D30
  8
0
 10
439.1038294277036
 20
190.50136201267259
 30
0.0
  0
VERTEX
  5
10D31
  8
0
 10
439.10382756505851
 20
190.5013652388686
 30
0.0
  0
VERTEX
  5
10D32
  8
0
 10
439.02883444169032
 20
190.5446590404824
 30
0.0
  0
VERTEX
  5
10D33
  8
0
 10
438.80829074309162
 20
190.6719910869424
 30
0.0
  0
VERTEX
  5
10D34
  8
0
 10
438.44889988465951
 20
190.8794844248541
 30
0.0
  0
VERTEX
  5
10D35
  8
0
 10
437.96157950392399
 20
191.16084298426901
 30
0.0
  0
SEQEND
  5
10D36
  8
0
  0
POLYLINE
  5
ED3B
  8
0
 66
     1
 10
0.0
 20
0.0
 30
0.0
 70
   128
  0
VERTEX
  5
10D37
  8
0
 10
437.96157950392399
 20
191.16084298426901
 30
0.0
  0
VERTEX
  5
10D38
  8
0
 10
437.36113500815179
 20
191.5075072288835
 30
0.0
  0
VERTEX
  5
10D39
  8
0
 10
436.6658128165754
 20
191.90895112603741
 30
0.0
  0
VERTEX
  5
10D3A
  8
0
 10
435.89674041830079
 20
192.35297399203949
 30
0.0
  0
VERTEX
  5
10D3B
  8
0
 10
435.07728560574191
 20
192.82608762608879
 30
0.0
  0
VERTEX
  5
10D3C
  8
0
 10
434.23234496337949
 20
193.3139142188738
 30
0.0
  0
VERTEX
  5
10D3D
  8
0
 10
433.38759101295909
 20
193.8016335185664
 30
0.0
  0
VERTEX
  5
10D3E
  8
0
 10
432.5686962762274
 20
194.27442527333869
 30
0.0
  0
VERTEX
  5
10D3F
  8
0
 10
431.80053511965531
 20
194.71792035427819
 30
0.0
  0
VERTEX
  5
10D40
  8
0
 10
431.10645584474878
 20
195.11864941866631
 30
0.0
  0
VERTEX
  5
10D41
  8
0
 10
430.50754150459301
 20
195.46442914361089
 30
0.0
  0
VERTEX
  5
10D42
  8
0
 10
430.02199172066219
 20
195.7447623984842
 30
0.0
  0
VERTEX
  5
10D43
  8
0
 10
429.66456137717341
 20
195.95112500140681
 30
0.0
  0
VERTEX
  5
10D44
  8
0
 10
429.44610791001833
 20
196.07725064891929
 30
0.0
  0
VERTEX
  5
10D45
  8
0
 10
429.37326708237742
 20
196.11930505890081
 30
0.0
  0
SEQEND
  5
10D46
  8
0
  0
ARC
  5
ED3C
  8
0
 10
460.67099515742802
 20
216.59267391347259
 30
0.0
 40
6.0000000000000329
 50
200.82749693201191
 51
339.17250306798809
  0
LINE
  5
ED3D
  8
0
 10
453.47616219506511
 20
218.63085845432769
 30
0.0
 11
455.0630642140581
 21
214.45934160136551
 31
0.0
  0
LINE
  5
ED3E
  8
0
 10
466.27892610079778
 20
214.45934160136531
 30
0.0
 11
471.72096241659699
 21
228.76491828345601
 31
0.0
  0
LINE
  5
ED3F
  8
0
 10
471.72096241659699
 20
249.42043016188691
 30
0.0
 11
466.27892610079869
 21
263.72600730963887
 31
0.0
  0
LINE
  5
ED40
  8
0
 10
455.06306421405901
 20
263.7260073096391
 30
0.0
 11
449.6210278982598
 21
249.42043016188711
 31
0.0
  0
CIRCLE
  5
ED41
  8
0
 10
460.67099515742888
 20
261.59267391347259
 30
0.0
 40
2.5
  0
ARC
  5
ED42
  8
0
 10
460.67099515742888
 20
261.59267391347259
 30
0.0
 40
5.9999999999999813
 50
20.82749693201189
 51
159.17250306798809
  0
LINE
  5
ED43
  8
0
 10
460.12547784879092
 20
221.0926754631931
 30
0.0
 11
461.21651246606592
 21
221.0926754631931
 31
0.0
  0
ARC
  5
ED44
  8
0
 10
461.21651248552411
 20
225.0926739134724
 30
0.0
 40
4.0
 50
270.0
 51
329.99999999999341
  0
ARC
  5
ED45
  8
0
 10
460.12547782933279
 20
225.0926739134724
 30
0.0
 40
4.0000000000000178
 50
209.9999999999946
 51
270.0
  0
ARC
  5
ED46
  8
0
 10
477.67099515742842
 20
215.59267391347211
 30
0.0
 40
15.00000000000008
 50
123.247699661683
 51
149.99999999999321
  0
ARC
  5
ED47
  8
0
 10
443.67099515742802
 20
215.59267391347259
 30
0.0
 40
15.000000000000011
 50
29.999999999994579
 51
32.300857930560667
  0
LINE
  5
ED48
  8
0
 10
471.72096241659699
 20
228.76491828345601
 30
0.0
 11
473.75616766906558
 21
234.11489522539901
 31
0.0
  0
ARC
  5
ED49
  8
0
 10
463.9645038208746
 20
236.5003781212753
 30
0.0
 40
10.000000000000069
 50
303.24769966168299
 51
339.17250306798809
  0
ARC
  5
ED4A
  8
0
 10
460.67099515742842
 20
239.09267391347231
 30
0.0
 40
14.0
 50
339.17250306798809
 51
20.82749693201189
  0
LINE
  5
ED4B
  8
0
 10
473.75616766906558
 20
244.07045135729831
 30
0.0
 11
473.31105508304421
 21
245.24052499317449
 31
0.0
  0
LINE
  5
ED4C
  8
0
 10
449.6210278982598
 20
249.42043016188711
 30
0.0
 11
447.58582264579121
 21
244.07045135729879
 31
0.0
  0
ARC
  5
ED4D
  8
0
 10
457.3774864939823
 20
241.68496970566949
 30
0.0
 40
10.000000000000011
 50
123.247699661683
 51
159.17250306798809
  0
ARC
  5
ED4E
  8
0
 10
463.964503820875
 20
241.68496970566949
 30
0.0
 40
10.00000000000008
 50
20.82749693201189
 51
56.752300338316651
  0
ARC
  5
ED4F
  8
0
 10
443.67099515742888
 20
262.59267391347259
 30
0.0
 40
15.0
 50
303.24769966168299
 51
330.0000000000054
  0
ARC
  5
ED50
  8
0
 10
477.67099515742888
 20
262.5926739134722
 30
0.0
 40
15.000000000000121
 50
209.9999999999946
 51
236.7523003383169
  0
ARC
  5
ED51
  8
0
 10
461.21651248552411
 20
253.0926739134724
 30
0.0
 40
4.0000000000000044
 50
29.999999999994579
 51
90.0
  0
ARC
  5
ED52
  8
0
 10
460.12547782933319
 20
253.0926739134724
 30
0.0
 40
4.0
 50
90.0
 51
149.99999999999321
  0
ARC
  5
ED53
  8
0
 10
460.67099515742842
 20
224.59267391347211
 30
0.0
 40
2.3499999999999721
 50
136.6607341472521
 51
43.3392658527479
  0
LINE
  5
ED54
  8
0
 10
461.21651246606638
 20
257.09267391347242
 30
0.0
 11
460.12547784879138
 21
257.09267391347242
 31
0.0
  0
CIRCLE
  5
ED55
  8
0
 10
460.67099515742842
 20
239.09267391347231
 30
0.0
 40
11.999999999999931
  0
CIRCLE
  5
ED56
  8
0
 10
460.67099515742842
 20
239.09267391347231
 30
0.0
 40
12.99999999999997
  0
LINE
  5
ED57
  8
0
 10
440.99394259719969
 20
208.8840063276152
 30
0.0
 11
444.99394354467489
 21
215.81220871119871
 31
0.0
  0
POLYLINE
  5
ED58
  8
0
 66
     1
 10
0.0
 20
0.0
 30
0.0
 70
   128
  0
VERTEX
  5
10D47
  8
0
 10
440.99394259719969
 20
208.8840063276152
 30
0.0
  0
VERTEX
  5
10D48
  8
0
 10
441.38924127315931
 20
208.6557813063782
 30
0.0
  0
VERTEX
  5
10D49
  8
0
 10
441.80496883176409
 20
208.41576096062789
 30
0.0
  0
VERTEX
  5
10D4A
  8
0
 10
442.23450527545168
 20
208.1677671667955
 30
0.0
  0
VERTEX
  5
10D4B
  8
0
 10
442.67099364121577
 20
207.91576029131011
 30
0.0
  0
VERTEX
  5
10D4C
  8
0
 10
443.10748709582089
 20
207.66375205227399
 30
0.0
  0
VERTEX
  5
10D4D
  8
0
 10
443.53702006376528
 20
207.41576055331529
 30
0.0
  0
VERTEX
  5
10D4E
  8
0
 10
443.95274948501532
 20
207.175736981369
 30
0.0
  0
VERTEX
  5
10D4F
  8
0
 10
444.34804468523168
 20
206.94751425500519
 30
0.0
  0
SEQEND
  5
10D50
  8
0
  0
LINE
  5
ED59
  8
0
 10
448.34804656402957
 20
213.87571502549099
 30
0.0
 11
444.34804468523168
 21
206.94751425500519
 31
0.0
  0
LINE
  5
ED5A
  8
0
 10
474.59949423021862
 20
240.59080763243961
 30
0.0
 11
474.58955329305712
 21
240.5897217103176
 31
0.0
  0
ARC
  5
ED5B
  8
0
 10
460.67099515742842
 20
224.59267391347211
 30
0.0
 40
2.000000000000012
 50
128.72363584253841
 51
51.2763641574616
  0
LINE
  5
ED5C
  8
0
 10
459.68654284182219
 20
225.19615288906621
 30
0.0
 11
460.70139709694013
 21
225.74697431259679
 31
0.0
  0
LINE
  5
ED5D
  8
0
 10
459.65614086411182
 20
224.04185259797501
 30
0.0
 11
459.68654284182219
 21
225.19615288906621
 31
0.0
  0
LINE
  5
ED5E
  8
0
 10
460.64059321791677
 20
223.43837373041441
 30
0.0
 11
459.65614086411182
 21
224.04185259797501
 31
0.0
  0
LINE
  5
ED5F
  8
0
 10
461.6554474730346
 20
223.98919492111429
 30
0.0
 11
460.64059321791677
 21
223.43837373041441
 31
0.0
  0
LINE
  5
ED60
  8
0
 10
461.68584945074502
 20
225.14349497937491
 30
0.0
 11
461.6554474730346
 21
223.98919492111429
 31
0.0
  0
LINE
  5
ED61
  8
0
 10
460.70139709694013
 20
225.74697431259679
 30
0.0
 11
461.68584945074502
 21
225.14349497937491
 31
0.0
  0
LINE
  5
ED62
  8
0
 10
431.46670013935039
 20
195.90935208695939
 30
0.0
 11
431.35689471494101
 21
196.31916142523889
 31
0.0
  0
LINE
  5
ED63
  8
0
 10
438.28509455410398
 20
192.31916115953911
 30
0.0
 11
437.87529030466601
 21
192.20935437157871
 31
0.0
  0
LINE
  5
ED64
  8
0
 10
457.9504384885085
 20
226.3805312376212
 30
0.0
 11
438.28509455410398
 21
192.31916115953911
 31
0.0
  0
LINE
  5
ED65
  8
0
 10
431.35689471494101
 20
196.31916142523889
 30
0.0
 11
451.02223506549171
 21
230.38053176225779
 31
0.0
  0
LINE
  5
ED66
  8
0
 10
430.66378979962701
 20
196.37290569154311
 30
0.0
 11
438.67819220669293
 21
191.7457892827633
 31
0.0
  0
ARC
  5
ED67
  8
0
 10
430.16379472096008
 20
195.50687842476569
 30
0.0
 40
1.0000000000000091
 50
60.00019638822841
 51
142.2348339815828
  0
ARC
  5
ED68
  8
0
 10
438.17818923828872
 20
190.8797655927944
 30
0.0
 40
0.9999999999999655
 50
337.76516601841672
 51
59.999803611775569
  0
ARC
  5
ED69
  8
0
 10
420.66981550513032
 20
169.808581364535
 30
0.0
 40
0.0024015206804147
 50
56.145427078863626
 51
64.277217693371497
  0
ARC
  5
ED6A
  8
0
 10
433.1708605848753
 20
191.46138316835749
 30
0.0
 40
25.00000136570722
 50
225.9895610202224
 51
239.99999999999829
  0
ARC
  5
ED6B
  8
0
 10
433.17115464339207
 20
191.46121339359379
 30
0.0
 40
25.000001365707259
 50
239.99999999999829
 51
254.01043897977931
  0
ARC
  5
ED6C
  8
0
 10
416.6696217385537
 20
174.380059550429
 30
0.0
 40
1.25000068285064
 50
149.99818339807561
 51
225.98905878570031
  0
ARC
  5
ED6D
  8
0
 10
426.62891388316342
 20
168.63005954980071
 30
0.0
 40
1.2500006828506069
 50
254.01094121430501
 51
330.00181660194153
  0
LINE
  5
ED6E
  8
0
 10
415.58711366810343
 20
175.00509435756109
 30
0.0
 11
423.10882964255859
 21
188.0330917793305
 31
0.0
  0
LINE
  5
ED6F
  8
0
 10
435.23318479082309
 20
181.03309122301559
 30
0.0
 11
427.71146881636832
 21
168.00509380124609
 31
0.0
  0
LINE
  5
ED70
  8
0
 10
439.1038294277036
 20
190.50136201267259
 30
0.0
 11
435.23318479082309
 21
181.03309122301559
 31
0.0
  0
LINE
  5
ED71
  8
0
 10
423.10882964255859
 20
188.0330917793305
 30
0.0
 11
429.37326708237742
 21
196.11930505890081
 31
0.0
  0
CIRCLE
  5
ED72
  8
0
 10
460.67099515742842
 20
239.09267391347251
 30
0.0
 40
3.9999998807898289
  0
POLYLINE
  5
FA15
  8
0
 66
     1
 10
0.0
 20
0.0
 30
0.0
 70
   128
  0
VERTEX
  5
10D51
  8
0
 10
320.92939708028052
 20
357.3042895662656
 30
0.0
  0
VERTEX
  5
10D52
  8
0
 10
320.0738767126582
 20
357.34778838409687
 30
0.0
  0
VERTEX
  5
10D53
  8
0
 10
319.25338524971221
 20
357.4765041488281
 30
0.0
  0
VERTEX
  5
10D54
  8
0
 10
318.5015061834834
 20
357.68516743733198
 30
0.0
  0
VERTEX
  5
10D55
  8
0
 10
317.84902903828828
 20
357.96523476197029
 30
0.0
  0
VERTEX
  5
10D56
  8
0
 10
317.32266042027692
 20
358.30524107618851
 30
0.0
  0
VERTEX
  5
10D57
  8
0
 10
316.94395113382552
 20
358.69126590146351
 30
0.0
  0
VERTEX
  5
10D58
  8
0
 10
316.76592815493092
 20
359.0137229748492
 30
0.0
  0
SEQEND
  5
10D59
  8
0
  0
ARC
  5
FA16
  8
0
 10
321.45362482578457
 20
361.94961916796268
 30
0.0
 40
4.674815700919023
 50
263.5613831370174
 51
321.11437189131078
  0
POLYLINE
  5
FA17
  8
0
 66
     1
 10
0.0
 20
0.0
 30
0.0
 70
   128
  0
VERTEX
  5
10D5A
  8
0
 10
320.92939708028052
 20
357.97928981660522
 30
0.0
  0
VERTEX
  5
10D5B
  8
0
 10
320.20819577965949
 20
358.02484406335873
 30
0.0
  0
VERTEX
  5
10D5C
  8
0
 10
319.5323126355193
 20
358.1586448493473
 30
0.0
  0
VERTEX
  5
10D5D
  8
0
 10
318.94421223197202
 20
358.37228512568993
 30
0.0
  0
VERTEX
  5
10D5E
  8
0
 10
318.48084572348807
 20
358.65234080879611
 30
0.0
  0
VERTEX
  5
10D5F
  8
0
 10
318.17133370433072
 20
358.98121502427978
 30
0.0
  0
VERTEX
  5
10D60
  8
0
 10
318.0351184645674
 20
359.33824358685541
 30
0.0
  0
VERTEX
  5
10D61
  8
0
 10
318.08076444659451
 20
359.70099233268422
 30
0.0
  0
VERTEX
  5
10D62
  8
0
 10
318.30539945159171
 20
360.0466694700591
 30
0.0
  0
VERTEX
  5
10D63
  8
0
 10
318.69490835461829
 20
360.35355422823352
 30
0.0
  0
VERTEX
  5
10D64
  8
0
 10
319.2248197237036
 20
360.6023645046227
 30
0.0
  0
VERTEX
  5
10D65
  8
0
 10
319.86183691415999
 20
360.77746525584382
 30
0.0
  0
VERTEX
  5
10D66
  8
0
 10
320.56593168173049
 20
360.8678556996457
 30
0.0
  0
VERTEX
  5
10D67
  8
0
 10
321.29286247883061
 20
360.8678556996457
 30
0.0
  0
VERTEX
  5
10D68
  8
0
 10
321.99695724640111
 20
360.77746525584382
 30
0.0
  0
VERTEX
  5
10D69
  8
0
 10
322.6339744368575
 20
360.6023645046227
 30
0.0
  0
VERTEX
  5
10D6A
  8
0
 10
323.16388580594281
 20
360.35355422823352
 30
0.0
  0
VERTEX
  5
10D6B
  8
0
 10
323.55339470896928
 20
360.0466694700591
 30
0.0
  0
VERTEX
  5
10D6C
  8
0
 10
323.77802971396659
 20
359.70099233268422
 30
0.0
  0
VERTEX
  5
10D6D
  8
0
 10
323.8236756959937
 20
359.33824358685541
 30
0.0
  0
VERTEX
  5
10D6E
  8
0
 10
323.68746045623038
 20
358.98121502427978
 30
0.0
  0
VERTEX
  5
10D6F
  8
0
 10
323.37794843707297
 20
358.65234080879611
 30
0.0
  0
VERTEX
  5
10D70
  8
0
 10
322.91458192858909
 20
358.37228512568993
 30
0.0
  0
VERTEX
  5
10D71
  8
0
 10
322.3264815250418
 20
358.1586448493473
 30
0.0
  0
VERTEX
  5
10D72
  8
0
 10
321.65059838090161
 20
358.02484406335873
 30
0.0
  0
VERTEX
  5
10D73
  8
0
 10
320.92939708028052
 20
357.97928981660522
 30
0.0
  0
SEQEND
  5
10D74
  8
0
  0
POLYLINE
  5
FA18
  8
0
 66
     1
 10
0.0
 20
0.0
 30
0.0
 70
   128
  0
VERTEX
  5
10D75
  8
0
 10
320.92939708028052
 20
359.07210977925581
 30
0.0
  0
VERTEX
  5
10D76
  8
0
 10
320.3377576509497
 20
359.11464234991593
 30
0.0
  0
VERTEX
  5
10D77
  8
0
 10
319.79405153188918
 20
359.2387937027089
 30
0.0
  0
VERTEX
  5
10D78
  8
0
 10
319.34232283029769
 20
359.43450601949019
 30
0.0
  0
VERTEX
  5
10D79
  8
0
 10
319.01916879806731
 20
359.68592446474952
 30
0.0
  0
VERTEX
  5
10D7A
  8
0
 10
318.8507707754157
 20
359.9726796167962
 30
0.0
  0
VERTEX
  5
10D7B
  8
0
 10
318.8507707754157
 20
360.27154009966767
 30
0.0
  0
VERTEX
  5
10D7C
  8
0
 10
318.96810624394629
 20
360.49738768665719
 30
0.0
  0
SEQEND
  5
10D7D
  8
0
  0
POLYLINE
  5
FA19
  8
0
 66
     1
 10
0.0
 20
0.0
 30
0.0
 70
   128
  0
VERTEX
  5
10D7E
  8
0
 10
322.89068791661481
 20
360.49738768665719
 30
0.0
  0
VERTEX
  5
10D7F
  8
0
 10
323.00802338514541
 20
360.27154009966767
 30
0.0
  0
VERTEX
  5
10D80
  8
0
 10
323.00802338514541
 20
359.9726796167962
 30
0.0
  0
VERTEX
  5
10D81
  8
0
 10
322.83962536249368
 20
359.68592446474952
 30
0.0
  0
VERTEX
  5
10D82
  8
0
 10
322.51647133026341
 20
359.43450601949019
 30
0.0
  0
VERTEX
  5
10D83
  8
0
 10
322.06474262867192
 20
359.2387937027089
 30
0.0
  0
VERTEX
  5
10D84
  8
0
 10
321.52103650961141
 20
359.11464234991593
 30
0.0
  0
VERTEX
  5
10D85
  8
0
 10
320.92939708028052
 20
359.07210977925581
 30
0.0
  0
SEQEND
  5
10D86
  8
0
  0
POLYLINE
  5
FA1A
  8
0
 66
     1
 10
0.0
 20
0.0
 30
0.0
 70
     2
  0
VERTEX
  5
FA1B
  8
0
 10
316.76592815493092
 20
359.0137229748492
 30
0.0
 42
-0.0136194405989041
  0
VERTEX
  5
FA1C
  8
0
 10
316.87172616753378
 20
359.23423923563257
 30
0.0
 42
-0.0233347530822382
 70
     1
  0
VERTEX
  5
FA1D
  8
0
 10
316.94283511796272
 20
359.35807875098419
 30
0.0
 42
-0.0036645982422697
  0
VERTEX
  5
FA1E
  8
0
 10
317.11762771777148
 20
359.62766862297059
 30
0.0
 42
-0.0199560034756597
 70
     1
  0
VERTEX
  5
FA1F
  8
0
 10
317.15204057699981
 20
359.67562207650911
 30
0.0
 42
-0.0202573009818774
  0
VERTEX
  5
FA20
  8
0
 10
317.26157627379507
 20
359.80491081590702
 30
0.0
 42
-0.0155965373101569
 70
     1
  0
VERTEX
  5
FA21
  8
0
 10
317.4154834395631
 20
359.96218573569303
 30
0.0
 42
-0.0111729479594784
  0
VERTEX
  5
FA22
  8
0
 10
317.585541832042
 20
360.11830352930599
 30
0.0
 42
-0.0134375759887161
 70
     1
  0
VERTEX
  5
FA23
  8
0
 10
317.73316370565232
 20
360.24100389644821
 30
0.0
 42
-0.0130346543441323
  0
VERTEX
  5
FA24
  8
0
 10
317.90894060388342
 20
360.37202094538532
 30
0.0
 42
-0.0108020478175793
 70
     1
  0
VERTEX
  5
FA25
  8
0
 10
318.1283288323807
 20
360.51982205720338
 30
0.0
 42
-0.0118805385192597
  0
VERTEX
  5
FA26
  8
0
 10
318.38458937927038
 20
360.6760532761449
 30
0.0
 42
-0.0347061697752847
 70
     1
  0
VERTEX
  5
FA27
  8
0
 10
318.47700404218631
 20
360.72119105210652
 30
0.0
 42
-0.0005328240968816
  0
VERTEX
  5
FA28
  8
0
 10
318.63551776518312
 20
360.78522064626702
 30
0.0
 42
0.0003456345337514
 70
     1
  0
VERTEX
  5
FA29
  8
0
 10
318.87991665551817
 20
360.88383604592661
 30
0.0
 42
0.000182905467254
  0
VERTEX
  5
FA2A
  8
0
 10
319.09827624171982
 20
360.97221305811883
 30
0.0
 42
-0.0003730772728781
 70
     1
  0
VERTEX
  5
FA2B
  8
0
 10
319.20534607397849
 20
361.01550020971888
 30
0.0
 42
-0.0188838054578403
  0
VERTEX
  5
FA2C
  8
0
 10
319.28316952257552
 20
361.04352838113402
 30
0.0
 42
-0.0056758509963407
 70
     1
  0
VERTEX
  5
FA2D
  8
0
 10
319.54627213141288
 20
361.12392904191222
 30
0.0
 42
-0.0088369603555272
  0
VERTEX
  5
FA2E
  8
0
 10
319.77078040644659
 20
361.18547157967618
 30
0.0
 42
-0.0143725829644842
 70
     1
  0
VERTEX
  5
FA2F
  8
0
 10
319.91044398019272
 20
361.2168692046219
 30
0.0
 42
-0.0140121239135177
  0
VERTEX
  5
FA30
  8
0
 10
320.06692540295307
 20
361.24282374468862
 30
0.0
 42
-0.0092462579577726
 70
     1
  0
VERTEX
  5
FA31
  8
0
 10
320.30560910692162
 20
361.27108420256178
 30
0.0
 42
-0.0040851709489603
  0
VERTEX
  5
FA32
  8
0
 10
320.46334325862472
 20
361.28550803476929
 30
0.0
 42
-0.0044925130632868
 70
     1
  0
VERTEX
  5
FA33
  8
0
 10
320.60697983929049
 20
361.29616165014829
 30
0.0
 42
-0.0120277271760086
  0
VERTEX
  5
FA34
  8
0
 10
320.78794127689338
 20
361.3035844686043
 30
0.0
 42
-0.0079301374198608
 70
     1
  0
VERTEX
  5
FA35
  8
0
 10
321.0626156731077
 20
361.30388154747033
 30
0.0
 42
-0.0157721669417637
  0
VERTEX
  5
FA36
  8
0
 10
321.32159892321027
 20
361.29187683216719
 30
0.0
 42
-0.0125185242735574
 70
     1
  0
VERTEX
  5
FA37
  8
0
 10
321.6464862736438
 20
361.25832823185959
 30
0.0
 42
-0.0130602745914802
  0
VERTEX
  5
FA38
  8
0
 10
321.91773110908161
 20
361.21620860071869
 30
0.0
 42
-0.0145216887713291
 70
     1
  0
VERTEX
  5
FA39
  8
0
 10
322.15922900853462
 20
361.16493386885452
 30
0.0
 42
-0.0132795966466251
  0
VERTEX
  5
FA3A
  8
0
 10
322.39085276099968
 20
361.10212204096172
 30
0.0
 42
-0.0093397098663152
 70
     1
  0
VERTEX
  5
FA3B
  8
0
 10
322.71578077325381
 20
360.99802137966492
 30
0.0
 42
-0.0116311721405212
  0
VERTEX
  5
FA3C
  8
0
 10
323.03329414664768
 20
360.88140395982907
 30
0.0
 42
-0.0180892753314759
 70
     1
  0
VERTEX
  5
FA3D
  8
0
 10
323.23267484370848
 20
360.79440905325248
 30
0.0
 42
-0.0181703169807502
  0
VERTEX
  5
FA3E
  8
0
 10
323.43185552058998
 20
360.68971503584669
 30
0.0
 42
-0.0139055336416933
 70
     1
  0
VERTEX
  5
FA3F
  8
0
 10
323.68278532532992
 20
360.53653027031021
 30
0.0
 42
-0.008657951477188
  0
VERTEX
  5
FA40
  8
0
 10
323.90916465139298
 20
360.38390324290862
 30
0.0
 42
-0.0103347033931117
 70
     1
  0
VERTEX
  5
FA41
  8
0
 10
324.09382855188642
 20
360.24892511156293
 30
0.0
 42
-0.0129688530058077
  0
VERTEX
  5
FA42
  8
0
 10
324.29576411267038
 20
360.0863626674481
 30
0.0
 42
-0.0154818172660211
 70
     1
  0
VERTEX
  5
FA43
  8
0
 10
324.45691598574967
 20
359.9407773921547
 30
0.0
 42
-0.0143714914790748
  0
VERTEX
  5
FA44
  8
0
 10
324.56524676862369
 20
359.83047962416953
 30
0.0
 42
-0.0097273898970527
 70
     1
  0
VERTEX
  5
FA45
  8
0
 10
324.7172438622992
 20
359.66002052941877
 30
0.0
 42
-0.0171952543482952
  0
VERTEX
  5
FA46
  8
0
 10
324.84751870621079
 20
359.49705142253367
 30
0.0
 42
-0.0226046947599845
 70
     1
  0
VERTEX
  5
FA47
  8
0
 10
324.93646724961673
 20
359.36556707466008
 30
0.0
 42
-0.0327337001382882
  0
VERTEX
  5
FA48
  8
0
 10
325.02015643120558
 20
359.20642349541811
 30
0.0
 42
-0.0287440752919653
 70
     1
  0
VERTEX
  5
FA49
  8
0
 10
325.09250436064849
 20
359.01492027914873
 30
0.0
 42
-0.0085550986846809
  0
VERTEX
  5
FA4A
  8
0
 10
325.12746369679462
 20
358.89631296093859
 30
0.0
 42
-0.0097928531030114
 70
     1
  0
VERTEX
  5
FA4B
  8
0
 10
325.15418311696482
 20
358.79164379461503
 30
0.0
 42
-0.0173834967476679
  0
VERTEX
  5
FA4C
  8
0
 10
325.1743136829578
 20
358.69003658262989
 30
0.0
 42
-0.014492772433954
 70
     1
  0
VERTEX
  5
FA4D
  8
0
 10
325.19064511099992
 20
358.56688353410021
 30
0.0
 42
-0.053440815255957
  0
VERTEX
  5
FA4E
  8
0
 10
325.19022026665613
 20
358.45856040075648
 30
0.0
 42
-0.0344558654658859
 70
     1
  0
VERTEX
  5
FA4F
  8
0
 10
325.16025983834288
 20
358.2935277185407
 30
0.0
 42
-0.0492901370726372
  0
VERTEX
  5
FA50
  8
0
 10
325.10485161790302
 20
358.14029715081358
 30
0.0
 42
-0.059561584771958
 70
     1
  0
VERTEX
  5
FA51
  8
0
 10
325.03263702903217
 20
358.02624518367509
 30
0.0
 42
-0.0312345511280072
  0
VERTEX
  5
FA52
  8
0
 10
324.93074008175557
 20
357.91596012624751
 30
0.0
 42
-0.0205127224381337
 70
     1
  0
VERTEX
  5
FA53
  8
0
 10
324.75916291204572
 20
357.76503709319007
 30
0.0
 42
-0.013593184719541
  0
VERTEX
  5
FA54
  8
0
 10
324.55501937756662
 20
357.60880089497101
 30
0.0
 42
-0.0365324853177983
 70
     1
  0
VERTEX
  5
FA55
  8
0
 10
324.47353202076738
 20
357.55850132950383
 30
0.0
 42
-0.0273175028801743
  0
VERTEX
  5
FA56
  8
0
 10
324.33715878358862
 20
357.49672091632652
 30
0.0
 42
-0.0201632824378528
 70
     1
  0
VERTEX
  5
FA57
  8
0
 10
324.14536074830812
 20
357.43093450645142
 30
0.0
 42
-0.0053779707634316
  0
VERTEX
  5
FA58
  8
0
 10
323.92961973011052
 20
357.36904979736249
 30
0.0
 42
-0.0057339540115986
 70
     1
  0
VERTEX
  5
FA59
  8
0
 10
323.72603199210931
 20
357.31551773584721
 30
0.0
 42
-0.0079211185697664
  0
VERTEX
  5
FA5A
  8
0
 10
323.40516334945232
 20
357.24045160743219
 30
0.0
 42
-0.0107548878487374
 70
     1
  0
VERTEX
  5
FA5B
  8
0
 10
323.16692698384441
 20
357.19402535717541
 30
0.0
 42
-0.016067354376214
  0
VERTEX
  5
FA5C
  8
0
 10
322.88088547008419
 20
357.15405951986361
 30
0.0
 42
-0.00818167248148
 70
     1
  0
VERTEX
  5
FA5D
  8
0
 10
322.31611436292309
 20
357.10290636409349
 30
0.0
 42
-0.0054531080682534
  0
VERTEX
  5
FA5E
  8
0
 10
321.6375750389916
 20
357.0600624314477
 30
0.0
 42
-0.0127849739132607
 70
     1
  0
VERTEX
  5
FA5F
  8
0
 10
321.34764855370207
 20
357.05235348808168
 30
0.0
 42
-0.0029702723451552
  0
VERTEX
  5
FA60
  8
0
 10
321.0615773084009
 20
357.05376269838791
 30
0.0
 42
-0.0064268944634346
 70
     1
  0
VERTEX
  5
FA61
  8
0
 10
320.92939708028052
 20
357.05689862548019
 30
0.0
 42
-0.0015615147051
  0
VERTEX
  5
FA62
  8
0
 10
320.67884017595952
 20
357.06685016564381
 30
0.0
 42
0.0010937633907019
 70
     1
  0
VERTEX
  5
FA63
  8
0
 10
320.32114572432602
 20
357.08139212506899
 30
0.0
 42
0.0020422045049119
  0
VERTEX
  5
FA64
  8
0
 10
319.92604090401983
 20
357.09497342666322
 30
0.0
 42
-0.0017653011121578
 70
     1
  0
VERTEX
  5
FA65
  8
0
 10
319.4689521817977
 20
357.11043192574272
 30
0.0
 42
-0.0119343831594617
  0
VERTEX
  5
FA66
  8
0
 10
319.156500824803
 20
357.12957936927631
 30
0.0
 42
-0.0106342858175613
 70
     1
  0
VERTEX
  5
FA67
  8
0
 10
318.80718756229459
 20
357.16686607414908
 30
0.0
 42
-0.0183606676718649
  0
VERTEX
  5
FA68
  8
0
 10
318.60439707843312
 20
357.20049287983528
 30
0.0
 42
-0.0087905713397897
 70
     1
  0
VERTEX
  5
FA69
  8
0
 10
318.18537805215828
 20
357.29358806068399
 30
0.0
 42
-0.0142614401327568
  0
VERTEX
  5
FA6A
  8
0
 10
317.84308890207421
 20
357.38637821368161
 30
0.0
 42
-0.0201462756264688
 70
     1
  0
VERTEX
  5
FA6B
  8
0
 10
317.60582574265618
 20
357.46858442474439
 30
0.0
 42
-0.0293630191851576
  0
VERTEX
  5
FA6C
  8
0
 10
317.38127288083251
 20
357.5722572442869
 30
0.0
 42
-0.0303062037807811
 70
     1
  0
VERTEX
  5
FA6D
  8
0
 10
317.17719866991911
 20
357.69789120905148
 30
0.0
 42
-0.0116239294547686
  0
VERTEX
  5
FA6E
  8
0
 10
317.07170025491268
 20
357.77573209151183
 30
0.0
 42
-0.0185610799115126
 70
     1
  0
VERTEX
  5
FA6F
  8
0
 10
317.00867959236621
 20
357.82838819512079
 30
0.0
 42
-0.0247810887215969
  0
VERTEX
  5
FA70
  8
0
 10
316.93009878944167
 20
357.90654724762931
 30
0.0
 42
-0.0243665288583783
 70
     1
  0
VERTEX
  5
FA71
  8
0
 10
316.85836735819612
 20
357.99349205885977
 30
0.0
 42
-0.0291886730269237
  0
VERTEX
  5
FA72
  8
0
 10
316.80111174417652
 20
358.08036457688689
 30
0.0
 42
-0.026366832363971
 70
     1
  0
VERTEX
  5
FA73
  8
0
 10
316.74878814701191
 20
358.1829518844541
 30
0.0
 42
-0.0266944660013923
  0
VERTEX
  5
FA74
  8
0
 10
316.70711508317572
 20
358.29182940993348
 30
0.0
 42
-0.0406123742106717
 70
     1
  0
VERTEX
  5
FA75
  8
0
 10
316.68955510548949
 20
358.36649203599421
 30
0.0
 42
-0.021080832036949
  0
VERTEX
  5
FA76
  8
0
 10
316.6801635467632
 20
358.45339035916493
 30
0.0
 42
-0.0196604442320259
 70
     1
  0
VERTEX
  5
FA77
  8
0
 10
316.67770982979891
 20
358.54707176866339
 30
0.0
 42
-0.0096411565481272
  0
VERTEX
  5
FA78
  8
0
 10
316.68102296960109
 20
358.64925746249207
 30
0.0
 42
-0.0141364106339988
 70
     1
  0
VERTEX
  5
FA79
  8
0
 10
316.68659337012468
 20
358.71877024472121
 30
0.0
 42
-0.0174873705642728
  0
VERTEX
  5
FA7A
  8
0
 10
316.69097601355952
 20
358.74916448838877
 30
0.0
 42
-0.0044846214557569
 70
     1
  0
VERTEX
  5
FA7B
  8
0
 10
316.71324898840572
 20
358.86678536981469
 30
0.0
 42
-0.0370478415977166
  0
VERTEX
  5
FA7C
  8
0
 10
316.72842134752909
 20
358.92156926750562
 30
0.0
 42
-0.021147778935399
 70
     1
  0
VERTEX
  5
FA7D
  8
0
 10
316.76592815493092
 20
359.0137229748492
 30
0.0
  0
SEQEND
  5
FA7E
  8
0
  0
POLYLINE
  5
FA7F
  8
0
 66
     1
 10
0.0
 20
0.0
 30
0.0
 70
   128
  0
VERTEX
  5
10D87
  8
0
 10
320.91055769898782
 20
373.3299223229173
 30
0.0
  0
VERTEX
  5
10D88
  8
0
 10
320.18935639836673
 20
373.4088249027613
 30
0.0
  0
VERTEX
  5
10D89
  8
0
 10
319.51347325422648
 20
373.64057497939791
 30
0.0
  0
VERTEX
  5
10D8A
  8
0
 10
318.9253728506792
 20
374.01061062588121
 30
0.0
  0
VERTEX
  5
10D8B
  8
0
 10
318.46200634219531
 20
374.49568114130523
 30
0.0
  0
VERTEX
  5
10D8C
  8
0
 10
318.1524943230379
 20
375.06530829592373
 30
0.0
  0
VERTEX
  5
10D8D
  8
0
 10
318.01627908327458
 20
375.6836995005491
 30
0.0
  0
VERTEX
  5
10D8E
  8
0
 10
318.06192506530169
 20
376.31199951170709
 30
0.0
  0
VERTEX
  5
10D8F
  8
0
 10
318.286560070299
 20
376.9107295654598
 30
0.0
  0
VERTEX
  5
10D90
  8
0
 10
318.67606897332553
 20
377.44226981772812
 30
0.0
  0
VERTEX
  5
10D91
  8
0
 10
319.20598034241078
 20
377.87322071267988
 30
0.0
  0
VERTEX
  5
10D92
  8
0
 10
319.84299753286717
 20
378.17650497778089
 30
0.0
  0
VERTEX
  5
10D93
  8
0
 10
320.54709230043773
 20
378.3330658905092
 30
0.0
  0
VERTEX
  5
10D94
  8
0
 10
321.27402309753779
 20
378.3330658905092
 30
0.0
  0
VERTEX
  5
10D95
  8
0
 10
321.97811786510829
 20
378.17650497778089
 30
0.0
  0
VERTEX
  5
10D96
  8
0
 10
322.61513505556468
 20
377.87322071267988
 30
0.0
  0
VERTEX
  5
10D97
  8
0
 10
323.14504642464999
 20
377.44226981772812
 30
0.0
  0
VERTEX
  5
10D98
  8
0
 10
323.53455532767663
 20
376.9107295654598
 30
0.0
  0
VERTEX
  5
10D99
  8
0
 10
323.75919033267382
 20
376.31199951170709
 30
0.0
  0
VERTEX
  5
10D9A
  8
0
 10
323.80483631470088
 20
375.6836995005491
 30
0.0
  0
VERTEX
  5
10D9B
  8
0
 10
323.66862107493762
 20
375.06530829592373
 30
0.0
  0
VERTEX
  5
10D9C
  8
0
 10
323.35910905578021
 20
374.49568114130523
 30
0.0
  0
VERTEX
  5
10D9D
  8
0
 10
322.89574254729632
 20
374.01061062588121
 30
0.0
  0
VERTEX
  5
10D9E
  8
0
 10
322.30764214374898
 20
373.64057497939791
 30
0.0
  0
VERTEX
  5
10D9F
  8
0
 10
321.63175899960879
 20
373.4088249027613
 30
0.0
  0
VERTEX
  5
10DA0
  8
0
 10
320.91055769898782
 20
373.3299223229173
 30
0.0
  0
SEQEND
  5
10DA1
  8
0
  0
POLYLINE
  5
FA80
  8
0
 66
     1
 10
0.0
 20
0.0
 30
0.0
 70
   128
  0
VERTEX
  5
10DA2
  8
0
 10
320.91055769898782
 20
373.6227427132311
 30
0.0
  0
VERTEX
  5
10DA3
  8
0
 10
320.31891826965688
 20
373.69641102737512
 30
0.0
  0
VERTEX
  5
10DA4
  8
0
 10
319.77521215059642
 20
373.9114475890878
 30
0.0
  0
VERTEX
  5
10DA5
  8
0
 10
319.32348344900493
 20
374.25043131111892
 30
0.0
  0
VERTEX
  5
10DA6
  8
0
 10
319.0003294167746
 20
374.6859000518802
 30
0.0
  0
VERTEX
  5
10DA7
  8
0
 10
318.83193139412288
 20
375.18257484658392
 30
0.0
  0
VERTEX
  5
10DA8
  8
0
 10
318.83193139412288
 20
375.70021743773248
 30
0.0
  0
VERTEX
  5
10DA9
  8
0
 10
319.0003294167746
 20
376.1968922324362
 30
0.0
  0
VERTEX
  5
10DAA
  8
0
 10
319.32348344900493
 20
376.63236097319748
 30
0.0
  0
VERTEX
  5
10DAB
  8
0
 10
319.77521215059642
 20
376.97134469522859
 30
0.0
  0
VERTEX
  5
10DAC
  8
0
 10
320.31891826965688
 20
377.18638102411057
 30
0.0
  0
VERTEX
  5
10DAD
  8
0
 10
320.91055769898782
 20
377.26004957108518
 30
0.0
  0
VERTEX
  5
10DAE
  8
0
 10
321.50219712831858
 20
377.18638102411057
 30
0.0
  0
VERTEX
  5
10DAF
  8
0
 10
322.0459032473791
 20
376.97134469522859
 30
0.0
  0
VERTEX
  5
10DB0
  8
0
 10
322.49763194897059
 20
376.63236097319748
 30
0.0
  0
VERTEX
  5
10DB1
  8
0
 10
322.82078598120103
 20
376.1968922324362
 30
0.0
  0
VERTEX
  5
10DB2
  8
0
 10
322.9891840038527
 20
375.70021743773248
 30
0.0
  0
VERTEX
  5
10DB3
  8
0
 10
322.9891840038527
 20
375.18257484658392
 30
0.0
  0
VERTEX
  5
10DB4
  8
0
 10
322.82078598120103
 20
374.6859000518802
 30
0.0
  0
VERTEX
  5
10DB5
  8
0
 10
322.49763194897059
 20
374.25043131111892
 30
0.0
  0
VERTEX
  5
10DB6
  8
0
 10
322.0459032473791
 20
373.9114475890878
 30
0.0
  0
VERTEX
  5
10DB7
  8
0
 10
321.50219712831858
 20
373.69641102737512
 30
0.0
  0
VERTEX
  5
10DB8
  8
0
 10
320.91055769898782
 20
373.6227427132311
 30
0.0
  0
SEQEND
  5
10DB9
  8
0
  0
POLYLINE
  5
FA81
  8
0
 66
     1
 10
0.0
 20
0.0
 30
0.0
 70
   130
  0
VERTEX
  5
FA82
  8
0
 10
316.66702722532858
 20
376.08252825635418
 30
0.0
 42
-0.0122542547158862
  0
VERTEX
  5
FA83
  8
0
 10
316.6579237549326
 20
376.26629331034218
 30
0.0
 42
-0.0300251108820151
 70
     1
  0
VERTEX
  5
FA84
  8
0
 10
316.66055653669719
 20
376.34139624311359
 30
0.0
 42
-0.0047652579015361
  0
VERTEX
  5
FA85
  8
0
 10
316.6953863849804
 20
376.67314975435812
 30
0.0
 42
-0.0111887452228918
 70
     1
  0
VERTEX
  5
FA86
  8
0
 10
316.71472222903691
 20
376.81391200536319
 30
0.0
 42
-0.0104988450404194
  0
VERTEX
  5
FA87
  8
0
 10
316.7638076165494
 20
377.08383424400949
 30
0.0
 42
-0.0179223965381954
 70
     1
  0
VERTEX
  5
FA88
  8
0
 10
316.80150540582332
 20
377.24009745108219
 30
0.0
 42
-0.0177783218052356
  0
VERTEX
  5
FA89
  8
0
 10
316.84456756527612
 20
377.3754059989999
 30
0.0
 42
-0.0129476083166114
 70
     1
  0
VERTEX
  5
FA8A
  8
0
 10
316.91498314751061
 20
377.55718917887202
 30
0.0
 42
-0.0148586459841528
  0
VERTEX
  5
FA8B
  8
0
 10
316.98069171840649
 20
377.70230848378583
 30
0.0
 42
-0.0121591903451474
 70
     1
  0
VERTEX
  5
FA8C
  8
0
 10
317.07044175807829
 20
377.87503775903878
 30
0.0
 42
-0.0268598501278955
  0
VERTEX
  5
FA8D
  8
0
 10
317.17966126373949
 20
378.05032336496402
 30
0.0
 42
-0.0230712169684585
 70
     1
  0
VERTEX
  5
FA8E
  8
0
 10
317.32649596335341
 20
378.24066699140548
 30
0.0
 42
-0.0257508511238402
  0
VERTEX
  5
FA8F
  8
0
 10
317.5091775958104
 20
378.4349260855841
 30
0.0
 42
-0.0203806512774659
 70
     1
  0
VERTEX
  5
FA90
  8
0
 10
317.76156032992913
 20
378.65801090369928
 30
0.0
 42
-0.0118079086845454
  0
VERTEX
  5
FA91
  8
0
 10
317.96421823121858
 20
378.81512799102097
 30
0.0
 42
-0.0141081400832882
 70
     1
  0
VERTEX
  5
FA92
  8
0
 10
318.14042944077943
 20
378.93767186868922
 30
0.0
 42
-0.0220278826842408
  0
VERTEX
  5
FA93
  8
0
 10
318.37251805330612
 20
379.07534361705052
 30
0.0
 42
-0.0154327828562308
 70
     1
  0
VERTEX
  5
FA94
  8
0
 10
318.71748071652019
 20
379.24646228983897
 30
0.0
 42
-0.0207240720449826
  0
VERTEX
  5
FA95
  8
0
 10
319.02806958523928
 20
379.37347005122803
 30
0.0
 42
-0.0184994963780008
 70
     1
  0
VERTEX
  5
FA96
  8
0
 10
319.38605457408721
 20
379.48803994086228
 30
0.0
 42
-0.0262358566743977
  0
VERTEX
  5
FA97
  8
0
 10
319.8368563539521
 20
379.58898322844618
 30
0.0
 42
-0.0229242911714714
 70
     1
  0
VERTEX
  5
FA98
  8
0
 10
320.36154127664031
 20
379.65330654689183
 30
0.0
 42
-0.0138858963611788
  0
VERTEX
  5
FA99
  8
0
 10
320.83595243155008
 20
379.67627407167419
 30
0.0
 42
-0.0201406187126542
 70
     1
  0
VERTEX
  5
FA9A
  8
0
 10
321.16342334286583
 20
379.66983160286082
 30
0.0
 42
-0.0132376637372535
  0
VERTEX
  5
FA9B
  8
0
 10
321.50390248424537
 20
379.64033377304793
 30
0.0
 42
-0.0132588724589247
 70
     1
  0
VERTEX
  5
FA9C
  8
0
 10
321.84180018506049
 20
379.59291974725909
 30
0.0
 42
-0.0151399914424939
  0
VERTEX
  5
FA9D
  8
0
 10
322.18871812115498
 20
379.52396586644232
 30
0.0
 42
-0.0121804169559156
 70
     1
  0
VERTEX
  5
FA9E
  8
0
 10
322.61457108144668
 20
379.4148459171073
 30
0.0
 42
-0.0206237771127015
  0
VERTEX
  5
FA9F
  8
0
 10
322.99076292617468
 20
379.29166328434371
 30
0.0
 42
-0.0240318347378954
 70
     1
  0
VERTEX
  5
FAA0
  8
0
 10
323.30293931521192
 20
379.15756021660422
 30
0.0
 42
-0.0280878131129802
  0
VERTEX
  5
FAA1
  8
0
 10
323.59485407164902
 20
378.99429265956712
 30
0.0
 42
-0.0240603253434206
 70
     1
  0
VERTEX
  5
FAA2
  8
0
 10
323.91387693192343
 20
378.76930858089872
 30
0.0
 42
-0.01488630090834
  0
VERTEX
  5
FAA3
  8
0
 10
324.11881840138079
 20
378.5994353114811
 30
0.0
 42
-0.0135714717028514
 70
     1
  0
VERTEX
  5
FAA4
  8
0
 10
324.33264434479912
 20
378.40062687401382
 30
0.0
 42
-0.0282006120815871
  0
VERTEX
  5
FAA5
  8
0
 10
324.55412314677102
 20
378.15721237755469
 30
0.0
 42
-0.0284965612251486
 70
     1
  0
VERTEX
  5
FAA6
  8
0
 10
324.74464871844788
 20
377.89307384537261
 30
0.0
 42
-0.0410828719033552
  0
VERTEX
  5
FAA7
  8
0
 10
324.89946642848548
 20
377.59985254467102
 30
0.0
 42
-0.0341909755900677
 70
     1
  0
VERTEX
  5
FAA8
  8
0
 10
325.03050447967871
 20
377.223816093972
 30
0.0
 42
-0.0199398065221257
  0
VERTEX
  5
FAA9
  8
0
 10
325.07604652321328
 20
377.02672284799542
 30
0.0
 42
-0.0091094985744887
 70
     1
  0
VERTEX
  5
FAAA
  8
0
 10
325.1504938520975
 20
376.59038208228532
 30
0.0
 42
-0.036459971594578
  0
VERTEX
  5
FAAB
  8
0
 10
325.16623285110882
 20
376.38870830179832
 30
0.0
 42
-0.0210129433912686
 70
     1
  0
VERTEX
  5
FAAC
  8
0
 10
325.15325243221292
 20
376.03826765851397
 30
0.0
  0
SEQEND
  5
FAAD
  8
0
  0
ARC
  5
FAAE
  8
0
 10
320.91279859007727
 20
376.57017071968312
 30
0.0
 40
4.2736833824889731
 50
186.5519221383349
 51
352.85042168379749
  0
LINE
  5
FAAF
  8
0
 10
314.91279760660058
 20
381.83426426931442
 30
0.0
 11
314.91279760660058
 21
357.83426406069822
 31
0.0
  0
LINE
  5
FAB0
  8
0
 10
326.91279957355391
 20
357.83426406069822
 30
0.0
 11
326.91279957355391
 21
381.83426426931442
 31
0.0
  0
LINE
  5
FAB1
  8
0
 10
325.91279754699599
 20
382.83426443322719
 30
0.0
 11
325.91279754699599
 21
356.83426389678539
 31
0.0
  0
LINE
  5
FAB2
  8
0
 10
315.9127996331585
 20
356.83426389678539
 30
0.0
 11
315.9127996331585
 21
382.83426443322719
 31
0.0
  0
LINE
  5
FAB3
  8
0
 10
314.91279760660058
 20
381.83426426931442
 30
0.0
 11
315.9127996331585
 21
382.83426443322719
 31
0.0
  0
LINE
  5
FAB4
  8
0
 10
315.9127996331585
 20
356.83426389678539
 30
0.0
 11
314.91279760660058
 21
357.83426406069822
 31
0.0
  0
LINE
  5
FAB5
  8
0
 10
326.91279957355391
 20
357.83426406069822
 30
0.0
 11
325.91279754699599
 21
356.83426389678539
 31
0.0
  0
LINE
  5
FAB6
  8
0
 10
325.91279754699599
 20
382.83426443322719
 30
0.0
 11
326.91279957355391
 21
381.83426426931442
 31
0.0
  0
LINE
  5
FAB7
  8
0
 10
315.9127996331585
 20
382.83426443322719
 30
0.0
 11
325.91279754699599
 21
382.83426443322719
 31
0.0
  0
LINE
  5
FAB8
  8
0
 10
325.91279754699599
 20
356.83426389678539
 30
0.0
 11
315.9127996331585
 21
356.83426389678539
 31
0.0
  0
POLYLINE
  5
FAB9
  8
0
 66
     1
 10
0.0
 20
0.0
 30
0.0
  0
VERTEX
  5
10DBA
  8
0
 10
326.37179428995978
 20
344.55094289242447
 30
0.0
  0
VERTEX
  5
10DBB
  8
0
 10
326.25374698922627
 20
344.92682696150911
 30
0.0
  0
VERTEX
  5
10DBC
  8
0
 10
326.01300569900559
 20
345.45461254922111
 30
0.0
  0
VERTEX
  5
10DBD
  8
0
 10
325.71687501217269
 20
345.94600956937751
 30
0.0
  0
VERTEX
  5
10DBE
  8
0
 10
325.32164853180302
 20
346.4438385589263
 30
0.0
  0
VERTEX
  5
10DBF
  8
0
 10
324.91279924572842
 20
346.85322445093811
 30
0.0
  0
SEQEND
  5
10DC0
  8
0
  0
POLYLINE
  5
FABA
  8
0
 66
     1
 10
0.0
 20
0.0
 30
0.0
  0
VERTEX
  5
10DC1
  8
0
 10
315.45380289019482
 20
344.55094289242447
 30
0.0
  0
VERTEX
  5
10DC2
  8
0
 10
315.57185019092822
 20
344.92682696150911
 30
0.0
  0
VERTEX
  5
10DC3
  8
0
 10
315.81259148114901
 20
345.45461254922111
 30
0.0
  0
VERTEX
  5
10DC4
  8
0
 10
316.1087221679818
 20
345.94600956937751
 30
0.0
  0
VERTEX
  5
10DC5
  8
0
 10
316.50394864835152
 20
346.4438385589263
 30
0.0
  0
VERTEX
  5
10DC6
  8
0
 10
316.91279793442618
 20
346.85322445093811
 30
0.0
  0
SEQEND
  5
10DC7
  8
0
  0
ARC
  5
FABB
  8
0
 10
321.83971607187692
 20
351.83426540552801
 30
0.0
 40
3.0713600387130429
 50
326.90500036006478
 51
33.094999639946181
  0
ARC
  5
FABC
  8
0
 10
321.80290724292348
 20
355.84839327295663
 30
0.0
 40
3.1099241071919481
 50
327.05718365970472
 51
359.73965736374981
  0
LINE
  5
FABD
  8
0
 10
324.4127982324494
 20
354.15721114932722
 30
0.0
 11
324.4127982324494
 21
350.15721421896637
 31
0.0
  0
ARC
  5
FABE
  8
0
 10
319.98588110827768
 20
351.83426540552801
 30
0.0
 40
3.0713600387130668
 50
146.9050003600648
 51
213.0949996399352
  0
LINE
  5
FABF
  8
0
 10
317.41279894770508
 20
350.15721421896637
 30
0.0
 11
317.41279894770508
 21
354.15721114932722
 31
0.0
  0
ARC
  5
FAC0
  8
0
 10
320.02268993723152
 20
355.84839327295663
 30
0.0
 40
3.1099241071919721
 50
180.26034263625019
 51
212.94281634029539
  0
POLYLINE
  5
FAC1
  8
0
 66
     1
 10
0.0
 20
0.0
 30
0.0
 70
   128
  0
VERTEX
  5
10DC8
  8
0
 10
316.91279793442618
 20
343.9842629080934
 30
0.0
  0
VERTEX
  5
10DC9
  8
0
 10
317.00020814598929
 20
343.26403763353051
 30
0.0
  0
VERTEX
  5
10DCA
  8
0
 10
317.2586166328324
 20
342.57528733669938
 30
0.0
  0
VERTEX
  5
10DCB
  8
0
 10
317.67673204006093
 20
341.94811608850182
 30
0.0
  0
VERTEX
  5
10DCC
  8
0
 10
318.23627809347039
 20
341.40993457495392
 30
0.0
  0
VERTEX
  5
10DCD
  8
0
 10
318.91279826225173
 20
340.98426427900017
 30
0.0
  0
VERTEX
  5
10DCE
  8
0
 10
319.67673236788642
 20
340.68970930039109
 30
0.0
  0
VERTEX
  5
10DCF
  8
0
 10
320.4946831828488
 20
340.53914051710791
 30
0.0
  0
VERTEX
  5
10DD0
  8
0
 10
321.33091399730569
 20
340.53914051710791
 30
0.0
  0
VERTEX
  5
10DD1
  8
0
 10
322.14886481226807
 20
340.68970930039109
 30
0.0
  0
VERTEX
  5
10DD2
  8
0
 10
322.91279891790282
 20
340.98426427900017
 30
0.0
  0
VERTEX
  5
10DD3
  8
0
 10
323.5893228119744
 20
341.40993457495392
 30
0.0
  0
VERTEX
  5
10DD4
  8
0
 10
324.14886514009368
 20
341.94811608850182
 30
0.0
  0
VERTEX
  5
10DD5
  8
0
 10
324.56698054732209
 20
342.57528733669938
 30
0.0
  0
VERTEX
  5
10DD6
  8
0
 10
324.8253890341652
 20
343.26403763353051
 30
0.0
  0
VERTEX
  5
10DD7
  8
0
 10
324.91279924572842
 20
343.9842629080934
 30
0.0
  0
VERTEX
  5
10DD8
  8
0
 10
324.91279924572842
 20
343.9842629080934
 30
0.0
  0
SEQEND
  5
10DD9
  8
0
  0
POLYLINE
  5
FAC2
  8
0
 66
     1
 10
0.0
 20
0.0
 30
0.0
 70
   128
  0
VERTEX
  5
10DDA
  8
0
 10
315.41776070655709
 20
344.4139304405374
 30
0.0
  0
VERTEX
  5
10DDB
  8
0
 10
315.37896553338891
 20
344.24055543004692
 30
0.0
  0
VERTEX
  5
10DDC
  8
0
 10
315.29485965432059
 20
343.39561116158188
 30
0.0
  0
VERTEX
  5
10DDD
  8
0
 10
315.38145402730828
 20
342.55086060821242
 30
0.0
  0
VERTEX
  5
10DDE
  8
0
 10
315.63611487211119
 20
341.73196356951422
 30
0.0
  0
VERTEX
  5
10DDF
  8
0
 10
316.0511047607792
 20
340.96380498468102
 30
0.0
  0
VERTEX
  5
10DE0
  8
0
 10
316.61381358565222
 20
340.26972379743279
 30
0.0
  0
VERTEX
  5
10DE1
  8
0
 10
317.30714598955041
 20
339.67080887614912
 30
0.0
  0
VERTEX
  5
10DE2
  8
0
 10
318.11003545583623
 20
339.1852619892282
 30
0.0
  0
VERTEX
  5
10DE3
  8
0
 10
318.99808133305442
 20
338.82783156096161
 30
0.0
  0
VERTEX
  5
10DE4
  8
0
 10
319.94430879415398
 20
338.60937681256951
 30
0.0
  0
VERTEX
  5
10DE5
  8
0
 10
320.91996232332122
 20
338.53653993665398
 30
0.0
  0
VERTEX
  5
10DE6
  8
0
 10
321.89539978565108
 20
338.61153003036202
 30
0.0
  0
VERTEX
  5
10DE7
  8
0
 10
322.84097904623877
 20
338.83207466661162
 30
0.0
  0
VERTEX
  5
10DE8
  8
0
 10
323.7279706663025
 20
339.19146459757508
 30
0.0
  0
VERTEX
  5
10DE9
  8
0
 10
324.52942962111359
 20
339.67878844796837
 30
0.0
  0
VERTEX
  5
10DEA
  8
0
 10
325.22099251212012
 20
340.27923073827452
 30
0.0
  0
VERTEX
  5
10DEB
  8
0
 10
325.78165987790948
 20
340.97455244719208
 30
0.0
  0
VERTEX
  5
10DEC
  8
0
 10
326.19438479007613
 20
341.74362372814841
 30
0.0
  0
VERTEX
  5
10DED
  8
0
 10
326.44663164676558
 20
342.56307956039132
 30
0.0
  0
VERTEX
  5
10DEE
  8
0
 10
326.5307375258339
 20
343.40802010356612
 30
0.0
  0
VERTEX
  5
10DEF
  8
0
 10
326.44414315284621
 20
344.25277438222588
 30
0.0
  0
VERTEX
  5
10DF0
  8
0
 10
326.40152210654151
 20
344.43931456863112
 30
0.0
  0
SEQEND
  5
10DF1
  8
0
  0
POLYLINE
  5
FAC3
  8
0
 66
     1
 10
0.0
 20
0.0
 30
0.0
 70
   128
  0
VERTEX
  5
10DF2
  8
0
 10
316.91279793442618
 20
345.84862914144219
 30
0.0
  0
VERTEX
  5
10DF3
  8
0
 10
316.80577034415143
 20
345.68004857956589
 30
0.0
  0
VERTEX
  5
10DF4
  8
0
 10
316.4688848918808
 20
344.95068516790087
 30
0.0
  0
VERTEX
  5
10DF5
  8
0
 10
316.30277419747239
 20
344.17842131315888
 30
0.0
  0
VERTEX
  5
10DF6
  8
0
 10
316.31382713378798
 20
343.39292895256699
 30
0.0
  0
VERTEX
  5
10DF7
  8
0
 10
316.50161529244309
 20
342.624397838704
 30
0.0
  0
VERTEX
  5
10DF8
  8
0
 10
316.85891906083953
 20
341.90236207305611
 30
0.0
  0
VERTEX
  5
10DF9
  8
0
 10
317.37201446951758
 20
341.25456761776633
 30
0.0
  0
VERTEX
  5
10DFA
  8
0
 10
318.0211798316372
 20
340.7059105878991
 30
0.0
  0
VERTEX
  5
10DFB
  8
0
 10
318.78146687806969
 20
340.27747240125359
 30
0.0
  0
VERTEX
  5
10DFC
  8
0
 10
319.62366188229453
 20
339.985718840949
 30
0.0
  0
VERTEX
  5
10DFD
  8
0
 10
320.51539579690819
 20
339.8418630307836
 30
0.0
  0
VERTEX
  5
10DFE
  8
0
 10
321.42240340174573
 20
339.85143330156029
 30
0.0
  0
VERTEX
  5
10DFF
  8
0
 10
322.30982715548407
 20
340.01406457483
 30
0.0
  0
VERTEX
  5
10E00
  8
0
 10
323.14356202544099
 20
340.32349836289109
 30
0.0
  0
VERTEX
  5
10E01
  8
0
 10
323.89157051504981
 20
340.76785098969162
 30
0.0
  0
VERTEX
  5
10E02
  8
0
 10
324.52510828436738
 20
341.33004572450341
 30
0.0
  0
VERTEX
  5
10E03
  8
0
 10
325.01982683600318
 20
341.98847588359541
 30
0.0
  0
VERTEX
  5
10E04
  8
0
 10
325.35671228827368
 20
342.71783556997002
 30
0.0
  0
VERTEX
  5
10E05
  8
0
 10
325.5228229826821
 20
343.49009942471213
 30
0.0
  0
VERTEX
  5
10E06
  8
0
 10
325.51177004636651
 20
344.27559178530402
 30
0.0
  0
VERTEX
  5
10E07
  8
0
 10
325.3239818877114
 20
345.04412289916701
 30
0.0
  0
VERTEX
  5
10E08
  8
0
 10
324.96667811931502
 20
345.7661586648149
 30
0.0
  0
VERTEX
  5
10E09
  8
0
 10
324.91279924572842
 20
345.84862914144219
 30
0.0
  0
SEQEND
  5
10E0A
  8
0
  0
POLYLINE
  5
FAC4
  8
0
 66
     1
 10
0.0
 20
0.0
 30
0.0
 70
   128
  0
VERTEX
  5
10E0B
  8
0
 10
313.91497114957701
 20
330.66148486196221
 30
0.0
  0
VERTEX
  5
10E0C
  8
0
 10
313.93047953308951
 20
330.38196888028801
 30
0.0
  0
VERTEX
  5
10E0D
  8
0
 10
314.09422094286811
 20
329.44133307992638
 30
0.0
  0
VERTEX
  5
10E0E
  8
0
 10
314.42586118639838
 20
328.53445958553971
 30
0.0
  0
VERTEX
  5
10E0F
  8
0
 10
314.9172307020558
 20
327.68368151246727
 30
0.0
  0
VERTEX
  5
10E10
  8
0
 10
315.55622974695098
 20
326.90994616805727
 30
0.0
  0
VERTEX
  5
10E11
  8
0
 10
316.32712642015349
 20
326.23230468689621
 30
0.0
  0
VERTEX
  5
10E12
  8
0
 10
317.21093664230239
 20
325.66744636952097
 30
0.0
  0
VERTEX
  5
10E13
  8
0
 10
318.18590099276429
 20
325.229277724616
 30
0.0
  0
VERTEX
  5
10E14
  8
0
 10
319.22800997556578
 20
324.92858719288529
 30
0.0
  0
VERTEX
  5
10E15
  8
0
 10
320.31160006584059
 20
324.77278065144242
 30
0.0
  0
VERTEX
  5
10E16
  8
0
 10
321.40999818505179
 20
324.7656876987142
 30
0.0
  0
VERTEX
  5
10E17
  8
0
 10
322.49615127505189
 20
324.9074945992154
 30
0.0
  0
VERTEX
  5
10E18
  8
0
 10
323.54331920207869
 20
325.19470703064621
 30
0.0
  0
VERTEX
  5
10E19
  8
0
 10
324.52571550668608
 20
325.62024321614922
 30
0.0
  0
VERTEX
  5
10E1A
  8
0
 10
325.41914815367591
 20
326.1736313646955
 30
0.0
  0
VERTEX
  5
10E1B
  8
0
 10
326.20161930383568
 20
326.8412480896634
 30
0.0
  0
VERTEX
  5
10E1C
  8
0
 10
326.85386175574189
 20
327.60664995967568
 30
0.0
  0
VERTEX
  5
10E1D
  8
0
 10
327.35981578291779
 20
328.45099445640273
 30
0.0
  0
VERTEX
  5
10E1E
  8
0
 10
327.70702401460539
 20
329.35348328410811
 30
0.0
  0
VERTEX
  5
10E1F
  8
0
 10
327.88693318427931
 20
330.2919062620324
 30
0.0
  0
VERTEX
  5
10E20
  8
0
 10
327.91279787482148
 20
330.81255655943568
 30
0.0
  0
SEQEND
  5
10E21
  8
0
  0
LINE
  5
FAC5
  8
0
 10
327.7147502666844
 20
339.76609435140313
 30
0.0
 11
326.37179428995978
 21
344.55094289242447
 31
0.0
  0
LINE
  5
FAC6
  8
0
 10
315.45380289019482
 20
344.55094289242447
 30
0.0
 11
314.11084691347008
 21
339.76609435140313
 31
0.0
  0
LINE
  5
FAC7
  8
0
 10
313.91279930533301
 20
338.33427529989899
 30
0.0
 11
313.91279930533301
 21
330.81255655943568
 31
0.0
  0
LINE
  5
FAC8
  8
0
 10
327.91279787482148
 20
330.81255655943568
 30
0.0
 11
327.91279787482148
 21
338.33427529989899
 31
0.0
  0
LINE
  5
FAC9
  8
0
 10
324.91279924572842
 20
355.83426233588881
 30
0.0
 11
324.91279924572842
 21
356.83426436244667
 31
0.0
  0
LINE
  5
FACA
  8
0
 10
324.91279924572842
 20
343.9842629080934
 30
0.0
 11
324.91279924572842
 21
351.83426540552801
 31
0.0
  0
LINE
  5
FACB
  8
0
 10
316.91279793442618
 20
351.83426540552801
 30
0.0
 11
316.91279793442618
 21
343.9842629080934
 31
0.0
  0
LINE
  5
FACC
  8
0
 10
316.91279793442618
 20
356.83426436244667
 30
0.0
 11
316.91279793442618
 21
355.83426233588881
 31
0.0
  0
LINE
  5
FACD
  8
0
 10
315.45380289019482
 20
344.55094289242447
 30
0.0
 11
315.41776070655709
 21
344.4139304405374
 31
0.0
  0
LINE
  5
FACE
  8
0
 10
326.40152210654151
 20
344.43931456863112
 30
0.0
 11
326.37179428995978
 21
344.55094289242447
 31
0.0
  0
POLYLINE
  5
FACF
  8
0
 66
     1
 10
0.0
 20
0.0
 30
0.0
 70
   128
  0
VERTEX
  5
10E22
  8
0
 10
314.11084691347008
 20
339.76609435140313
 30
0.0
  0
VERTEX
  5
10E23
  8
0
 10
313.93866399587517
 20
338.85492559730233
 30
0.0
  0
VERTEX
  5
10E24
  8
0
 10
313.93047953308951
 20
337.90368762075133
 30
0.0
  0
VERTEX
  5
10E25
  8
0
 10
314.09422094286811
 20
336.96305182038969
 30
0.0
  0
VERTEX
  5
10E26
  8
0
 10
314.42586118639838
 20
336.05617832600302
 30
0.0
  0
VERTEX
  5
10E27
  8
0
 10
314.9172307020558
 20
335.20540025293047
 30
0.0
  0
VERTEX
  5
10E28
  8
0
 10
315.55622974695098
 20
334.43166490852059
 30
0.0
  0
VERTEX
  5
10E29
  8
0
 10
316.32712642015349
 20
333.75402342735953
 30
0.0
  0
VERTEX
  5
10E2A
  8
0
 10
317.21093664230239
 20
333.18916510998429
 30
0.0
  0
VERTEX
  5
10E2B
  8
0
 10
318.18590099276429
 20
332.7509964650792
 30
0.0
  0
VERTEX
  5
10E2C
  8
0
 10
319.22800997556578
 20
332.4503059333486
 30
0.0
  0
VERTEX
  5
10E2D
  8
0
 10
320.31160006584059
 20
332.29449566661538
 30
0.0
  0
VERTEX
  5
10E2E
  8
0
 10
321.40999818505179
 20
332.2874101644677
 30
0.0
  0
VERTEX
  5
10E2F
  8
0
 10
322.49615127505189
 20
332.42921333967871
 30
0.0
  0
VERTEX
  5
10E30
  8
0
 10
323.54331920207869
 20
332.71642204581917
 30
0.0
  0
VERTEX
  5
10E31
  8
0
 10
324.52571550668608
 20
333.14196195661248
 30
0.0
  0
VERTEX
  5
10E32
  8
0
 10
325.41914815367591
 20
333.6953501051587
 30
0.0
  0
VERTEX
  5
10E33
  8
0
 10
326.20161930383568
 20
334.36296683012671
 30
0.0
  0
VERTEX
  5
10E34
  8
0
 10
326.85386175574189
 20
335.12836870013899
 30
0.0
  0
VERTEX
  5
10E35
  8
0
 10
327.35981578291779
 20
335.97271319686593
 30
0.0
  0
VERTEX
  5
10E36
  8
0
 10
327.70702401460539
 20
336.87520202457131
 30
0.0
  0
VERTEX
  5
10E37
  8
0
 10
327.88693318427931
 20
337.81362127720541
 30
0.0
  0
VERTEX
  5
10E38
  8
0
 10
327.89511764706498
 20
338.76486297904671
 30
0.0
  0
VERTEX
  5
10E39
  8
0
 10
327.73137623728638
 20
339.7054987794084
 30
0.0
  0
VERTEX
  5
10E3A
  8
0
 10
327.7147502666844
 20
339.76609435140313
 30
0.0
  0
SEQEND
  5
10E3B
  8
0
  0
LINE
  5
FAD0
  8
0
 10
313.91279930533301
 20
330.81255655943568
 30
0.0
 11
313.91497114957701
 21
330.66148486196221
 31
0.0
  0
LINE
  5
FAD1
  8
1
 10
320.91279859007727
 20
376.57017071968312
 30
0.0
 11
320.91279859007727
 21
319.35727391267437
 31
0.0
  0
LINE
  5
10690
  8
0
 10
449.8070843047185
 20
228.2758288005902
 30
0.0
 11
447.58582264579121
 21
234.11489522539901
 31
0.0
  0
TEXT
  5
10A53
  8
0
 62
     3
 10
0.0
 20
0.0
 30
0.0
 40
10.0
  1
QLRCF-08L
  7
STANDARD1
  0
ENDSEC
  0
EOF
