  0
SECTION
  2
HEADER
  9
$ACADVER
  1
AC1009
  9
$INSBASE
 10
0.0
 20
0.0
 30
0.0
  9
$EXTMIN
 10
0.0
 20
-2.960436562073669
 30
0.0
  9
$EXTMAX
 10
180.99764210526311
 20
159.4964421052631
 30
0.0
  9
$LIMMIN
 10
0.0
 20
0.0
  9
$LIMMAX
 10
0.0
 20
0.0
  9
$ORTHOMODE
 70
     0
  9
$REGENMODE
 70
     1
  9
$FILLMODE
 70
     1
  9
$QTEXTMODE
 70
     0
  9
$MIRRTEXT
 70
     0
  9
$DRAGMODE
 70
     2
  9
$LTSCALE
 40
1.0
  9
$OSMODE
 70
    37
  9
$ATTMODE
 70
     1
  9
$TEXTSIZE
 40
0.0
  9
$TRACEWID
 40
0.05
  9
$TEXTSTYLE
  7
STANDARD
  9
$CLAYER
  8
0
  9
$CELTYPE
  6
BYLAYER
  9
$CECOLOR
 62
   256
  9
$DIMSCALE
 40
1.0
  9
$DIMASZ
 40
6.0
  9
$DIMEXO
 40
1.0
  9
$DIMDLI
 40
0.38
  9
$DIMRND
 40
0.0
  9
$DIMDLE
 40
1.0
  9
$DIMEXE
 40
0.18
  9
$DIMTP
 40
0.0
  9
$DIMTM
 40
0.0
  9
$DIMTXT
 40
3.5
  9
$DIMCEN
 40
0.09
  9
$DIMTSZ
 40
0.0
  9
$DIMTOL
 70
     0
  9
$DIMLIM
 70
     0
  9
$DIMTIH
 70
     1
  9
$DIMTOH
 70
     1
  9
$DIMSE1
 70
     0
  9
$DIMSE2
 70
     0
  9
$DIMTAD
 70
     1
  9
$DIMZIN
 70
     0
  9
$DIMBLK
  1

  9
$DIMASO
 70
     1
  9
$DIMSHO
 70
     1
  9
$DIMPOST
  1

  9
$DIMAPOST
  1

  9
$DIMALT
 70
     0
  9
$DIMALTD
 70
     2
  9
$DIMALTF
 40
0.0394
  9
$DIMLFAC
 40
1.0
  9
$DIMTOFL
 70
     0
  9
$DIMTVP
 40
0.0
  9
$DIMTIX
 70
     0
  9
$DIMSOXD
 70
     0
  9
$DIMSAH
 70
     0
  9
$DIMBLK1
  1

  9
$DIMBLK2
  1

  9
$DIMSTYLE
  2
STANDARD
  9
$DIMCLRD
 70
     0
  9
$DIMCLRE
 70
     0
  9
$DIMCLRT
 70
     0
  9
$DIMTFAC
 40
1.0
  9
$DIMGAP
 40
1.0
  9
$LUNITS
 70
     2
  9
$LUPREC
 70
     2
  9
$SKETCHINC
 40
0.1
  9
$FILLETRAD
 40
0.0
  9
$AUNITS
 70
     0
  9
$AUPREC
 70
     2
  9
$MENU
  1
acad
  9
$ELEVATION
 40
0.0
  9
$PELEVATION
 40
0.0
  9
$THICKNESS
 40
0.0
  9
$LIMCHECK
 70
     0
  9
$BLIPMODE
 70
     0
  9
$CHAMFERA
 40
0.0
  9
$CHAMFERB
 40
0.0
  9
$SKPOLY
 70
     0
  9
$TDCREATE
 40
2444972.375
  9
$TDUPDATE
 40
2456675.4344616318
  9
$TDINDWG
 40
0.0588085301
  9
$TDUSRTIMER
 40
0.0588085301
  9
$USRTIMER
 70
     1
  9
$ANGBASE
 50
0.0
  9
$ANGDIR
 70
     0
  9
$PDMODE
 70
     0
  9
$PDSIZE
 40
-1.0
  9
$PLINEWID
 40
0.0
  9
$COORDS
 70
     1
  9
$SPLFRAME
 70
     0
  9
$SPLINETYPE
 70
     6
  9
$SPLINESEGS
 70
     8
  9
$ATTDIA
 70
     0
  9
$ATTREQ
 70
     1
  9
$HANDLING
 70
     1
  9
$HANDSEED
  5
529
  9
$SURFTAB1
 70
     6
  9
$SURFTAB2
 70
     6
  9
$SURFTYPE
 70
     6
  9
$SURFU
 70
     6
  9
$SURFV
 70
     6
  9
$UCSNAME
  2

  9
$UCSORG
 10
0.0
 20
0.0
 30
0.0
  9
$UCSXDIR
 10
1.0
 20
0.0
 30
0.0
  9
$UCSYDIR
 10
0.0
 20
1.0
 30
0.0
  9
$PUCSNAME
  2

  9
$PUCSORG
 10
0.0
 20
0.0
 30
0.0
  9
$PUCSXDIR
 10
1.0
 20
0.0
 30
0.0
  9
$PUCSYDIR
 10
0.0
 20
1.0
 30
0.0
  9
$USERI1
 70
     0
  9
$USERI2
 70
     1
  9
$USERI3
 70
     0
  9
$USERI4
 70
     0
  9
$USERI5
 70
     0
  9
$USERR1
 40
0.0
  9
$USERR2
 40
0.0
  9
$USERR3
 40
0.0
  9
$USERR4
 40
0.0
  9
$USERR5
 40
0.0
  9
$WORLDVIEW
 70
     1
  9
$SHADEDGE
 70
     3
  9
$SHADEDIF
 70
    70
  9
$TILEMODE
 70
     1
  9
$MAXACTVP
 70
    16
  9
$PLIMCHECK
 70
     0
  9
$PEXTMIN
 10
1.0000000000000000E+020
 20
1.0000000000000000E+020
 30
1.0000000000000000E+020
  9
$PEXTMAX
 10
-1.0000000000000000E+020
 20
-1.0000000000000000E+020
 30
-1.0000000000000000E+020
  9
$PLIMMIN
 10
0.0
 20
0.0
  9
$PLIMMAX
 10
12.0
 20
9.0
  9
$UNITMODE
 70
     0
  9
$VISRETAIN
 70
     0
  9
$PLINEGEN
 70
     1
  9
$PSLTSCALE
 70
     1
  0
ENDSEC
  0
SECTION
  2
TABLES
  0
TABLE
  2
VPORT
 70
     1
  0
VPORT
  2
*ACTIVE
 70
     0
 10
0.0
 20
0.0
 11
1.0
 21
1.0
 12
235.63977746870651
 22
135.0
 13
0.0
 23
0.0
 14
1.0
 24
1.0
 15
0.0
 25
0.0
 16
0.0
 26
0.0
 36
1.0
 17
0.0
 27
0.0
 37
0.0
 40
270.0
 41
1.7454798331015291
 42
50.0
 43
0.0
 44
0.0
 50
0.0
 51
0.0
 71
     0
 72
  2000
 73
     1
 74
     0
 75
     0
 76
     0
 77
     0
 78
     0
  0
ENDTAB
  0
TABLE
  2
LTYPE
 70
     3
  0
LTYPE
  2
CONTINUOUS
 70
     0
  3
Solid Line
 72
    65
 73
     0
 40
0.0
  0
LTYPE
  2
CENTERX2
 70
     0
  3
Center (2x) ________  __  ________  __  _____
 72
    65
 73
     4
 40
20.32
 49
12.699999999999999
 49
-2.54
 49
2.54
 49
-2.54
  0
LTYPE
  2
PHANTOM2
 70
     0
  3
___ _ _ ___ _ _ ___ _ _ ___ _ _
 72
    65
 73
     6
 40
1.25
 49
0.625
 49
-0.125
 49
0.125
 49
-0.125
 49
0.125
 49
-0.125
  0
ENDTAB
  0
TABLE
  2
LAYER
 70
     4
  0
LAYER
  2
0
 70
     0
 62
     7
  6
CONTINUOUS
  0
LAYER
  2
DEFPOINTS
 70
     0
 62
     7
  6
CONTINUOUS
  0
LAYER
  2
1
 70
     0
 62
     1
  6
CENTERX2
  0
LAYER
  2
3
 70
     0
 62
     3
  6
CONTINUOUS
  0
ENDTAB
  0
TABLE
  2
STYLE
 70
     2
  0
STYLE
  2
STANDARD
 70
     0
 40
0.0
 41
1.0
 50
0.0
 71
     0
 42
0.0
  3
txt
  4
bigfont
  0
STYLE
  2
STANDARD1
 70
     0
 40
0.0
 41
1.0
 50
0.0
 71
     0
 42
3.0
  3
txt
  4

  0
ENDTAB
  0
TABLE
  2
VIEW
 70
     0
  0
ENDTAB
  0
TABLE
  2
UCS
 70
     0
  0
ENDTAB
  0
TABLE
  2
APPID
 70
     4
  0
APPID
  2
ACAD
 70
     0
  0
APPID
  2
ACAD_MLEADERVER
 70
     0
  0
APPID
  2
ACAD_NAV_VCDISPLAY
 70
     0
  0
APPID
  2
ACAD_EXEMPT_FROM_CAD_STANDARDS
 70
     0
  0
ENDTAB
  0
TABLE
  2
DIMSTYLE
 70
     1
  0
DIMSTYLE
  2
STANDARD
 70
     0
  3

  4

  5

  6

  7

 40
1.0
 41
0.18
 42
0.0625
 43
0.38
 44
0.18
 45
0.0
 46
0.0
 47
0.0
 48
0.0
140
0.18
141
0.09
142
0.0
143
25.399999999999999
144
1.0
145
0.0
146
1.0
147
0.09
 71
     0
 72
     0
 73
     1
 74
     1
 75
     0
 76
     0
 77
     0
 78
     0
170
     0
171
     2
172
     0
173
     0
174
     0
175
     0
176
     0
177
     0
178
     0
  0
ENDTAB
  0
ENDSEC
  0
SECTION
  2
BLOCKS
  0
BLOCK
  8
0
  2
$MODEL_SPACE
 70
     0
 10
0.0
 20
0.0
 30
0.0
  3
$MODEL_SPACE
  1

  0
ENDBLK
  5
E
  8
0
  0
BLOCK
 67
     1
  8
0
  2
$PAPER_SPACE
 70
     0
 10
0.0
 20
0.0
 30
0.0
  3
$PAPER_SPACE
  1

  0
ENDBLK
  5
10
 67
     1
  8
0
  0
ENDSEC
  0
SECTION
  2
ENTITIES
  0
LINE
  5
27
  8
0
 10
124.0
 20
75.898189473374373
 30
0.0
 11
124.0
 21
76.898189473684212
 31
0.0
  0
LINE
  5
28
  8
0
 10
94.000000000000014
 20
76.898189473684113
 30
0.0
 11
94.000000000000014
 21
75.898189473374273
 31
0.0
  0
LINE
  5
29
  8
0
 10
92.999999999999915
 20
102.8981894736841
 30
0.0
 11
93.000000000000014
 21
76.898189473684113
 31
0.0
  0
LINE
  5
2A
  8
0
 10
124.9999999999999
 20
99.833006561458532
 30
0.0
 11
124.9999999999999
 21
102.8981894736842
 31
0.0
  0
LINE
  5
2B
  8
0
 10
125.0
 20
76.898189473684226
 30
0.0
 11
125.0
 21
90.963333725269294
 31
0.0
  0
LINE
  5
2C
  8
0
 10
124.0
 20
75.898189473374373
 30
0.0
 11
94.000000000000014
 21
75.898189473374273
 31
0.0
  0
LINE
  5
2E
  8
0
 10
115.4999999999999
 20
102.8981894736842
 30
0.0
 11
115.4999999999999
 21
107.8981894736842
 31
0.0
  0
LINE
  5
2F
  8
0
 10
102.4999999999999
 20
107.8981894736841
 30
0.0
 11
102.4999999999999
 21
102.8981894736841
 31
0.0
  0
LINE
  5
30
  8
0
 10
115.4999999999999
 20
107.8981894736842
 30
0.0
 11
102.4999999999999
 21
107.8981894736841
 31
0.0
  0
LINE
  5
31
  8
0
 10
93.000000000000014
 20
76.898189473684113
 30
0.0
 11
125.0
 21
76.898189473684226
 31
0.0
  0
POLYLINE
  5
32
  8
0
 66
     1
 10
0.0
 20
0.0
 30
0.0
 70
   128
  0
VERTEX
  5
4CA
  8
0
 10
125.0
 20
90.963333725269294
 30
0.0
  0
VERTEX
  5
4CB
  8
0
 10
124.99471216530669
 20
91.222778927230664
 30
0.0
  0
VERTEX
  5
4CC
  8
0
 10
124.9638520991583
 20
91.807477690702797
 30
0.0
  0
VERTEX
  5
4CD
  8
0
 10
124.91650390472429
 20
92.490910016156789
 30
0.0
  0
VERTEX
  5
4CE
  8
0
 10
124.8643120725052
 20
93.280001684942562
 30
0.0
  0
VERTEX
  5
4CF
  8
0
 10
124.8213092891632
 20
94.134661649608546
 30
0.0
  0
VERTEX
  5
4D0
  8
0
 10
124.79900457640851
 20
95.000831178050831
 30
0.0
  0
VERTEX
  5
4D1
  8
0
 10
124.7998852758701
 20
95.879184142546208
 30
0.0
  0
VERTEX
  5
4D2
  8
0
 10
124.8232109602386
 20
96.704884222739693
 30
0.0
  0
VERTEX
  5
4D3
  8
0
 10
124.8628552408592
 20
97.494736168780747
 30
0.0
  0
VERTEX
  5
4D4
  8
0
 10
124.9118805433403
 20
98.239112497973935
 30
0.0
  0
VERTEX
  5
4D5
  8
0
 10
124.9586081638754
 20
98.908523292857765
 30
0.0
  0
VERTEX
  5
4D6
  8
0
 10
124.9923562589012
 20
99.513424231574334
 30
0.0
  0
VERTEX
  5
4D7
  8
0
 10
124.9999999999999
 20
99.833008405227716
 30
0.0
  0
SEQEND
  5
4D8
  8
0
  0
LINE
  5
42
  8
0
 10
92.999999999999915
 20
102.8981894736841
 30
0.0
 11
124.9999999999999
 21
102.8981894736842
 31
0.0
  0
CIRCLE
  5
43
  8
0
 10
109.0
 20
43.999999999999979
 30
0.0
 40
5.0
  0
CIRCLE
  5
44
  8
3
 10
116.0710678118654
 20
51.071067811865511
 30
0.0
 40
3.0
  0
CIRCLE
  5
45
  8
3
 10
116.0710678118655
 20
36.928932188134532
 30
0.0
 40
3.0
  0
CIRCLE
  5
46
  8
3
 10
101.9289321881345
 20
36.928932188134517
 30
0.0
 40
3.0
  0
CIRCLE
  5
47
  8
3
 10
101.9289321881345
 20
51.071067811865497
 30
0.0
 40
2.9999999999999849
  0
CIRCLE
  5
48
  8
0
 10
109.0
 20
43.999999999999979
 30
0.0
 40
15.0
  0
CIRCLE
  5
49
  8
0
 10
101.9289321881345
 20
36.928932188134482
 30
0.0
 40
2.5000000000000071
  0
CIRCLE
  5
4A
  8
0
 10
101.9289321881345
 20
51.071067811865461
 30
0.0
 40
2.5
  0
CIRCLE
  5
4B
  8
0
 10
116.0710678118654
 20
36.92893218813451
 30
0.0
 40
2.5000000000000071
  0
CIRCLE
  5
4C
  8
0
 10
116.0710678118654
 20
51.07106781186549
 30
0.0
 40
2.4999999999999849
  0
POLYLINE
  5
4D
  8
0
 66
     1
 10
0.0
 20
0.0
 30
0.0
 70
   128
  0
VERTEX
  5
4D9
  8
0
 10
104.3319310254581
 20
37.53818524691691
 30
0.0
  0
VERTEX
  5
4DA
  8
0
 10
103.8779757479645
 20
37.855775801425722
 30
0.0
  0
VERTEX
  5
4DB
  8
0
 10
102.91106262529929
 20
38.811084733108999
 30
0.0
  0
VERTEX
  5
4DC
  8
0
 10
102.538725683623
 20
39.332543907562588
 30
0.0
  0
SEQEND
  5
4DD
  8
0
  0
POLYLINE
  5
53
  8
0
 66
     1
 10
0.0
 20
0.0
 30
0.0
 70
   128
  0
VERTEX
  5
4DE
  8
0
 10
102.52327177904159
 20
48.666291916972213
 30
0.0
  0
VERTEX
  5
4DF
  8
0
 10
102.65681890862621
 20
48.874838832416707
 30
0.0
  0
VERTEX
  5
4E0
  8
0
 10
103.57435495702261
 20
49.877831288236891
 30
0.0
  0
VERTEX
  5
4E1
  8
0
 10
104.3344515819819
 20
50.468920671817003
 30
0.0
  0
SEQEND
  5
4E2
  8
0
  0
POLYLINE
  5
59
  8
0
 66
     1
 10
0.0
 20
0.0
 30
0.0
 70
   128
  0
VERTEX
  5
4E3
  8
0
 10
113.6695719260277
 20
50.460763276826441
 30
0.0
  0
VERTEX
  5
4E4
  8
0
 10
114.1220242520354
 20
50.144224198574157
 30
0.0
  0
VERTEX
  5
4E5
  8
0
 10
115.08893737470061
 20
49.188915266890888
 30
0.0
  0
VERTEX
  5
4E6
  8
0
 10
115.46245133036921
 20
48.665807680270639
 30
0.0
  0
SEQEND
  5
4E7
  8
0
  0
POLYLINE
  5
5F
  8
0
 66
     1
 10
0.0
 20
0.0
 30
0.0
 70
   128
  0
VERTEX
  5
4E8
  8
0
 10
115.4758761036264
 20
39.332377418402288
 30
0.0
  0
VERTEX
  5
4E9
  8
0
 10
115.34318109137369
 20
39.125161167583201
 30
0.0
  0
VERTEX
  5
4EA
  8
0
 10
114.42564504297729
 20
38.12216871176301
 30
0.0
  0
VERTEX
  5
4EB
  8
0
 10
113.66388882097399
 20
37.529788742010631
 30
0.0
  0
SEQEND
  5
4EC
  8
0
  0
CIRCLE
  5
65
  8
0
 10
109.0
 20
44.0
 30
0.0
 40
16.0
  0
LINE
  5
66
  8
0
 10
115.4999999999999
 20
142.23809949203701
 30
0.0
 11
115.4999999999999
 21
134.75478471848911
 31
0.0
  0
ARC
  5
67
  8
0
 10
108.9999999999999
 20
138.4964421052631
 30
0.0
 40
7.500000000000008
 50
209.92643486661561
 51
330.07356513338692
  0
LINE
  5
68
  8
0
 10
102.4999999999999
 20
134.75478471848911
 30
0.0
 11
102.4999999999999
 21
142.23809949203701
 31
0.0
  0
ARC
  5
69
  8
0
 10
108.9999999999999
 20
138.4964421052631
 30
0.0
 40
7.5000000000000124
 50
29.926434866614532
 51
150.07356513338539
  0
CIRCLE
  5
6A
  8
3
 10
108.9999999999999
 20
138.4964421052631
 30
0.0
 40
3.0
  0
CIRCLE
  5
6B
  8
0
 10
108.9999999999999
 20
138.4964421052631
 30
0.0
 40
2.5
  0
CIRCLE
  5
6C
  8
0
 10
108.9999999999999
 20
138.4964421052631
 30
0.0
 40
16.0
  0
CIRCLE
  5
6D
  8
0
 10
108.9999999999999
 20
138.4964421052631
 30
0.0
 40
13.0
  0
LINE
  5
6E
  8
0
 10
179.99764210526311
 20
75.89818947337433
 30
0.0
 11
179.99764210526311
 21
76.898189473684184
 31
0.0
  0
LINE
  5
6F
  8
0
 10
149.99764210526311
 20
76.898189473684184
 30
0.0
 11
149.99764210526311
 21
75.89818947337433
 31
0.0
  0
LINE
  5
70
  8
0
 10
172.49764210526311
 20
102.8981894736842
 30
0.0
 11
172.49764210526311
 21
107.8981894736841
 31
0.0
  0
LINE
  5
71
  8
0
 10
157.49764210526311
 20
107.8981894736841
 30
0.0
 11
157.49764210526311
 21
102.8981894736842
 31
0.0
  0
LINE
  5
72
  8
0
 10
148.99764210526311
 20
102.8981894736841
 30
0.0
 11
148.99764210526311
 21
76.898189473684155
 31
0.0
  0
LINE
  5
73
  8
0
 10
180.99764210526311
 20
76.89818947368417
 30
0.0
 11
180.99764210526311
 21
102.8981894736841
 31
0.0
  0
LINE
  5
74
  8
0
 10
179.99764210526311
 20
75.89818947337433
 30
0.0
 11
149.99764210526311
 21
75.89818947337433
 31
0.0
  0
LINE
  5
F4
  8
0
 10
168.73929949203699
 20
107.8981894736841
 30
0.0
 11
168.73929949203699
 21
102.8981894736842
 31
0.0
  0
LINE
  5
F6
  8
0
 10
161.25598471848909
 20
102.8981894736842
 30
0.0
 11
161.25598471848909
 21
107.8981894736841
 31
0.0
  0
LINE
  5
F8
  8
0
 10
172.49764210526311
 20
107.8981894736841
 30
0.0
 11
157.49764210526311
 21
107.8981894736841
 31
0.0
  0
LINE
  5
FA
  8
0
 10
148.99764210526311
 20
102.8981894736841
 30
0.0
 11
180.99764210526311
 21
102.8981894736842
 31
0.0
  0
LINE
  5
125
  8
0
 10
148.99764210526311
 20
76.898189473684155
 30
0.0
 11
180.99764210526311
 21
76.898189473684283
 31
0.0
  0
LINE
  5
13C
  8
0
 10
70.502252631578884
 20
75.89818947337433
 30
0.0
 11
70.502252631578884
 21
76.898189473684141
 31
0.0
  0
LINE
  5
13D
  8
0
 10
40.502252631578877
 20
76.898189473684141
 30
0.0
 11
40.502252631578877
 21
75.89818947337433
 31
0.0
  0
LINE
  5
13E
  8
0
 10
48.002252631578898
 20
107.8981894736841
 30
0.0
 11
48.002252631578898
 21
102.8981894736841
 31
0.0
  0
LINE
  5
13F
  8
0
 10
63.002252631578898
 20
102.8981894736841
 30
0.0
 11
63.002252631578898
 21
107.8981894736841
 31
0.0
  0
LINE
  5
140
  8
0
 10
39.502252631578898
 20
102.8981894736841
 30
0.0
 11
39.502252631578877
 21
76.89818947368417
 31
0.0
  0
LINE
  5
141
  8
0
 10
71.502252631578884
 20
76.898189473684155
 30
0.0
 11
71.502252631578912
 21
102.8981894736841
 31
0.0
  0
LINE
  5
142
  8
0
 10
70.502252631578884
 20
75.89818947337433
 30
0.0
 11
40.502252631578877
 21
75.89818947337433
 31
0.0
  0
LINE
  5
143
  8
0
 10
63.002252631578912
 20
107.898189473684
 30
0.0
 11
48.002252631578898
 21
107.8981894736841
 31
0.0
  0
LINE
  5
144
  8
0
 10
51.760595244805003
 20
102.8981894736841
 30
0.0
 11
51.760595244805003
 21
107.8981894736841
 31
0.0
  0
LINE
  5
145
  8
0
 10
59.243910018352878
 20
107.8981894736841
 30
0.0
 11
59.243910018352878
 21
102.8981894736841
 31
0.0
  0
LINE
  5
148
  8
0
 10
39.502252631578877
 20
76.89818947368417
 30
0.0
 11
71.502252631578884
 21
76.898189473684155
 31
0.0
  0
LINE
  5
149
  8
0
 10
39.502252631578898
 20
102.8981894736841
 30
0.0
 11
71.502252631578912
 21
102.8981894736841
 31
0.0
  0
LINE
  5
15E
  8
1
 10
164.99764210526311
 20
70.89818947337433
 30
0.0
 11
164.99764210526311
 21
112.8981894736841
 31
0.0
  0
LINE
  5
15F
  8
1
 10
87.999999999999915
 20
138.4964421052631
 30
0.0
 11
129.99999999999989
 21
138.4964421052631
 31
0.0
  0
LINE
  5
161
  8
1
 10
108.9999999999999
 20
159.4964421052631
 30
0.0
 11
108.9999999999999
 21
117.496442105263
 31
0.0
  0
LINE
  5
162
  8
1
 10
88.0
 20
44.0
 30
0.0
 11
130.0
 21
44.0
 31
0.0
  0
LINE
  5
163
  8
1
 10
109.0
 20
65.0
 30
0.0
 11
109.0
 21
23.0
 31
0.0
  0
LINE
  5
164
  8
1
 10
109.0
 20
70.898189473374373
 30
0.0
 11
109.0
 21
112.8981894736842
 31
0.0
  0
LINE
  5
165
  8
1
 10
55.502252631578898
 20
70.898189473374316
 30
0.0
 11
55.502252631578898
 21
112.8981894736841
 31
0.0
  0
TEXT
  5
237
  8
0
 62
     3
 10
0.0
 20
0.0
 30
0.0
 40
10.0
  1
QLPU200NR
  7
STANDARD1
  0
CIRCLE
  5
297
  8
1
 10
109.0
 20
44.0
 30
0.0
 40
9.9999999999999698
  0
CIRCLE
  5
401
  8
0
 10
164.99764208997169
 20
95.398189475391419
 30
0.0
 40
5.2500000004087042
  0
CIRCLE
  5
405
  8
0
 10
164.99764210526311
 20
95.39818947337433
 30
0.0
 40
3.0
  0
CIRCLE
  5
406
  8
0
 10
164.99764210526311
 20
95.39818947337433
 30
0.0
 40
2.4999999999999711
  0
LINE
  5
411
  8
0
 10
166.99764210463849
 20
96.898189473374345
 30
0.0
 11
162.99764210550771
 21
96.898189473334483
 31
0.0
  0
LINE
  5
412
  8
0
 10
162.99764210500251
 20
93.898189473301457
 30
0.0
 11
166.99764210591451
 21
93.898189473273774
 31
0.0
  0
LINE
  5
415
  8
0
 10
162.75264767313971
 20
94.298189473494759
 30
0.0
 11
167.24263653738649
 21
94.298189473494759
 31
0.0
  0
LINE
  5
416
  8
0
 10
167.2426365373864
 20
96.498189473253916
 30
0.0
 11
162.75264767313971
 21
96.498189473253916
 31
0.0
  0
LINE
  5
472
  8
1
 10
172.7476420903804
 20
95.39818947337433
 30
0.0
 11
157.24764208956299
 21
95.39818947337433
 31
0.0
  0
ENDSEC
  0
EOF
