  0
SECTION
  2
HEADER
  9
$ACADVER
  1
AC1009
  9
$INSBASE
 10
0.0
 20
0.0
 30
0.0
  9
$EXTMIN
 10
0.0
 20
-2.960436562073669
 30
0.0
  9
$EXTMAX
 10
98.628922237380635
 20
133.4167701656163
 30
0.0
  9
$LIMMIN
 10
0.0
 20
0.0
  9
$LIMMAX
 10
0.0
 20
0.0
  9
$ORTHOMODE
 70
     0
  9
$REGENMODE
 70
     1
  9
$FILLMODE
 70
     1
  9
$QTEXTMODE
 70
     0
  9
$MIRRTEXT
 70
     0
  9
$DRAGMODE
 70
     2
  9
$LTSCALE
 40
1.0
  9
$OSMODE
 70
    37
  9
$ATTMODE
 70
     1
  9
$TEXTSIZE
 40
0.0
  9
$TRACEWID
 40
0.05
  9
$TEXTSTYLE
  7
STANDARD
  9
$CLAYER
  8
1
  9
$CELTYPE
  6
BYLAYER
  9
$CECOLOR
 62
   256
  9
$DIMSCALE
 40
1.0
  9
$DIMASZ
 40
6.0
  9
$DIMEXO
 40
1.0
  9
$DIMDLI
 40
0.38
  9
$DIMRND
 40
0.0
  9
$DIMDLE
 40
1.0
  9
$DIMEXE
 40
0.18
  9
$DIMTP
 40
0.0
  9
$DIMTM
 40
0.0
  9
$DIMTXT
 40
3.5
  9
$DIMCEN
 40
0.09
  9
$DIMTSZ
 40
0.0
  9
$DIMTOL
 70
     0
  9
$DIMLIM
 70
     0
  9
$DIMTIH
 70
     1
  9
$DIMTOH
 70
     1
  9
$DIMSE1
 70
     0
  9
$DIMSE2
 70
     0
  9
$DIMTAD
 70
     1
  9
$DIMZIN
 70
     0
  9
$DIMBLK
  1

  9
$DIMASO
 70
     1
  9
$DIMSHO
 70
     1
  9
$DIMPOST
  1

  9
$DIMAPOST
  1

  9
$DIMALT
 70
     0
  9
$DIMALTD
 70
     2
  9
$DIMALTF
 40
0.0394
  9
$DIMLFAC
 40
1.0
  9
$DIMTOFL
 70
     0
  9
$DIMTVP
 40
0.0
  9
$DIMTIX
 70
     0
  9
$DIMSOXD
 70
     0
  9
$DIMSAH
 70
     0
  9
$DIMBLK1
  1

  9
$DIMBLK2
  1

  9
$DIMSTYLE
  2
STANDARD
  9
$DIMCLRD
 70
     0
  9
$DIMCLRE
 70
     0
  9
$DIMCLRT
 70
     0
  9
$DIMTFAC
 40
1.0
  9
$DIMGAP
 40
1.0
  9
$LUNITS
 70
     2
  9
$LUPREC
 70
     2
  9
$SKETCHINC
 40
0.1
  9
$FILLETRAD
 40
0.0
  9
$AUNITS
 70
     0
  9
$AUPREC
 70
     2
  9
$MENU
  1
acad
  9
$ELEVATION
 40
0.0
  9
$PELEVATION
 40
0.0
  9
$THICKNESS
 40
0.0
  9
$LIMCHECK
 70
     0
  9
$BLIPMODE
 70
     0
  9
$CHAMFERA
 40
0.0
  9
$CHAMFERB
 40
0.0
  9
$SKPOLY
 70
     0
  9
$TDCREATE
 40
2444972.375
  9
$TDUPDATE
 40
2456598.7268240969
  9
$TDINDWG
 40
0.0010391088
  9
$TDUSRTIMER
 40
2456598.1686076741
  9
$USRTIMER
 70
     1
  9
$ANGBASE
 50
0.0
  9
$ANGDIR
 70
     0
  9
$PDMODE
 70
     0
  9
$PDSIZE
 40
-1.0
  9
$PLINEWID
 40
0.0
  9
$COORDS
 70
     1
  9
$SPLFRAME
 70
     0
  9
$SPLINETYPE
 70
     6
  9
$SPLINESEGS
 70
     8
  9
$ATTDIA
 70
     0
  9
$ATTREQ
 70
     1
  9
$HANDLING
 70
     1
  9
$HANDSEED
  5
22C
  9
$SURFTAB1
 70
     6
  9
$SURFTAB2
 70
     6
  9
$SURFTYPE
 70
     6
  9
$SURFU
 70
     6
  9
$SURFV
 70
     6
  9
$UCSNAME
  2

  9
$UCSORG
 10
0.0
 20
0.0
 30
0.0
  9
$UCSXDIR
 10
1.0
 20
0.0
 30
0.0
  9
$UCSYDIR
 10
0.0
 20
1.0
 30
0.0
  9
$PUCSNAME
  2

  9
$PUCSORG
 10
0.0
 20
0.0
 30
0.0
  9
$PUCSXDIR
 10
1.0
 20
0.0
 30
0.0
  9
$PUCSYDIR
 10
0.0
 20
1.0
 30
0.0
  9
$USERI1
 70
     0
  9
$USERI2
 70
     1
  9
$USERI3
 70
     0
  9
$USERI4
 70
     0
  9
$USERI5
 70
     0
  9
$USERR1
 40
0.0
  9
$USERR2
 40
0.0
  9
$USERR3
 40
0.0
  9
$USERR4
 40
0.0
  9
$USERR5
 40
0.0
  9
$WORLDVIEW
 70
     1
  9
$SHADEDGE
 70
     3
  9
$SHADEDIF
 70
    70
  9
$TILEMODE
 70
     1
  9
$MAXACTVP
 70
    16
  9
$PLIMCHECK
 70
     0
  9
$PEXTMIN
 10
1.0000000000000000E+020
 20
1.0000000000000000E+020
 30
1.0000000000000000E+020
  9
$PEXTMAX
 10
-1.0000000000000000E+020
 20
-1.0000000000000000E+020
 30
-1.0000000000000000E+020
  9
$PLIMMIN
 10
0.0
 20
0.0
  9
$PLIMMAX
 10
12.0
 20
9.0
  9
$UNITMODE
 70
     0
  9
$VISRETAIN
 70
     0
  9
$PLINEGEN
 70
     1
  9
$PSLTSCALE
 70
     1
  0
ENDSEC
  0
SECTION
  2
TABLES
  0
TABLE
  2
VPORT
 70
     1
  0
VPORT
  2
*ACTIVE
 70
     0
 10
0.0
 20
0.0
 11
1.0
 21
1.0
 12
49.313850676316299
 22
82.588207622694682
 13
0.0
 23
0.0
 14
1.0
 24
1.0
 15
0.0
 25
0.0
 16
0.0
 26
0.0
 36
1.0
 17
0.0
 27
0.0
 37
0.0
 40
172.73353563633901
 41
1.755244755244755
 42
50.0
 43
0.0
 44
0.0
 50
0.0
 51
0.0
 71
     0
 72
  2000
 73
     1
 74
     0
 75
     0
 76
     0
 77
     0
 78
     0
  0
ENDTAB
  0
TABLE
  2
LTYPE
 70
     3
  0
LTYPE
  2
CONTINUOUS
 70
     0
  3
Solid Line
 72
    65
 73
     0
 40
0.0
  0
LTYPE
  2
CENTERX2
 70
     0
  3
Center (2x) ________  __  ________  __  _____
 72
    65
 73
     4
 40
20.32
 49
12.699999999999999
 49
-2.54
 49
2.54
 49
-2.54
  0
LTYPE
  2
PHANTOM2
 70
     0
  3
___ _ _ ___ _ _ ___ _ _ ___ _ _
 72
    65
 73
     6
 40
1.25
 49
0.625
 49
-0.125
 49
0.125
 49
-0.125
 49
0.125
 49
-0.125
  0
ENDTAB
  0
TABLE
  2
LAYER
 70
     3
  0
LAYER
  2
0
 70
     0
 62
     7
  6
CONTINUOUS
  0
LAYER
  2
DEFPOINTS
 70
     0
 62
     7
  6
CONTINUOUS
  0
LAYER
  2
1
 70
     0
 62
     1
  6
CENTERX2
  0
ENDTAB
  0
TABLE
  2
STYLE
 70
     2
  0
STYLE
  2
STANDARD
 70
     0
 40
0.0
 41
1.0
 50
0.0
 71
     0
 42
0.0
  3
txt
  4
bigfont
  0
STYLE
  2
STANDARD1
 70
     0
 40
0.0
 41
1.0
 50
0.0
 71
     0
 42
3.0
  3
txt
  4

  0
ENDTAB
  0
TABLE
  2
VIEW
 70
     0
  0
ENDTAB
  0
TABLE
  2
UCS
 70
     0
  0
ENDTAB
  0
TABLE
  2
APPID
 70
     3
  0
APPID
  2
ACAD
 70
     0
  0
APPID
  2
ACAD_MLEADERVER
 70
     0
  0
APPID
  2
ACAD_NAV_VCDISPLAY
 70
     0
  0
ENDTAB
  0
TABLE
  2
DIMSTYLE
 70
     1
  0
DIMSTYLE
  2
STANDARD
 70
     0
  3

  4

  5

  6

  7

 40
1.0
 41
0.18
 42
0.0625
 43
0.38
 44
0.18
 45
0.0
 46
0.0
 47
0.0
 48
0.0
140
0.18
141
0.09
142
0.0
143
25.399999999999999
144
1.0
145
0.0
146
1.0
147
0.09
 71
     0
 72
     0
 73
     1
 74
     1
 75
     0
 76
     0
 77
     0
 78
     0
170
     0
171
     2
172
     0
173
     0
174
     0
175
     0
176
     0
177
     0
178
     0
  0
ENDTAB
  0
ENDSEC
  0
SECTION
  2
BLOCKS
  0
BLOCK
  8
0
  2
$MODEL_SPACE
 70
     0
 10
0.0
 20
0.0
 30
0.0
  3
$MODEL_SPACE
  1

  0
ENDBLK
  5
E
  8
0
  0
BLOCK
 67
     1
  8
0
  2
$PAPER_SPACE
 70
     0
 10
0.0
 20
0.0
 30
0.0
  3
$PAPER_SPACE
  1

  0
ENDBLK
  5
10
 67
     1
  8
0
  0
ENDSEC
  0
SECTION
  2
ENTITIES
  0
LINE
  5
27
  8
0
 10
42.28827723932352
 20
74.396654376142578
 30
0.0
 11
42.28827723932352
 21
89.396654376142564
 31
0.0
  0
LINE
  5
28
  8
0
 10
26.288277239323509
 20
89.396654376142564
 30
0.0
 11
26.288277239323509
 21
74.396654376142578
 31
0.0
  0
LINE
  5
29
  8
0
 10
39.28827723932352
 20
54.396654376142578
 30
0.0
 11
39.28827723932352
 21
74.396654376142578
 31
0.0
  0
LINE
  5
2A
  8
0
 10
29.288277239323499
 20
74.396654376142578
 30
0.0
 11
29.288277239323499
 21
54.396654376142578
 31
0.0
  0
ARC
  5
2B
  8
0
 10
35.28827723932352
 20
35.396654376142592
 30
0.0
 40
3.0
 50
270.0000000000008
 51
0.0
  0
ARC
  5
2C
  8
0
 10
33.288277239323513
 20
35.396654376142592
 30
0.0
 40
3.0
 50
180.0000000000004
 51
270.0000000000008
  0
LINE
  5
2D
  8
0
 10
38.28827723932352
 20
35.396654376142592
 30
0.0
 11
38.28827723932352
 21
37.892360382140197
 31
0.0
  0
LINE
  5
2E
  8
0
 10
30.288277239323509
 20
37.892360382140197
 30
0.0
 11
30.288277239323509
 21
35.396654376142592
 31
0.0
  0
LINE
  5
2F
  8
0
 10
38.28827723932352
 20
37.892360382140197
 30
0.0
 11
36.438277239323533
 21
41.096654376142602
 31
0.0
  0
LINE
  5
30
  8
0
 10
32.1382772393235
 20
41.096654376142602
 30
0.0
 11
30.288277239323509
 21
37.892360382140197
 31
0.0
  0
LINE
  5
31
  8
0
 10
38.28827723932352
 20
46.396654376142571
 30
0.0
 11
38.28827723932352
 21
54.396654376142578
 31
0.0
  0
LINE
  5
32
  8
0
 10
30.288277239323509
 20
54.396654376142578
 30
0.0
 11
30.288277239323509
 21
46.396654376142571
 31
0.0
  0
LINE
  5
33
  8
0
 10
36.438277239323533
 20
41.096654376142602
 30
0.0
 11
36.438277239323511
 21
46.396654376142571
 31
0.0
  0
LINE
  5
34
  8
0
 10
32.138277239323521
 20
46.396654376142571
 30
0.0
 11
32.1382772393235
 21
41.096654376142602
 31
0.0
  0
LINE
  5
35
  8
0
 10
26.288277239323509
 20
89.396654376142564
 30
0.0
 11
42.28827723932352
 21
89.396654376142564
 31
0.0
  0
LINE
  5
36
  8
0
 10
26.288277239323509
 20
74.396654376142578
 30
0.0
 11
42.28827723932352
 21
74.396654376142578
 31
0.0
  0
LINE
  5
37
  8
0
 10
29.288277239323499
 20
54.396654376142578
 30
0.0
 11
39.28827723932352
 21
54.396654376142578
 31
0.0
  0
LINE
  5
38
  8
0
 10
34.28827723932352
 20
32.396654376142592
 30
0.0
 11
33.288277239323513
 21
32.396654376142592
 31
0.0
  0
LINE
  5
39
  8
0
 10
35.28827723932352
 20
32.396654376142592
 30
0.0
 11
34.28827723932352
 21
32.396654376142592
 31
0.0
  0
LINE
  5
3A
  8
0
 10
34.28827723932352
 20
35.396654376142607
 30
0.0
 11
38.28827723932352
 21
35.396654376142592
 31
0.0
  0
LINE
  5
3B
  8
0
 10
30.288277239323509
 20
35.396654376142592
 30
0.0
 11
34.28827723932352
 21
35.396654376142607
 31
0.0
  0
LINE
  5
3C
  8
0
 10
34.28827723932352
 20
37.892360382140211
 30
0.0
 11
30.288277239323509
 21
37.892360382140197
 31
0.0
  0
LINE
  5
3D
  8
0
 10
38.28827723932352
 20
37.892360382140197
 30
0.0
 11
34.28827723932352
 21
37.892360382140211
 31
0.0
  0
LINE
  5
3E
  8
0
 10
34.28827723932352
 20
41.096654376142602
 30
0.0
 11
32.1382772393235
 21
41.096654376142602
 31
0.0
  0
LINE
  5
3F
  8
0
 10
36.438277239323533
 20
41.096654376142602
 30
0.0
 11
34.28827723932352
 21
41.096654376142602
 31
0.0
  0
LINE
  5
40
  8
0
 10
34.28827723932352
 20
46.396654376142607
 30
0.0
 11
30.288277239323509
 21
46.396654376142571
 31
0.0
  0
LINE
  5
41
  8
0
 10
38.28827723932352
 20
46.396654376142571
 30
0.0
 11
34.28827723932352
 21
46.396654376142607
 31
0.0
  0
LINE
  5
42
  8
1
 10
34.28827723932352
 20
94.917949112984701
 30
0.0
 11
34.28827723932352
 21
26.920812270879441
 31
0.0
  0
CIRCLE
  5
43
  8
0
 10
34.28827723932352
 20
122.9167701656163
 30
0.0
 40
8.0
  0
LINE
  5
60
  8
1
  6
CONTINUOUS
 10
23.78827723932352
 20
122.9167701656163
 30
0.0
 11
44.788277239323499
 21
122.9167701656163
 31
0.0
  0
LINE
  5
61
  8
1
  6
CONTINUOUS
 10
34.28827723932352
 20
133.4167701656163
 30
0.0
 11
34.28827723932352
 21
112.4167701656163
 31
0.0
  0
TEXT
  5
16A
  8
0
 62
     3
 10
0.0
 20
0.0
 30
0.0
 40
10.0
  1
QLPD200-8X10
  7
STANDARD1
  0
ENDSEC
  0
EOF
