  0
SECTION
  2
HEADER
  9
$ACADVER
  1
AC1009
  9
$INSBASE
 10
0.0
 20
0.0
 30
0.0
  9
$EXTMIN
 10
0.0
 20
-2.960436562073669
 30
0.0
  9
$EXTMAX
 10
245.51935698633309
 20
198.9423313512028
 30
0.0
  9
$LIMMIN
 10
0.0
 20
0.0
  9
$LIMMAX
 10
770.0
 20
540.0
  9
$ORTHOMODE
 70
     1
  9
$REGENMODE
 70
     1
  9
$FILLMODE
 70
     1
  9
$QTEXTMODE
 70
     0
  9
$MIRRTEXT
 70
     0
  9
$DRAGMODE
 70
     2
  9
$LTSCALE
 40
5.0
  9
$OSMODE
 70
  3071
  9
$ATTMODE
 70
     1
  9
$TEXTSIZE
 40
4.000000000000048
  9
$TRACEWID
 40
0.05
  9
$TEXTSTYLE
  7
STANDARD
  9
$CLAYER
  8
0
  9
$CELTYPE
  6
BYLAYER
  9
$CECOLOR
 62
   256
  9
$DIMSCALE
 40
2.0
  9
$DIMASZ
 40
3.0
  9
$DIMEXO
 40
2.0
  9
$DIMDLI
 40
0.38
  9
$DIMRND
 40
0.0
  9
$DIMDLE
 40
0.0
  9
$DIMEXE
 40
2.0
  9
$DIMTP
 40
0.0
  9
$DIMTM
 40
0.0
  9
$DIMTXT
 40
3.0
  9
$DIMCEN
 40
0.0
  9
$DIMTSZ
 40
0.0
  9
$DIMTOL
 70
     0
  9
$DIMLIM
 70
     0
  9
$DIMTIH
 70
     0
  9
$DIMTOH
 70
     0
  9
$DIMSE1
 70
     0
  9
$DIMSE2
 70
     0
  9
$DIMTAD
 70
     1
  9
$DIMZIN
 70
     0
  9
$DIMBLK
  1

  9
$DIMASO
 70
     0
  9
$DIMSHO
 70
     0
  9
$DIMPOST
  1

  9
$DIMAPOST
  1

  9
$DIMALT
 70
     0
  9
$DIMALTD
 70
     2
  9
$DIMALTF
 40
25.399999999999999
  9
$DIMLFAC
 40
1.0
  9
$DIMTOFL
 70
     0
  9
$DIMTVP
 40
1.6000000000000001
  9
$DIMTIX
 70
     1
  9
$DIMSOXD
 70
     0
  9
$DIMSAH
 70
     0
  9
$DIMBLK1
  1

  9
$DIMBLK2
  1

  9
$DIMSTYLE
  2
STANDARD
  9
$DIMCLRD
 70
     4
  9
$DIMCLRE
 70
     4
  9
$DIMCLRT
 70
     4
  9
$DIMTFAC
 40
1.0
  9
$DIMGAP
 40
0.09
  9
$LUNITS
 70
     2
  9
$LUPREC
 70
     1
  9
$SKETCHINC
 40
0.1
  9
$FILLETRAD
 40
0.0
  9
$AUNITS
 70
     0
  9
$AUPREC
 70
     0
  9
$MENU
  1
E:\r13\win\SUPPORT\ACAD
  9
$ELEVATION
 40
0.0
  9
$PELEVATION
 40
0.0
  9
$THICKNESS
 40
0.0
  9
$LIMCHECK
 70
     0
  9
$BLIPMODE
 70
     0
  9
$CHAMFERA
 40
1.1999999999999991
  9
$CHAMFERB
 40
1.1999999999999991
  9
$SKPOLY
 70
     0
  9
$TDCREATE
 40
2450158.583426042
  9
$TDUPDATE
 40
2456598.4236930092
  9
$TDINDWG
 40
0.157109294
  9
$TDUSRTIMER
 40
0.157109294
  9
$USRTIMER
 70
     1
  9
$ANGBASE
 50
0.0
  9
$ANGDIR
 70
     0
  9
$PDMODE
 70
     0
  9
$PDSIZE
 40
0.0
  9
$PLINEWID
 40
0.0
  9
$COORDS
 70
     1
  9
$SPLFRAME
 70
     0
  9
$SPLINETYPE
 70
     6
  9
$SPLINESEGS
 70
     8
  9
$ATTDIA
 70
     0
  9
$ATTREQ
 70
     1
  9
$HANDLING
 70
     1
  9
$HANDSEED
  5
11BD
  9
$SURFTAB1
 70
     6
  9
$SURFTAB2
 70
     6
  9
$SURFTYPE
 70
     6
  9
$SURFU
 70
     6
  9
$SURFV
 70
     6
  9
$UCSNAME
  2

  9
$UCSORG
 10
0.0
 20
0.0
 30
0.0
  9
$UCSXDIR
 10
1.0
 20
0.0
 30
0.0
  9
$UCSYDIR
 10
0.0
 20
1.0
 30
0.0
  9
$PUCSNAME
  2

  9
$PUCSORG
 10
0.0
 20
0.0
 30
0.0
  9
$PUCSXDIR
 10
1.0
 20
0.0
 30
0.0
  9
$PUCSYDIR
 10
0.0
 20
1.0
 30
0.0
  9
$USERI1
 70
     3
  9
$USERI2
 70
     1
  9
$USERI3
 70
     0
  9
$USERI4
 70
     0
  9
$USERI5
 70
     0
  9
$USERR1
 40
2.0
  9
$USERR2
 40
3.0
  9
$USERR3
 40
3.0
  9
$USERR4
 40
3.0
  9
$USERR5
 40
10.0
  9
$WORLDVIEW
 70
     1
  9
$SHADEDGE
 70
     3
  9
$SHADEDIF
 70
    70
  9
$TILEMODE
 70
     1
  9
$MAXACTVP
 70
    16
  9
$PLIMCHECK
 70
     0
  9
$PEXTMIN
 10
1.0000000000000000E+020
 20
1.0000000000000000E+020
 30
1.0000000000000000E+020
  9
$PEXTMAX
 10
-1.0000000000000000E+020
 20
-1.0000000000000000E+020
 30
-1.0000000000000000E+020
  9
$PLIMMIN
 10
0.0
 20
0.0
  9
$PLIMMAX
 10
12.0
 20
9.0
  9
$UNITMODE
 70
     0
  9
$VISRETAIN
 70
     0
  9
$PLINEGEN
 70
     0
  9
$PSLTSCALE
 70
     0
  0
ENDSEC
  0
SECTION
  2
TABLES
  0
TABLE
  2
VPORT
 70
     1
  0
VPORT
  2
*ACTIVE
 70
     0
 10
0.0
 20
0.0
 11
1.0
 21
1.0
 12
384.98825162880632
 22
300.06130074792389
 13
0.0
 23
0.0
 14
10.0
 24
10.0
 15
10.0
 25
10.0
 16
0.0
 26
0.0
 36
1.0
 17
0.0
 27
0.0
 37
0.0
 40
613.70008338671539
 41
2.304913294797688
 42
50.0
 43
0.0
 44
0.0
 50
0.0
 51
0.0
 71
     0
 72
   500
 73
     1
 74
     0
 75
     0
 76
     0
 77
     0
 78
     2
  0
ENDTAB
  0
TABLE
  2
LTYPE
 70
     4
  0
LTYPE
  2
CONTINUOUS
 70
     0
  3
Solid Line
 72
    65
 73
     0
 40
0.0
  0
LTYPE
  2
CENTER
 70
     0
  3
____ _ ____ _ ____ _ ____ _ ____ _ ____ _ ____
 72
    65
 73
     4
 40
2.0
 49
1.25
 49
-0.25
 49
0.25
 49
-0.25
  0
LTYPE
  2
HIDDEN
 70
     0
  3
_ _ _ _ _ _ _ _ _ _ _ _ _ _ _ _ _ _ _ _ _ _ _
 72
    65
 73
     2
 40
0.375
 49
0.25
 49
-0.125
  0
LTYPE
  2
PHANTOM2
 70
     0
  3
___ _ _ ___ _ _ ___ _ _ ___ _ _
 72
    65
 73
     6
 40
1.25
 49
0.625
 49
-0.125
 49
0.125
 49
-0.125
 49
0.125
 49
-0.125
  0
ENDTAB
  0
TABLE
  2
LAYER
 70
     4
  0
LAYER
  2
0
 70
     0
 62
     7
  6
CONTINUOUS
  0
LAYER
  2
1
 70
     0
 62
     1
  6
CENTER
  0
LAYER
  2
2
 70
     0
 62
     2
  6
HIDDEN
  0
LAYER
  2
3
 70
     0
 62
     3
  6
CONTINUOUS
  0
ENDTAB
  0
TABLE
  2
STYLE
 70
     2
  0
STYLE
  2
STANDARD
 70
     0
 40
0.0
 41
1.0
 50
0.0
 71
     0
 42
4.000000000000048
  3
SIMPLEX
  4
BIGFONT
  0
STYLE
  2
STANDARD1
 70
     0
 40
0.0
 41
1.0
 50
0.0
 71
     0
 42
3.0
  3
txt
  4

  0
ENDTAB
  0
TABLE
  2
VIEW
 70
     1
  0
VIEW
  2
ALL
 70
     0
 40
179.5384664489153
 10
146.94997169852391
 20
89.769233224457665
 41
0.0
 11
0.0
 21
0.0
 31
1.0
 12
0.0
 22
0.0
 32
0.0
 42
50.0
 43
0.0
 44
0.0
 50
0.0
 71
     0
  0
ENDTAB
  0
TABLE
  2
UCS
 70
     0
  0
ENDTAB
  0
TABLE
  2
APPID
 70
     3
  0
APPID
  2
ACAD
 70
     0
  0
APPID
  2
ACAD_MLEADERVER
 70
     0
  0
APPID
  2
ACAD_NAV_VCDISPLAY
 70
     0
  0
ENDTAB
  0
TABLE
  2
DIMSTYLE
 70
     1
  0
DIMSTYLE
  2
STANDARD
 70
     0
  3

  4

  5

  6

  7

 40
1.0
 41
0.18
 42
0.0625
 43
0.38
 44
0.18
 45
0.0
 46
0.0
 47
0.0
 48
0.0
140
0.18
141
0.09
142
0.0
143
25.399999999999999
144
1.0
145
0.0
146
1.0
147
0.09
 71
     0
 72
     0
 73
     1
 74
     1
 75
     0
 76
     0
 77
     0
 78
     0
170
     0
171
     2
172
     0
173
     0
174
     0
175
     0
176
     0
177
     0
178
     0
  0
ENDTAB
  0
ENDSEC
  0
SECTION
  2
BLOCKS
  0
BLOCK
  8
0
  2
$MODEL_SPACE
 70
     0
 10
0.0
 20
0.0
 30
0.0
  3
$MODEL_SPACE
  1

  0
ENDBLK
  5
644
  8
0
  0
BLOCK
 67
     1
  8
0
  2
$PAPER_SPACE
 70
     0
 10
0.0
 20
0.0
 30
0.0
  3
$PAPER_SPACE
  1

  0
ENDBLK
  5
642
 67
     1
  8
0
  0
ENDSEC
  0
SECTION
  2
ENTITIES
  0
LINE
  5
F16
  8
1
 10
193.755506122084
 20
188.4423313512028
 30
0.0
 11
112.7555061220839
 21
188.4423313512028
 31
0.0
  0
LINE
  5
F17
  8
1
 10
193.75550612208369
 20
45.612520221354671
 30
0.0
 11
112.7555061220836
 21
45.612520221354693
 31
0.0
  0
LINE
  5
F18
  8
0
 10
121.9620412678949
 20
52.612520221354693
 30
0.0
 11
115.7772421445607
 21
52.612520221354693
 31
0.0
  0
LINE
  5
F19
  8
0
 10
115.7772421445607
 20
48.862520221354693
 30
0.0
 11
118.4880875500877
 21
48.862520221354693
 31
0.0
  0
LINE
  5
F1A
  8
0
 10
121.8942248487553
 20
38.612520221354693
 30
0.0
 11
115.7772421445607
 21
38.612520221354693
 31
0.0
  0
LINE
  5
F1B
  8
0
 10
118.4776153600926
 20
42.362520221354679
 30
0.0
 11
115.7772421445607
 21
42.362520221354679
 31
0.0
  0
LINE
  5
F1C
  8
0
 10
125.7555061220835
 20
181.4423313512028
 30
0.0
 11
115.7670061220837
 21
181.4423313512028
 31
0.0
  0
LINE
  5
F1D
  8
0
 10
125.7555061220835
 20
185.1923313512028
 30
0.0
 11
115.7670061220837
 21
185.1923313512028
 31
0.0
  0
LINE
  5
F1E
  8
0
 10
125.7555061220835
 20
195.4423313512028
 30
0.0
 11
115.7670061220837
 21
195.4423313512028
 31
0.0
  0
LINE
  5
F1F
  8
0
 10
125.7555061220835
 20
191.6923313512028
 30
0.0
 11
115.7670061220837
 21
191.6923313512028
 31
0.0
  0
POLYLINE
  5
F20
  8
0
 66
     1
 10
0.0
 20
0.0
 30
0.0
 70
   128
  0
VERTEX
  5
10C8
  8
0
 10
136.88889648491539
 20
112.3612427017773
 30
0.0
  0
VERTEX
  5
10C9
  8
0
 10
136.0991618023622
 20
110.7576193725556
 30
0.0
  0
VERTEX
  5
10CA
  8
0
 10
135.08242559990319
 20
109.3051507483101
 30
0.0
  0
VERTEX
  5
10CB
  8
0
 10
133.86690478576989
 20
108.03444682037281
 30
0.0
  0
VERTEX
  5
10CC
  8
0
 10
132.43979022314619
 20
106.9459955847331
 30
0.0
  0
VERTEX
  5
10CD
  8
0
 10
130.87349080052959
 20
106.10131501692609
 30
0.0
  0
VERTEX
  5
10CE
  8
0
 10
129.20867904374899
 20
105.5183625195213
 30
0.0
  0
VERTEX
  5
10CF
  8
0
 10
127.4881730140152
 20
105.2070048551671
 30
0.0
  0
VERTEX
  5
10D0
  8
0
 10
125.7555061220838
 20
105.16884548405891
 30
0.0
  0
VERTEX
  5
10D1
  8
0
 10
124.05404494983721
 20
105.4022039431685
 30
0.0
  0
VERTEX
  5
10D2
  8
0
 10
122.4246411088822
 20
105.8943756860058
 30
0.0
  0
VERTEX
  5
10D3
  8
0
 10
120.9068809455993
 20
106.62968764111911
 30
0.0
  0
VERTEX
  5
10D4
  8
0
 10
119.5362552895801
 20
107.58556996653201
 30
0.0
  0
VERTEX
  5
10D5
  8
0
 10
118.3430825116005
 20
108.73342187357549
 30
0.0
  0
VERTEX
  5
10D6
  8
0
 10
117.3553229793653
 20
110.04255547436139
 30
0.0
  0
VERTEX
  5
10D7
  8
0
 10
116.5917144904481
 20
111.4766170159435
 30
0.0
  0
VERTEX
  5
10D8
  8
0
 10
116.0681181200049
 20
112.9981304060036
 30
0.0
  0
VERTEX
  5
10D9
  8
0
 10
115.792940141312
 20
114.5678035165803
 30
0.0
  0
VERTEX
  5
10DA
  8
0
 10
115.7670061220837
 20
116.1458454840587
 30
0.0
  0
VERTEX
  5
10DB
  8
0
 10
115.9881392293135
 20
117.6926817318523
 30
0.0
  0
VERTEX
  5
10DC
  8
0
 10
116.44413128648939
 20
119.1712526536502
 30
0.0
  0
VERTEX
  5
10DD
  8
0
 10
117.12008711464109
 20
120.5457144502126
 30
0.0
  0
VERTEX
  5
10DE
  8
0
 10
117.99489736116421
 20
121.7841022251972
 30
0.0
  0
VERTEX
  5
10DF
  8
0
 10
119.0420575648032
 20
122.8592940413392
 30
0.0
  0
VERTEX
  5
10E0
  8
0
 10
120.2332102037514
 20
123.74636187016991
 30
0.0
  0
VERTEX
  5
10E1
  8
0
 10
121.535033864299
 20
124.4288982801972
 30
0.0
  0
VERTEX
  5
10E2
  8
0
 10
122.9132488876384
 20
124.8931385236789
 30
0.0
  0
VERTEX
  5
10E3
  8
0
 10
124.33208907905799
 20
125.1321368167104
 30
0.0
  0
VERTEX
  5
10E4
  8
0
 10
125.7555061220835
 20
125.1458454840589
 30
0.0
  0
SEQEND
  5
10E5
  8
0
  0
LINE
  5
F21
  8
0
 10
115.7474373267294
 20
52.612520221354693
 30
0.0
 11
115.7474373267294
 21
48.862520221354693
 31
0.0
  0
LINE
  5
F22
  8
0
 10
115.7474373267294
 20
42.362520221354679
 30
0.0
 11
115.7474373267294
 21
38.612520221354693
 31
0.0
  0
LINE
  5
F23
  8
2
 10
65.130670645692291
 20
110.1458454840589
 30
0.0
 11
65.130670645692291
 21
122.1458454840589
 31
0.0
  0
LINE
  5
F24
  8
2
 10
65.630670645692305
 20
110.1458454840589
 30
0.0
 11
65.630670645692305
 21
122.1458454840589
 31
0.0
  0
LINE
  5
F25
  8
2
 10
59.63067064569227
 20
110.1458454840589
 30
0.0
 11
59.63067064569227
 21
122.1458454840589
 31
0.0
  0
LINE
  5
F26
  8
2
 10
60.130670645692291
 20
110.1458454840589
 30
0.0
 11
60.130670645692291
 21
122.1458454840589
 31
0.0
  0
LINE
  5
F27
  8
1
 10
62.630670645692312
 20
97.168845484058892
 30
0.0
 11
62.63067064569227
 21
132.8958454840589
 31
0.0
  0
LINE
  5
F28
  8
0
 10
53.384139162234419
 20
118.1458454840589
 30
0.0
 11
53.384139162234419
 21
127.3748201105372
 31
0.0
  0
LINE
  5
F29
  8
0
 10
71.87720212915012
 20
117.6411896737264
 30
0.0
 11
71.87720212915012
 21
127.3748201105372
 31
0.0
  0
LINE
  5
F2A
  8
0
 10
69.630670645692291
 20
125.1398444978187
 30
0.0
 11
69.630670645692291
 21
105.16884548405891
 31
0.0
  0
LINE
  5
F2B
  8
0
 10
65.880670645692291
 20
125.1398444978187
 30
0.0
 11
65.880670645692291
 21
105.16884548405891
 31
0.0
  0
LINE
  5
F2C
  8
0
 10
55.630670645692291
 20
125.1398444978187
 30
0.0
 11
55.630670645692291
 21
105.16884548405891
 31
0.0
  0
LINE
  5
F2D
  8
0
 10
59.380670645692277
 20
125.1398444978187
 30
0.0
 11
59.380670645692277
 21
105.16884548405891
 31
0.0
  0
LINE
  5
F2E
  8
0
 10
70.630670645692291
 20
122.1458454840589
 30
0.0
 11
70.630670645692291
 21
110.1458454840589
 31
0.0
  0
LINE
  5
F2F
  8
0
 10
54.630670645692291
 20
122.1458454840589
 30
0.0
 11
54.630670645692291
 21
110.1458454840589
 31
0.0
  0
LINE
  5
F30
  8
0
 10
72.130670645692277
 20
116.6770368429658
 30
0.0
 11
72.130670645692277
 21
127.75948583644011
 31
0.0
  0
LINE
  5
F31
  8
0
 10
53.130670645692277
 20
127.7607837921873
 30
0.0
 11
53.130670645692291
 21
118.1458454840589
 31
0.0
  0
LINE
  5
F32
  8
1
 10
73.130670645692291
 20
116.1458454840589
 30
0.0
 11
52.130670645692291
 21
116.1458454840589
 31
0.0
  0
LINE
  5
F33
  8
0
 10
54.63067064569227
 20
102.16884548405891
 30
0.0
 11
70.630670645692291
 21
102.16884548405891
 31
0.0
  0
LINE
  5
F34
  8
0
 10
54.63067064569227
 20
105.16884548405891
 30
0.0
 11
70.630670645692291
 21
105.16884548405891
 31
0.0
  0
LINE
  5
F35
  8
0
 10
54.630670645692291
 20
110.1458454840589
 30
0.0
 11
55.630670645692291
 21
110.1458454840589
 31
0.0
  0
LINE
  5
F36
  8
0
 10
54.63067064569227
 20
105.16884548405891
 30
0.0
 11
54.63067064569227
 21
102.16884548405891
 31
0.0
  0
LINE
  5
F37
  8
0
 10
53.130670645692291
 20
118.1458454840589
 30
0.0
 11
53.130670645692291
 21
114.1458454840589
 31
0.0
  0
LINE
  5
F38
  8
0
 10
53.130670645692291
 20
114.1458454840589
 30
0.0
 11
54.630670645692291
 21
114.1458454840589
 31
0.0
  0
LINE
  5
F39
  8
0
 10
54.531178069650288
 20
118.6458454840589
 30
0.0
 11
54.630670645692263
 21
118.6458454840589
 31
0.0
  0
ARC
  5
F3A
  8
0
 10
54.730653456397022
 20
117.50692332070049
 30
0.0
 40
1.1562586752568409
 50
99.934250901304864
 51
146.45600112131251
  0
LINE
  5
F3B
  8
0
 10
54.630670645692291
 20
118.1458454840589
 30
0.0
 11
53.130670645692291
 21
118.1458454840589
 31
0.0
  0
LINE
  5
F3C
  8
2
 10
59.530670645692311
 20
102.16884548405891
 30
0.0
 11
59.530670645692311
 21
105.16884548405891
 31
0.0
  0
LINE
  5
F3D
  8
2
 10
65.730670645692285
 20
102.16884548405891
 30
0.0
 11
65.730670645692285
 21
105.16884548405891
 31
0.0
  0
LINE
  5
F3E
  8
0
 10
70.630670645692291
 20
102.16884548405891
 30
0.0
 11
70.630670645692291
 21
105.16884548405891
 31
0.0
  0
LINE
  5
F3F
  8
0
 10
65.130670645692277
 20
110.1458454840589
 30
0.0
 11
65.880670645692291
 21
110.1458454840589
 31
0.0
  0
ARC
  5
F40
  8
0
 10
62.630889615707837
 20
104.6691853686111
 30
0.0
 40
6.020191958567942
 50
65.466023534849015
 51
114.487200160272
  0
LINE
  5
F41
  8
0
 10
59.380670645692291
 20
110.1458454840589
 30
0.0
 11
60.135580566523181
 21
110.1458454840589
 31
0.0
  0
LINE
  5
F42
  8
0
 10
69.630670645692291
 20
110.1458454840589
 30
0.0
 11
70.630670645692291
 21
110.1458454840589
 31
0.0
  0
LINE
  5
F43
  8
0
 10
72.017848015108299
 20
115.8125121507256
 30
0.0
 11
70.630670645692291
 21
115.8125121507256
 31
0.0
  0
LINE
  5
F44
  8
0
 10
70.730163221734273
 20
118.6458454840589
 30
0.0
 11
70.630670645692305
 21
118.6458454840589
 31
0.0
  0
LINE
  5
F45
  8
0
 10
70.630670645692291
 20
114.8958454840589
 30
0.0
 11
70.996733624390757
 21
114.8958454840589
 31
0.0
  0
ARC
  5
F46
  8
0
 10
69.92867202962556
 20
116.57157838811391
 30
0.0
 40
2.2227995526054372
 50
340.03225473853013
 51
28.763809412991851
  0
ARC
  5
F47
  8
0
 10
71.019639028401002
 20
115.8980898425215
 30
0.0
 40
1.0018706116459171
 50
268.68995325350511
 51
355.09994335980281
  0
ARC
  5
F48
  8
0
 10
70.370427419511884
 20
117.0779983452482
 30
0.0
 40
1.6085877340320771
 50
20.494373295012149
 51
77.077401919281755
  0
ARC
  5
F49
  8
0
 10
50.468932257434467
 20
121.9607510096256
 30
0.0
 40
6.1490304542457963
 50
32.91903189448179
 51
61.699745279998652
  0
LINE
  5
F4A
  8
0
 10
72.130562410777188
 20
127.7541885733778
 30
0.0
 11
53.13077888060738
 21
127.7541885733778
 31
0.0
  0
LINE
  5
F4B
  8
0
 10
72.008276010820438
 20
127.8958454840589
 30
0.0
 11
53.25504809624892
 21
127.8958454840589
 31
0.0
  0
LINE
  5
F4C
  8
0
 10
55.630670645692291
 20
122.1458454840589
 30
0.0
 11
54.630670645692291
 21
122.1458454840589
 31
0.0
  0
POLYLINE
  5
F4D
  8
0
 66
     1
 10
0.0
 20
0.0
 30
0.0
 70
   128
  0
VERTEX
  5
10E6
  8
0
 10
53.25504809624892
 20
127.8902432479567
 30
0.0
  0
VERTEX
  5
10E7
  8
0
 10
53.210839409742967
 20
127.89160610718601
 30
0.0
  0
VERTEX
  5
10E8
  8
0
 10
53.149528265250282
 20
127.847880821665
 30
0.0
  0
VERTEX
  5
10E9
  8
0
 10
53.130778880607359
 20
127.7541885733778
 30
0.0
  0
SEQEND
  5
10EA
  8
0
  0
POLYLINE
  5
F4E
  8
0
 66
     1
 10
0.0
 20
0.0
 30
0.0
 70
   128
  0
VERTEX
  5
10EB
  8
0
 10
53.384139162234433
 20
127.3748201105372
 30
0.0
  0
VERTEX
  5
10EC
  8
0
 10
53.197595776363528
 20
127.55837016679349
 30
0.0
  0
VERTEX
  5
10ED
  8
0
 10
53.13077888060738
 20
127.7541885733778
 30
0.0
  0
SEQEND
  5
10EE
  8
0
  0
LINE
  5
F4F
  8
0
 10
59.380670645692277
 20
125.1458454840589
 30
0.0
 11
65.880670645692291
 21
125.1458454840589
 31
0.0
  0
LINE
  5
F50
  8
0
 10
65.880670645692291
 20
122.1458454840589
 30
0.0
 11
65.130670645692277
 21
122.1458454840589
 31
0.0
  0
POLYLINE
  5
F51
  8
0
 66
     1
 10
0.0
 20
0.0
 30
0.0
 70
   128
  0
VERTEX
  5
10EF
  8
0
 10
65.130670645692277
 20
122.1458454840589
 30
0.0
  0
VERTEX
  5
10F0
  8
0
 10
65.099323892063708
 20
122.13285215273891
 30
0.0
  0
VERTEX
  5
10F1
  8
0
 10
65.002799521465718
 20
122.09370185449001
 30
0.0
  0
VERTEX
  5
10F2
  8
0
 10
64.85047287480711
 20
122.0346078274026
 30
0.0
  0
VERTEX
  5
10F3
  8
0
 10
64.639077496726387
 20
121.958220048665
 30
0.0
  0
VERTEX
  5
10F4
  8
0
 10
64.372289544045515
 20
121.87151019543531
 30
0.0
  0
VERTEX
  5
10F5
  8
0
 10
64.051061986791453
 20
121.7821130044902
 30
0.0
  0
VERTEX
  5
10F6
  8
0
 10
63.681413468385529
 20
121.7004886300622
 30
0.0
  0
VERTEX
  5
10F7
  8
0
 10
63.264819374385681
 20
121.6369423335147
 30
0.0
  0
VERTEX
  5
10F8
  8
0
 10
62.860363085917669
 20
121.60503577357041
 30
0.0
  0
VERTEX
  5
10F9
  8
0
 10
62.434454243987069
 20
121.6037297697779
 30
0.0
  0
VERTEX
  5
10FA
  8
0
 10
62.058518826388813
 20
121.6301282725675
 30
0.0
  0
VERTEX
  5
10FB
  8
0
 10
61.688147741179421
 20
121.6810373890909
 30
0.0
  0
VERTEX
  5
10FC
  8
0
 10
61.344525835213972
 20
121.7497877101636
 30
0.0
  0
VERTEX
  5
10FD
  8
0
 10
61.025625601554367
 20
121.8314562334605
 30
0.0
  0
VERTEX
  5
10FE
  8
0
 10
60.731886768712002
 20
121.92125717600609
 30
0.0
  0
VERTEX
  5
10FF
  8
0
 10
60.483474135398659
 20
122.0076244677648
 30
0.0
  0
VERTEX
  5
1100
  8
0
 10
60.297430950299074
 20
122.07829923239591
 30
0.0
  0
VERTEX
  5
1101
  8
0
 10
60.175638145949421
 20
122.127248711964
 30
0.0
  0
VERTEX
  5
1102
  8
0
 10
60.131673786996259
 20
122.1454275778194
 30
0.0
  0
VERTEX
  5
1103
  8
0
 10
60.135580566523181
 20
122.1438064868465
 30
0.0
  0
SEQEND
  5
1104
  8
0
  0
LINE
  5
F52
  8
0
 10
60.13558056652316
 20
122.1458454840589
 30
0.0
 11
59.380670645692291
 21
122.1458454840589
 31
0.0
  0
LINE
  5
F53
  8
0
 10
59.380670645692291
 20
125.1675528749458
 30
0.0
 11
55.630670645692291
 21
125.1675528749458
 31
0.0
  0
LINE
  5
F54
  8
0
 10
55.630670645692277
 20
125.1458454840589
 30
0.0
 11
55.630670645692277
 21
125.3024619992876
 31
0.0
  0
ARC
  5
F55
  8
0
 10
75.819393791468144
 20
120.8474523098148
 30
0.0
 40
7.6254446105363751
 50
121.1297991533873
 51
144.2514236721278
  0
LINE
  5
F56
  8
0
 10
70.630670645692291
 20
122.1458454840589
 30
0.0
 11
69.630670645692291
 21
122.1458454840589
 31
0.0
  0
LINE
  5
F57
  8
0
 10
69.630670645692291
 20
125.1675528749458
 30
0.0
 11
65.880670645692291
 21
125.1675528749458
 31
0.0
  0
LINE
  5
F58
  8
0
 10
69.630670645692291
 20
125.1458454840589
 30
0.0
 11
69.630670645692277
 21
125.3024619992876
 31
0.0
  0
POLYLINE
  5
F59
  8
0
 66
     1
 10
0.0
 20
0.0
 30
0.0
 70
   128
  0
VERTEX
  5
1105
  8
0
 10
72.130562410777188
 20
127.7541885733778
 30
0.0
  0
VERTEX
  5
1106
  8
0
 10
72.070072656845795
 20
127.8850279360814
 30
0.0
  0
VERTEX
  5
1107
  8
0
 10
72.008276010820438
 20
127.8923666332736
 30
0.0
  0
SEQEND
  5
1108
  8
0
  0
POLYLINE
  5
F5A
  8
0
 66
     1
 10
0.0
 20
0.0
 30
0.0
 70
   128
  0
VERTEX
  5
1109
  8
0
 10
71.877202129150106
 20
127.3748201105372
 30
0.0
  0
VERTEX
  5
110A
  8
0
 10
72.063745515021026
 20
127.55837016679349
 30
0.0
  0
VERTEX
  5
110B
  8
0
 10
72.130562410777188
 20
127.7541885733778
 30
0.0
  0
SEQEND
  5
110C
  8
0
  0
LINE
  5
F5B
  8
0
 10
115.7474373267294
 20
195.4423313512028
 30
0.0
 11
115.7474373267294
 21
191.6923313512028
 31
0.0
  0
LINE
  5
F5C
  8
0
 10
115.7474373267294
 20
185.1923313512028
 30
0.0
 11
115.7474373267294
 21
181.4423313512028
 31
0.0
  0
LINE
  5
F5D
  8
0
 10
157.75550612208369
 20
38.612520221354671
 30
0.0
 11
129.62848946829101
 21
38.612520221354671
 31
0.0
  0
LINE
  5
F5E
  8
0
 10
157.75550612208369
 20
52.612520221354693
 30
0.0
 11
129.62848946829101
 21
52.612520221354693
 31
0.0
  0
LINE
  5
F5F
  8
1
 10
125.7555061220836
 20
56.112520221354679
 30
0.0
 11
125.7555061220836
 21
35.112520221354693
 31
0.0
  0
LINE
  5
F60
  8
0
 10
136.88889648491531
 20
48.862520221354693
 30
0.0
 11
136.88889648491531
 21
52.612520221354693
 31
0.0
  0
CIRCLE
  5
F61
  8
0
 10
125.7555061220836
 20
45.612520221354693
 30
0.0
 40
8.0
  0
LINE
  5
F62
  8
0
 10
133.02745588858161
 20
48.862520221354693
 30
0.0
 11
136.88889648491531
 21
48.862520221354693
 31
0.0
  0
LINE
  5
F63
  8
0
 10
136.88889648491531
 20
42.362520221354671
 30
0.0
 11
133.0423293081528
 21
42.362520221354671
 31
0.0
  0
CIRCLE
  5
F64
  8
3
 10
125.7555061220734
 20
45.612520221355091
 30
0.0
 40
3.0
  0
LINE
  5
F65
  8
0
 10
123.7555061220836
 20
36.112520221354693
 30
0.0
 11
127.7555061220836
 21
36.112520221354693
 31
0.0
  0
LINE
  5
F66
  8
0
 10
119.7555061220837
 20
37.612520221354693
 30
0.0
 11
131.7555061220836
 21
37.612520221354693
 31
0.0
  0
CIRCLE
  5
F67
  8
0
 10
125.7555061220734
 20
45.612520221355091
 30
0.0
 40
2.499999999999587
  0
CIRCLE
  5
F68
  8
0
 10
125.7555061220836
 20
45.612520221354693
 30
0.0
 40
3.0999999999999939
  0
LINE
  5
F69
  8
0
 10
119.7555061220837
 20
38.612520221354693
 30
0.0
 11
119.7555061220837
 21
37.612520221354693
 31
0.0
  0
LINE
  5
F6A
  8
0
 10
123.7555061220836
 20
37.612520221354693
 30
0.0
 11
123.7555061220836
 21
36.112520221354693
 31
0.0
  0
LINE
  5
F6B
  8
0
 10
127.7555061220836
 20
36.112520221354693
 30
0.0
 11
127.7555061220836
 21
37.612520221354693
 31
0.0
  0
LINE
  5
F6C
  8
0
 10
131.7555061220836
 20
37.612520221354693
 30
0.0
 11
131.7555061220836
 21
38.612520221354671
 31
0.0
  0
LINE
  5
F6D
  8
0
 10
135.7555061220836
 20
48.862520221354693
 30
0.0
 11
135.7555061220836
 21
42.362520221354671
 31
0.0
  0
LINE
  5
F6E
  8
0
 10
136.88889648491531
 20
38.612520221354693
 30
0.0
 11
136.88889648491531
 21
42.362520221354671
 31
0.0
  0
LINE
  5
F6F
  8
0
 10
136.88889648491531
 20
48.862520221354693
 30
0.0
 11
146.17306707331861
 21
48.862520221354693
 31
0.0
  0
LINE
  5
F70
  8
0
 10
146.17306707331861
 20
42.362520221354671
 30
0.0
 11
136.88889648491531
 21
42.362520221354671
 31
0.0
  0
LINE
  5
F71
  8
0
 10
119.7555061220837
 20
53.612520221354679
 30
0.0
 11
131.7555061220836
 21
53.612520221354679
 31
0.0
  0
LINE
  5
F72
  8
0
 10
119.7555061220837
 20
53.612520221354679
 30
0.0
 11
119.7555061220837
 21
52.612520221354693
 31
0.0
  0
LINE
  5
F73
  8
0
 10
131.7555061220836
 20
52.612520221354693
 30
0.0
 11
131.7555061220836
 21
53.612520221354679
 31
0.0
  0
ARC
  5
F74
  8
0
 10
179.25550612208369
 20
45.612520221354671
 30
0.0
 40
9.499999999999984
 50
278.83903159825792
 51
81.160968401742906
  0
ARC
  5
F75
  8
0
 10
157.75550612208181
 20
-45.587479778652153
 30
0.0
 40
84.200000000007051
 50
76.734970769722864
 51
80.730603507445949
  0
ARC
  5
F76
  8
0
 10
157.7555061220836
 20
-45.587479778645331
 30
0.0
 40
84.199999999999989
 50
80.730603507446347
 51
90.0
  0
ARC
  5
F77
  8
0
 10
179.255506122084
 20
45.612520221354458
 30
0.0
 40
9.4999999999998952
 50
256.7349707697212
 51
278.83903159825633
  0
ARC
  5
F78
  8
0
 10
157.755506122084
 20
136.8125202213518
 30
0.0
 40
84.199999999997132
 50
279.26939649255451
 51
283.26502923027789
  0
ARC
  5
F79
  8
0
 10
157.75550612208369
 20
136.8125202213547
 30
0.0
 40
84.199999999999989
 50
270.0000000000008
 51
279.26939649255451
  0
ARC
  5
F7A
  8
0
 10
179.2555061220838
 20
45.612520221361372
 30
0.0
 40
9.4999999999935252
 50
81.160968401737136
 51
103.2650292302871
  0
ARC
  5
F7B
  8
0
 10
150.75550612208369
 20
281.6572091204219
 30
0.0
 40
156.511363636363
 50
270.0000000000008
 51
272.56341955505678
  0
LINE
  5
F7C
  8
0
 10
171.31816315825091
 20
118.6458454840589
 30
0.0
 11
146.17306707331861
 21
118.6458454840589
 31
0.0
  0
LINE
  5
F7D
  8
2
 10
123.2555061220836
 20
110.691489426741
 30
0.0
 11
123.2555061220836
 21
121.60020154137671
 31
0.0
  0
LINE
  5
F7E
  8
2
 10
122.7555061220836
 20
110.94969306135231
 30
0.0
 11
122.7555061220836
 21
121.3419979067655
 31
0.0
  0
LINE
  5
F7F
  8
2
 10
128.75550612208369
 20
110.94969306135231
 30
0.0
 11
128.75550612208369
 21
121.3419979067655
 31
0.0
  0
LINE
  5
F80
  8
2
 10
128.2555061220836
 20
110.691489426741
 30
0.0
 11
128.2555061220836
 21
121.60020154137671
 31
0.0
  0
LINE
  5
F81
  8
1
 10
125.7555061220836
 20
97.168845484058892
 30
0.0
 11
125.7555061220836
 21
130.1458454840589
 31
0.0
  0
CIRCLE
  5
F82
  8
0
 10
125.7555061220836
 20
116.1458454840589
 30
0.0
 40
8.5
  0
CIRCLE
  5
F83
  8
0
 10
125.7555061220836
 20
116.1458454840589
 30
0.0
 40
6.0
  0
ARC
  5
F84
  8
0
 10
146.17306707331861
 20
108.64584548405909
 30
0.0
 40
9.9999999999999822
 50
90.0
 51
158.18939270857859
  0
LINE
  5
F85
  8
2
 10
122.65550612208359
 20
102.16884548405891
 30
0.0
 11
122.65550612208359
 21
105.16884548405891
 31
0.0
  0
LINE
  5
F86
  8
2
 10
128.8555061220836
 20
102.16884548405891
 30
0.0
 11
128.8555061220836
 21
105.16884548405891
 31
0.0
  0
LINE
  5
F87
  8
0
 10
117.7555061220837
 20
105.16884548405891
 30
0.0
 11
117.7555061220837
 21
102.16884548405891
 31
0.0
  0
LINE
  5
F88
  8
0
 10
133.7555061220836
 20
102.16884548405891
 30
0.0
 11
133.7555061220836
 21
105.16884548405891
 31
0.0
  0
LINE
  5
F89
  8
0
 10
117.7555061220837
 20
102.16884548405891
 30
0.0
 11
133.7555061220836
 21
102.16884548405891
 31
0.0
  0
LINE
  5
F8A
  8
1
 10
134.2555061220836
 20
116.1458454840589
 30
0.0
 11
117.2555061220836
 21
116.1458454840589
 31
0.0
  0
LINE
  5
F8B
  8
0
 10
117.7555061220837
 20
105.16884548405891
 30
0.0
 11
133.7555061220836
 21
105.16884548405891
 31
0.0
  0
LINE
  5
F8C
  8
0
 10
125.7555061220835
 20
125.1458454840589
 30
0.0
 11
150.75550612208369
 21
125.1458454840589
 31
0.0
  0
LINE
  5
F8D
  8
0
 10
188.7555061220836
 20
118.10455763658101
 30
0.0
 11
188.7555061220836
 21
122.268126807328
 31
0.0
  0
ARC
  5
F8E
  8
0
 10
171.31816315825159
 20
101.6458454840631
 30
0.0
 40
16.999999999995811
 50
70.203692837018124
 51
90.000000000002046
  0
ARC
  5
F8F
  8
0
 10
183.7554671565097
 20
120.395982170937
 30
0.0
 40
5.5000923677613258
 50
236.4438155898219
 51
335.37889731960388
  0
ARC
  5
F90
  8
0
 10
171.31816315826001
 20
101.645845484075
 30
0.0
 40
16.999999999981711
 50
56.442690238075031
 51
70.203692837031596
  0
ARC
  5
F91
  8
0
 10
150.75550612208659
 20
281.6572091203974
 30
0.0
 40
156.5113636363383
 50
272.56341955505587
 51
279.68130778359841
  0
ARC
  5
F92
  8
0
 10
180.75374800955149
 20
119.3927864962339
 30
0.0
 40
8.5026886804163624
 50
19.765320068886599
 51
100.45955486038849
  0
POLYLINE
  5
F93
  8
0
 66
     1
 10
0.0
 20
0.0
 30
0.0
 70
   128
  0
VERTEX
  5
110D
  8
0
 10
177.07567687982109
 20
127.3748201105372
 30
0.0
  0
VERTEX
  5
110E
  8
0
 10
178.12985141941579
 20
127.55837016679349
 30
0.0
  0
VERTEX
  5
110F
  8
0
 10
179.2101580055627
 20
127.7541885733778
 30
0.0
  0
SEQEND
  5
1110
  8
0
  0
LINE
  5
F94
  8
0
 10
150.75550612208369
 20
195.4423313512028
 30
0.0
 11
157.75550612208369
 21
195.4423313512028
 31
0.0
  0
LINE
  5
F95
  8
0
 10
150.75550612208369
 20
181.4423313512028
 30
0.0
 11
157.75550612208369
 21
181.4423313512028
 31
0.0
  0
LINE
  5
F96
  8
1
 10
125.7555061220839
 20
198.9423313512028
 30
0.0
 11
125.7555061220839
 21
177.9423313512028
 31
0.0
  0
LINE
  5
F98
  8
0
 10
125.7555061220835
 20
181.4423313512028
 30
0.0
 11
150.75550612208369
 21
181.4423313512028
 31
0.0
  0
CIRCLE
  5
F99
  8
3
 10
125.7555061220839
 20
188.4423313512028
 30
0.0
 40
3.0
  0
LINE
  5
F9A
  8
0
 10
125.7555061220835
 20
191.6923313512028
 30
0.0
 11
135.7555061220836
 21
191.6923313512028
 31
0.0
  0
LINE
  5
F9B
  8
0
 10
135.7555061220836
 20
185.1923313512028
 30
0.0
 11
125.7555061220835
 21
185.1923313512028
 31
0.0
  0
CIRCLE
  5
F9C
  8
0
 10
125.7555061221077
 20
188.44233135120109
 30
0.0
 40
2.4999999999983511
  0
LINE
  5
F9D
  8
0
 10
131.7555061220836
 20
180.4423313512028
 30
0.0
 11
119.7555061220837
 21
180.4423313512028
 31
0.0
  0
LINE
  5
F9F
  8
0
 10
119.7555061220837
 20
181.4423313512028
 30
0.0
 11
119.7555061220837
 21
180.4423313512028
 31
0.0
  0
ARC
  5
FA0
  8
0
 10
125.7555061220836
 20
188.4423313512028
 30
0.0
 40
7.9999999999999929
 50
155.9439961754216
 51
204.09827580527281
  0
LINE
  5
FA1
  8
0
 10
119.7555061220837
 20
191.6923313512028
 30
0.0
 11
119.7555061220837
 21
185.1923313512028
 31
0.0
  0
LINE
  5
FA2
  8
0
 10
131.7555061220836
 20
180.4423313512028
 30
0.0
 11
131.7555061220836
 21
181.4423313512028
 31
0.0
  0
LINE
  5
FA3
  8
0
 10
135.7555061220836
 20
191.6923313512028
 30
0.0
 11
135.7555061220836
 21
185.1923313512028
 31
0.0
  0
ARC
  5
FA4
  8
0
 10
125.7555061220836
 20
188.4423313512028
 30
0.0
 40
8.0000000000000142
 50
336.03051768224037
 51
23.969482317759269
  0
LINE
  5
FA5
  8
0
 10
131.7555061220836
 20
185.1923313512028
 30
0.0
 11
131.7555061220836
 21
191.6923313512028
 31
0.0
  0
LINE
  5
FA6
  8
0
 10
125.7555061220835
 20
195.4423313512028
 30
0.0
 11
150.75550612208369
 21
195.4423313512028
 31
0.0
  0
LINE
  5
FA7
  8
0
 10
127.7555061220836
 20
197.9423313512028
 30
0.0
 11
123.7555061220836
 21
197.9423313512028
 31
0.0
  0
LINE
  5
FA8
  8
0
 10
131.7555061220836
 20
196.4423313512028
 30
0.0
 11
119.7555061220837
 21
196.4423313512028
 31
0.0
  0
LINE
  5
FA9
  8
0
 10
119.7555061220837
 20
196.4423313512028
 30
0.0
 11
119.7555061220837
 21
195.4423313512028
 31
0.0
  0
LINE
  5
FAA
  8
0
 10
123.7555061220836
 20
197.9423313512028
 30
0.0
 11
123.7555061220836
 21
196.4423313512028
 31
0.0
  0
LINE
  5
FAB
  8
0
 10
127.7555061220836
 20
196.4423313512028
 30
0.0
 11
127.7555061220836
 21
197.9423313512028
 31
0.0
  0
LINE
  5
FAC
  8
0
 10
131.7555061220836
 20
195.4423313512028
 30
0.0
 11
131.7555061220836
 21
196.4423313512028
 31
0.0
  0
ARC
  5
FAD
  8
0
 10
179.25550612208389
 20
188.4423313512028
 30
0.0
 40
9.5000000000000213
 50
269.72649836284143
 51
90.273501637159441
  0
ARC
  5
FAE
  8
0
 10
157.75550612208411
 20
97.242331351207667
 30
0.0
 40
84.199999999995143
 50
76.734970769722466
 51
90.000000000000398
  0
POLYLINE
  5
FAF
  8
0
 66
     1
 10
0.0
 20
0.0
 30
0.0
 70
   128
  0
VERTEX
  5
1111
  8
0
 10
177.07567687982109
 20
179.19579986774491
 30
0.0
  0
VERTEX
  5
1112
  8
0
 10
178.12985141941579
 20
179.00925648187399
 30
0.0
  0
VERTEX
  5
1113
  8
0
 10
179.2101580055627
 20
178.9424395861179
 30
0.0
  0
SEQEND
  5
1114
  8
0
  0
ARC
  5
FB0
  8
0
 10
157.75550612208451
 20
279.64233135119571
 30
0.0
 40
84.199999999992826
 50
270.0
 51
283.26502923027829
  0
POLYLINE
  5
FB1
  8
0
 66
     1
 10
0.0
 20
0.0
 30
0.0
 70
   128
  0
VERTEX
  5
1115
  8
0
 10
177.07567687982109
 20
197.6888628346606
 30
0.0
  0
VERTEX
  5
1116
  8
0
 10
178.12985141941579
 20
197.87540622053149
 30
0.0
  0
VERTEX
  5
1117
  8
0
 10
179.2101580055627
 20
197.94222311628769
 30
0.0
  0
SEQEND
  5
1118
  8
0
  0
LINE
  5
FB2
  8
1
 10
245.51935698633309
 20
116.1458454840589
 30
0.0
 11
224.51935698633309
 21
116.1458454840589
 31
0.0
  0
POLYLINE
  5
FB3
  8
0
 66
     1
 10
0.0
 20
0.0
 30
0.0
 70
   128
  0
VERTEX
  5
1119
  8
0
 10
244.4065343557489
 20
115.8125121507256
 30
0.0
  0
VERTEX
  5
111A
  8
0
 10
244.34482161350871
 20
115.59707855811359
 30
0.0
  0
VERTEX
  5
111B
  8
0
 10
244.16595472666771
 20
115.2466992086882
 30
0.0
  0
VERTEX
  5
111C
  8
0
 10
244.0456022743941
 20
115.1150928943663
 30
0.0
  0
VERTEX
  5
111D
  8
0
 10
243.91054651609861
 20
115.0182400549607
 30
0.0
  0
VERTEX
  5
111E
  8
0
 10
243.57909688114111
 20
114.9089342852391
 30
0.0
  0
VERTEX
  5
111F
  8
0
 10
243.38292325252709
 20
114.8958483721444
 30
0.0
  0
VERTEX
  5
1120
  8
0
 10
243.16717049330489
 20
114.90933638548969
 30
0.0
  0
VERTEX
  5
1121
  8
0
 10
242.68112044110029
 20
115.01040503703111
 30
0.0
  0
VERTEX
  5
1122
  8
0
 10
242.41295871063809
 20
115.09462554049939
 30
0.0
  0
VERTEX
  5
1123
  8
0
 10
241.9815048667798
 20
115.25832058881529
 30
0.0
  0
VERTEX
  5
1124
  8
0
 10
241.02572293507779
 20
115.6980951705951
 30
0.0
  0
VERTEX
  5
1125
  8
0
 10
240.50714924147161
 20
115.9621735710024
 30
0.0
  0
VERTEX
  5
1126
  8
0
 10
239.7875422797714
 20
116.3417083412093
 30
0.0
  0
VERTEX
  5
1127
  8
0
 10
239.03121851379669
 20
116.7424931287682
 30
0.0
  0
VERTEX
  5
1128
  8
0
 10
238.22641273637771
 20
117.1530166489479
 30
0.0
  0
VERTEX
  5
1129
  8
0
 10
237.37809405539051
 20
117.54342313290709
 30
0.0
  0
VERTEX
  5
112A
  8
0
 10
236.97267393294669
 20
117.70537832134841
 30
0.0
  0
VERTEX
  5
112B
  8
0
 10
236.12102617261431
 20
117.96956635561151
 30
0.0
  0
VERTEX
  5
112C
  8
0
 10
235.67288812029241
 20
118.05606961931881
 30
0.0
  0
VERTEX
  5
112D
  8
0
 10
235.34824525370229
 20
118.0921712671621
 30
0.0
  0
VERTEX
  5
112E
  8
0
 10
235.01935698633289
 20
118.10455763658101
 30
0.0
  0
VERTEX
  5
112F
  8
0
 10
234.5487296173836
 20
118.0792727359144
 30
0.0
  0
VERTEX
  5
1130
  8
0
 10
233.60277024858459
 20
117.8857012870188
 30
0.0
  0
VERTEX
  5
1131
  8
0
 10
233.13684751053569
 20
117.7315689830035
 30
0.0
  0
VERTEX
  5
1132
  8
0
 10
232.41456024466379
 20
117.4364121072408
 30
0.0
  0
VERTEX
  5
1133
  8
0
 10
231.71605915370259
 20
117.1054682373135
 30
0.0
  0
VERTEX
  5
1134
  8
0
 10
231.03135882567619
 20
116.7549972681188
 30
0.0
  0
VERTEX
  5
1135
  8
0
 10
230.36737613358511
 20
116.4035452619127
 30
0.0
  0
VERTEX
  5
1136
  8
0
 10
229.68888321165821
 20
116.04426397771201
 30
0.0
  0
VERTEX
  5
1137
  8
0
 10
229.03478010784571
 20
115.70893463306651
 30
0.0
  0
VERTEX
  5
1138
  8
0
 10
228.3981513793594
 20
115.4056029806958
 30
0.0
  0
VERTEX
  5
1139
  8
0
 10
227.79650193251001
 20
115.1558076753421
 30
0.0
  0
VERTEX
  5
113A
  8
0
 10
227.4885497969222
 20
115.0495348277752
 30
0.0
  0
VERTEX
  5
113B
  8
0
 10
226.91872181186011
 20
114.91535410419159
 30
0.0
  0
VERTEX
  5
113C
  8
0
 10
226.66152188949289
 20
114.8958695154551
 30
0.0
  0
VERTEX
  5
113D
  8
0
 10
226.4353491242762
 20
114.91268121621481
 30
0.0
  0
VERTEX
  5
113E
  8
0
 10
226.0513553701509
 20
115.0680553840515
 30
0.0
  0
VERTEX
  5
113F
  8
0
 10
225.89770065442741
 20
115.2147794506934
 30
0.0
  0
VERTEX
  5
1140
  8
0
 10
225.81451825569999
 20
115.3336250064922
 30
0.0
  0
VERTEX
  5
1141
  8
0
 10
225.68202399571069
 20
115.6324233268278
 30
0.0
  0
VERTEX
  5
1142
  8
0
 10
225.63217961691689
 20
115.8125121507256
 30
0.0
  0
SEQEND
  5
1143
  8
0
  0
POLYLINE
  5
FB4
  8
0
 66
     1
 10
0.0
 20
0.0
 30
0.0
 70
   128
  0
VERTEX
  5
1144
  8
0
 10
225.5219142559462
 20
127.75948583644011
 30
0.0
  0
VERTEX
  5
1145
  8
0
 10
225.57995497517939
 20
127.8850279360814
 30
0.0
  0
VERTEX
  5
1146
  8
0
 10
225.6616222476047
 20
127.8947263812461
 30
0.0
  0
VERTEX
  5
1147
  8
0
 10
225.77928560366729
 20
127.8663871862436
 30
0.0
  0
VERTEX
  5
1148
  8
0
 10
226.10101015230211
 20
127.7088574073487
 30
0.0
  0
VERTEX
  5
1149
  8
0
 10
226.54411361339641
 20
127.4242572675205
 30
0.0
  0
VERTEX
  5
114A
  8
0
 10
226.8817837737146
 20
127.1853377038219
 30
0.0
  0
VERTEX
  5
114B
  8
0
 10
227.25838002468871
 20
126.9071143438475
 30
0.0
  0
VERTEX
  5
114C
  8
0
 10
227.67609014808909
 20
126.5899397099373
 30
0.0
  0
VERTEX
  5
114D
  8
0
 10
228.1259424521177
 20
126.24272887609619
 30
0.0
  0
VERTEX
  5
114E
  8
0
 10
228.43656717288221
 20
126.0012895006147
 30
0.0
  0
VERTEX
  5
114F
  8
0
 10
229.4357820643971
 20
125.2254365765928
 30
0.0
  0
VERTEX
  5
1150
  8
0
 10
230.1649520474073
 20
124.66969295322519
 30
0.0
  0
VERTEX
  5
1151
  8
0
 10
230.93570300972121
 20
124.1031563893516
 30
0.0
  0
VERTEX
  5
1152
  8
0
 10
231.80499467221659
 20
123.50694807147271
 30
0.0
  0
VERTEX
  5
1153
  8
0
 10
232.73671983162319
 20
122.9490838055582
 30
0.0
  0
VERTEX
  5
1154
  8
0
 10
233.23798134577589
 20
122.70005013909091
 30
0.0
  0
VERTEX
  5
1155
  8
0
 10
234.135760522276
 20
122.3803387035081
 30
0.0
  0
VERTEX
  5
1156
  8
0
 10
235.01935698633289
 20
122.268126807328
 30
0.0
  0
VERTEX
  5
1157
  8
0
 10
235.73714810574489
 20
122.34266690395
 30
0.0
  0
VERTEX
  5
1158
  8
0
 10
236.4474163463652
 20
122.5526651566226
 30
0.0
  0
VERTEX
  5
1159
  8
0
 10
236.9841037852745
 20
122.7861344350501
 30
0.0
  0
VERTEX
  5
115A
  8
0
 10
237.5044517613774
 20
123.0609932795073
 30
0.0
  0
VERTEX
  5
115B
  8
0
 10
238.00675330927331
 20
123.36179130806551
 30
0.0
  0
VERTEX
  5
115C
  8
0
 10
238.4958751418508
 20
123.6806173789618
 30
0.0
  0
VERTEX
  5
115D
  8
0
 10
238.9232971944532
 20
123.97548668257799
 30
0.0
  0
VERTEX
  5
115E
  8
0
 10
239.95195430031299
 20
124.728552173811
 30
0.0
  0
VERTEX
  5
115F
  8
0
 10
240.542228992475
 20
125.17867714175
 30
0.0
  0
VERTEX
  5
1160
  8
0
 10
240.92810252340621
 20
125.47695324353511
 30
0.0
  0
VERTEX
  5
1161
  8
0
 10
241.66659224962669
 20
126.0514396954395
 30
0.0
  0
VERTEX
  5
1162
  8
0
 10
242.11517428758549
 20
126.3994452174467
 30
0.0
  0
VERTEX
  5
1163
  8
0
 10
242.53997174212131
 20
126.7254200926433
 30
0.0
  0
VERTEX
  5
1164
  8
0
 10
242.94193750060671
 20
127.02765199544289
 30
0.0
  0
VERTEX
  5
1165
  8
0
 10
243.31151898230499
 20
127.2962985689333
 30
0.0
  0
VERTEX
  5
1166
  8
0
 10
243.57374325053831
 20
127.47812115861321
 30
0.0
  0
VERTEX
  5
1167
  8
0
 10
243.8113713036536
 20
127.63268651260771
 30
0.0
  0
VERTEX
  5
1168
  8
0
 10
244.019565824252
 20
127.755034962926
 30
0.0
  0
VERTEX
  5
1169
  8
0
 10
244.19627836562859
 20
127.84186324939429
 30
0.0
  0
VERTEX
  5
116A
  8
0
 10
244.3365526119392
 20
127.88844207088751
 30
0.0
  0
VERTEX
  5
116B
  8
0
 10
244.4391882222823
 20
127.89160610718601
 30
0.0
  0
VERTEX
  5
116C
  8
0
 10
244.5004993667749
 20
127.847880821665
 30
0.0
  0
VERTEX
  5
116D
  8
0
 10
244.51792893791651
 20
127.7607837921873
 30
0.0
  0
SEQEND
  5
116E
  8
0
  0
POLYLINE
  5
FB5
  8
0
 66
     1
 10
0.0
 20
0.0
 30
0.0
 70
   128
  0
VERTEX
  5
116F
  8
0
 10
232.51935698633309
 20
110.1458454840589
 30
0.0
  0
VERTEX
  5
1170
  8
0
 10
232.5507037399617
 20
110.1588388153788
 30
0.0
  0
VERTEX
  5
1171
  8
0
 10
232.64722811055969
 20
110.1979891136278
 30
0.0
  0
VERTEX
  5
1172
  8
0
 10
232.79955475721829
 20
110.2570831407151
 30
0.0
  0
VERTEX
  5
1173
  8
0
 10
233.010950135299
 20
110.33347091945269
 30
0.0
  0
VERTEX
  5
1174
  8
0
 10
233.27773808797991
 20
110.4201807726824
 30
0.0
  0
VERTEX
  5
1175
  8
0
 10
233.59896564523399
 20
110.50957796362751
 30
0.0
  0
VERTEX
  5
1176
  8
0
 10
233.9686141636399
 20
110.5912023380556
 30
0.0
  0
VERTEX
  5
1177
  8
0
 10
234.3852082576397
 20
110.6547486346031
 30
0.0
  0
VERTEX
  5
1178
  8
0
 10
234.7896645461077
 20
110.6866551945474
 30
0.0
  0
VERTEX
  5
1179
  8
0
 10
235.21557338803839
 20
110.68796119833991
 30
0.0
  0
VERTEX
  5
117A
  8
0
 10
235.59150880563661
 20
110.6615626955502
 30
0.0
  0
VERTEX
  5
117B
  8
0
 10
235.96187989084601
 20
110.6106535790269
 30
0.0
  0
VERTEX
  5
117C
  8
0
 10
236.30550179681151
 20
110.5419032579541
 30
0.0
  0
VERTEX
  5
117D
  8
0
 10
236.624402030471
 20
110.46023473465721
 30
0.0
  0
VERTEX
  5
117E
  8
0
 10
236.9181408633134
 20
110.3704337921117
 30
0.0
  0
VERTEX
  5
117F
  8
0
 10
237.16655349662679
 20
110.28406650035291
 30
0.0
  0
VERTEX
  5
1180
  8
0
 10
237.35259668172631
 20
110.2133917357218
 30
0.0
  0
VERTEX
  5
1181
  8
0
 10
237.47438948607601
 20
110.16444225615371
 30
0.0
  0
VERTEX
  5
1182
  8
0
 10
237.51835384502911
 20
110.1462633902983
 30
0.0
  0
VERTEX
  5
1183
  8
0
 10
237.51444706550231
 20
110.14788448127121
 30
0.0
  0
SEQEND
  5
1184
  8
0
  0
LINE
  5
FB6
  8
0
 10
227.01935698633309
 20
105.16884548405891
 30
0.0
 11
243.01935698633309
 21
105.16884548405891
 31
0.0
  0
LINE
  5
FB7
  8
0
 10
227.01935698633309
 20
102.16884548405891
 30
0.0
 11
243.01935698633309
 21
102.16884548405891
 31
0.0
  0
LINE
  5
FB8
  8
0
 10
226.65329400763451
 20
114.8958454840589
 30
0.0
 11
243.3857929576937
 21
114.8958454840589
 31
0.0
  0
LINE
  5
FB9
  8
0
 10
244.39497953577629
 20
127.8958454840589
 30
0.0
 11
225.6417516212048
 21
127.8958454840589
 31
0.0
  0
LINE
  5
FBA
  8
1
 10
235.01935698633309
 20
97.168845484058892
 30
0.0
 11
235.01935698633309
 21
132.8958454840589
 31
0.0
  0
LINE
  5
FBB
  8
0
 10
225.51935698633301
 20
127.75948583644011
 30
0.0
 11
225.51935698633301
 21
116.6770368429658
 31
0.0
  0
LINE
  5
FBC
  8
0
 10
227.01935698633309
 20
105.16884548405891
 30
0.0
 11
227.01935698633309
 21
102.16884548405891
 31
0.0
  0
LINE
  5
FBD
  8
0
 10
227.01935698633309
 20
110.1458454840589
 30
0.0
 11
228.01935698633309
 21
110.1458454840589
 31
0.0
  0
LINE
  5
FBE
  8
0
 10
227.01935698633309
 20
110.1458454840589
 30
0.0
 11
227.01935698633309
 21
114.8958454840589
 31
0.0
  0
ARC
  5
FBF
  8
0
 10
227.73887614813839
 20
116.5205277213319
 30
0.0
 40
2.222488767774518
 50
175.96185122268281
 51
198.57639378989609
  0
LINE
  5
FC0
  8
0
 10
228.01935698633309
 20
114.8958454840589
 30
0.0
 11
228.01935698633309
 21
105.1825570013511
 31
0.0
  0
LINE
  5
FC1
  8
0
 10
231.76935698633309
 20
105.1825570013511
 30
0.0
 11
231.76935698633301
 21
114.8958454840589
 31
0.0
  0
LINE
  5
FC2
  8
0
 10
231.76935698633309
 20
110.1458454840589
 30
0.0
 11
232.51935698633309
 21
110.1458454840589
 31
0.0
  0
LINE
  5
FC3
  8
0
 10
231.76935698633309
 20
112.3612427017773
 30
0.0
 11
228.01935698633309
 21
112.3612427017773
 31
0.0
  0
LINE
  5
FC4
  8
0
 10
244.51935698633309
 20
116.6770368429659
 30
0.0
 11
244.51935698633289
 21
127.7607837921873
 31
0.0
  0
LINE
  5
FC5
  8
0
 10
243.01935698633309
 20
102.16884548405891
 30
0.0
 11
243.01935698633309
 21
105.16884548405891
 31
0.0
  0
LINE
  5
FC6
  8
0
 10
242.01935698633309
 20
114.8958454840589
 30
0.0
 11
242.01935698633309
 21
105.1825570013511
 31
0.0
  0
LINE
  5
FC7
  8
0
 10
238.26935698633301
 20
114.8958454840589
 30
0.0
 11
238.26935698633309
 21
105.1825570013511
 31
0.0
  0
LINE
  5
FC8
  8
0
 10
243.01935698633309
 20
110.1458454840589
 30
0.0
 11
243.01935698633309
 21
114.8958454840589
 31
0.0
  0
LINE
  5
FC9
  8
0
 10
242.01935698633309
 20
110.1458454840589
 30
0.0
 11
243.01935698633309
 21
110.1458454840589
 31
0.0
  0
LINE
  5
FCA
  8
0
 10
237.51444706550231
 20
110.1458454840589
 30
0.0
 11
238.26935698633309
 21
110.1458454840589
 31
0.0
  0
LINE
  5
FCB
  8
0
 10
242.01935698633309
 20
112.3612427017773
 30
0.0
 11
238.26935698633309
 21
112.3612427017773
 31
0.0
  0
ARC
  5
FCC
  8
0
 10
242.29983782495461
 20
116.5205277212811
 30
0.0
 40
2.222488767352917
 50
341.42360620787872
 51
4.038148779721455
  0
LINE
  5
FCD
  8
0
 10
244.51935698633309
 20
116.1458454840589
 30
0.0
 11
244.51935698633309
 21
116.6770368429659
 31
0.0
  0
LINE
  5
FCE
  8
0
 10
244.51935698633309
 20
114.1458454840589
 30
0.0
 11
244.51935698633309
 21
116.1458454840589
 31
0.0
  0
LINE
  5
FCF
  8
0
 10
243.01935698633309
 20
114.1458454840589
 30
0.0
 11
244.51935698633309
 21
114.1458454840589
 31
0.0
  0
TEXT
  5
1099
  8
0
 62
     3
 10
0.0
 20
0.0
 30
0.0
 40
10.0
  1
QLCA-06
  7
STANDARD1
  0
ENDSEC
  0
EOF
