  0
SECTION
  2
HEADER
  9
$ACADVER
  1
AC1009
  9
$INSBASE
 10
0.0
 20
0.0
 30
0.0
  9
$EXTMIN
 10
0.0
 20
-2.960436562073669
 30
0.0
  9
$EXTMAX
 10
162.968467180121
 20
144.77719765179961
 30
0.0
  9
$LIMMIN
 10
0.0
 20
0.0
  9
$LIMMAX
 10
770.0
 20
540.0
  9
$ORTHOMODE
 70
     1
  9
$REGENMODE
 70
     1
  9
$FILLMODE
 70
     1
  9
$QTEXTMODE
 70
     0
  9
$MIRRTEXT
 70
     0
  9
$DRAGMODE
 70
     2
  9
$LTSCALE
 40
5.0
  9
$OSMODE
 70
    37
  9
$ATTMODE
 70
     1
  9
$TEXTSIZE
 40
4.000000000000048
  9
$TRACEWID
 40
0.05
  9
$TEXTSTYLE
  7
STANDARD
  9
$CLAYER
  8
0
  9
$CELTYPE
  6
BYLAYER
  9
$CECOLOR
 62
   256
  9
$DIMSCALE
 40
2.0
  9
$DIMASZ
 40
3.0
  9
$DIMEXO
 40
2.0
  9
$DIMDLI
 40
0.38
  9
$DIMRND
 40
0.0
  9
$DIMDLE
 40
0.0
  9
$DIMEXE
 40
2.0
  9
$DIMTP
 40
0.0
  9
$DIMTM
 40
0.0
  9
$DIMTXT
 40
3.0
  9
$DIMCEN
 40
0.0
  9
$DIMTSZ
 40
0.0
  9
$DIMTOL
 70
     0
  9
$DIMLIM
 70
     0
  9
$DIMTIH
 70
     0
  9
$DIMTOH
 70
     0
  9
$DIMSE1
 70
     0
  9
$DIMSE2
 70
     0
  9
$DIMTAD
 70
     1
  9
$DIMZIN
 70
     0
  9
$DIMBLK
  1

  9
$DIMASO
 70
     0
  9
$DIMSHO
 70
     0
  9
$DIMPOST
  1

  9
$DIMAPOST
  1

  9
$DIMALT
 70
     0
  9
$DIMALTD
 70
     2
  9
$DIMALTF
 40
25.399999999999999
  9
$DIMLFAC
 40
1.0
  9
$DIMTOFL
 70
     0
  9
$DIMTVP
 40
1.6000000000000001
  9
$DIMTIX
 70
     1
  9
$DIMSOXD
 70
     0
  9
$DIMSAH
 70
     0
  9
$DIMBLK1
  1

  9
$DIMBLK2
  1

  9
$DIMSTYLE
  2
STANDARD
  9
$DIMCLRD
 70
     4
  9
$DIMCLRE
 70
     4
  9
$DIMCLRT
 70
     4
  9
$DIMTFAC
 40
1.0
  9
$DIMGAP
 40
0.09
  9
$LUNITS
 70
     2
  9
$LUPREC
 70
     1
  9
$SKETCHINC
 40
0.1
  9
$FILLETRAD
 40
0.0
  9
$AUNITS
 70
     0
  9
$AUPREC
 70
     0
  9
$MENU
  1
E:\r13\win\SUPPORT\ACAD
  9
$ELEVATION
 40
0.0
  9
$PELEVATION
 40
0.0
  9
$THICKNESS
 40
0.0
  9
$LIMCHECK
 70
     0
  9
$BLIPMODE
 70
     0
  9
$CHAMFERA
 40
1.1999999999999991
  9
$CHAMFERB
 40
1.1999999999999991
  9
$SKPOLY
 70
     0
  9
$TDCREATE
 40
2450158.583426042
  9
$TDUPDATE
 40
2457162.4635859951
  9
$TDINDWG
 40
0.2390325463
  9
$TDUSRTIMER
 40
0.2390325463
  9
$USRTIMER
 70
     1
  9
$ANGBASE
 50
0.0
  9
$ANGDIR
 70
     0
  9
$PDMODE
 70
     0
  9
$PDSIZE
 40
0.0
  9
$PLINEWID
 40
0.0
  9
$COORDS
 70
     1
  9
$SPLFRAME
 70
     0
  9
$SPLINETYPE
 70
     6
  9
$SPLINESEGS
 70
     8
  9
$ATTDIA
 70
     0
  9
$ATTREQ
 70
     1
  9
$HANDLING
 70
     1
  9
$HANDSEED
  5
21DE
  9
$SURFTAB1
 70
     6
  9
$SURFTAB2
 70
     6
  9
$SURFTYPE
 70
     6
  9
$SURFU
 70
     6
  9
$SURFV
 70
     6
  9
$UCSNAME
  2

  9
$UCSORG
 10
0.0
 20
0.0
 30
0.0
  9
$UCSXDIR
 10
1.0
 20
0.0
 30
0.0
  9
$UCSYDIR
 10
0.0
 20
1.0
 30
0.0
  9
$PUCSNAME
  2

  9
$PUCSORG
 10
0.0
 20
0.0
 30
0.0
  9
$PUCSXDIR
 10
1.0
 20
0.0
 30
0.0
  9
$PUCSYDIR
 10
0.0
 20
1.0
 30
0.0
  9
$USERI1
 70
     3
  9
$USERI2
 70
     1
  9
$USERI3
 70
     0
  9
$USERI4
 70
     0
  9
$USERI5
 70
     0
  9
$USERR1
 40
2.0
  9
$USERR2
 40
3.0
  9
$USERR3
 40
3.0
  9
$USERR4
 40
3.0
  9
$USERR5
 40
10.0
  9
$WORLDVIEW
 70
     1
  9
$SHADEDGE
 70
     3
  9
$SHADEDIF
 70
    70
  9
$TILEMODE
 70
     1
  9
$MAXACTVP
 70
    16
  9
$PLIMCHECK
 70
     0
  9
$PEXTMIN
 10
1.0000000000000000E+020
 20
1.0000000000000000E+020
 30
1.0000000000000000E+020
  9
$PEXTMAX
 10
-1.0000000000000000E+020
 20
-1.0000000000000000E+020
 30
-1.0000000000000000E+020
  9
$PLIMMIN
 10
0.0
 20
0.0
  9
$PLIMMAX
 10
12.0
 20
9.0
  9
$UNITMODE
 70
     0
  9
$VISRETAIN
 70
     0
  9
$PLINEGEN
 70
     0
  9
$PSLTSCALE
 70
     0
  0
ENDSEC
  0
SECTION
  2
TABLES
  0
TABLE
  2
VPORT
 70
     1
  0
VPORT
  2
*ACTIVE
 70
     0
 10
0.0
 20
0.0
 11
1.0
 21
1.0
 12
82.398703998218338
 22
70.896604082764497
 13
0.0
 23
0.0
 14
10.0
 24
10.0
 15
10.0
 25
10.0
 16
0.0
 26
0.0
 36
1.0
 17
0.0
 27
0.0
 37
0.0
 40
149.01073089442971
 41
1.368715083798882
 42
50.0
 43
0.0
 44
0.0
 50
0.0
 51
0.0
 71
     0
 72
   500
 73
     1
 74
     0
 75
     0
 76
     0
 77
     0
 78
     2
  0
ENDTAB
  0
TABLE
  2
LTYPE
 70
     4
  0
LTYPE
  2
CONTINUOUS
 70
     0
  3
Solid Line
 72
    65
 73
     0
 40
0.0
  0
LTYPE
  2
CENTER
 70
     0
  3
____ _ ____ _ ____ _ ____ _ ____ _ ____ _ ____
 72
    65
 73
     4
 40
2.0
 49
1.25
 49
-0.25
 49
0.25
 49
-0.25
  0
LTYPE
  2
HIDDEN
 70
     0
  3
_ _ _ _ _ _ _ _ _ _ _ _ _ _ _ _ _ _ _ _ _ _ _
 72
    65
 73
     2
 40
0.375
 49
0.25
 49
-0.125
  0
LTYPE
  2
PHANTOM2
 70
     0
  3
___ _ _ ___ _ _ ___ _ _ ___ _ _
 72
    65
 73
     6
 40
1.25
 49
0.625
 49
-0.125
 49
0.125
 49
-0.125
 49
0.125
 49
-0.125
  0
ENDTAB
  0
TABLE
  2
LAYER
 70
     4
  0
LAYER
  2
0
 70
     0
 62
     7
  6
CONTINUOUS
  0
LAYER
  2
1
 70
     0
 62
     1
  6
CENTER
  0
LAYER
  2
2
 70
     0
 62
     2
  6
HIDDEN
  0
LAYER
  2
3
 70
     0
 62
     3
  6
CONTINUOUS
  0
ENDTAB
  0
TABLE
  2
STYLE
 70
     2
  0
STYLE
  2
STANDARD
 70
     0
 40
0.0
 41
1.0
 50
0.0
 71
     0
 42
4.000000000000048
  3
SIMPLEX
  4
BIGFONT
  0
STYLE
  2
STANDARD1
 70
     0
 40
0.0
 41
1.0
 50
0.0
 71
     0
 42
3.0
  3
txt
  4

  0
ENDTAB
  0
TABLE
  2
VIEW
 70
     1
  0
VIEW
  2
ALL
 70
     0
 40
179.5384664489153
 10
146.94997169852391
 20
89.769233224457665
 41
0.0
 11
0.0
 21
0.0
 31
1.0
 12
0.0
 22
0.0
 32
0.0
 42
50.0
 43
0.0
 44
0.0
 50
0.0
 71
     0
  0
ENDTAB
  0
TABLE
  2
UCS
 70
     0
  0
ENDTAB
  0
TABLE
  2
APPID
 70
     4
  0
APPID
  2
ACAD
 70
     0
  0
APPID
  2
ACAD_MLEADERVER
 70
     0
  0
APPID
  2
ACAD_NAV_VCDISPLAY
 70
     0
  0
APPID
  2
ACAD_EXEMPT_FROM_CAD_STANDARDS
 70
     0
  0
ENDTAB
  0
TABLE
  2
DIMSTYLE
 70
     2
  0
DIMSTYLE
  2
STANDARD
 70
     0
  3

  4

  5

  6

  7

 40
1.0
 41
0.18
 42
0.0625
 43
0.38
 44
0.18
 45
0.0
 46
0.0
 47
0.0
 48
0.0
140
0.18
141
0.09
142
0.0
143
25.399999999999999
144
1.0
145
0.0
146
1.0
147
0.09
 71
     0
 72
     0
 73
     1
 74
     1
 75
     0
 76
     0
 77
     0
 78
     0
170
     0
171
     2
172
     0
173
     0
174
     0
175
     0
176
     0
177
     0
178
     0
  0
DIMSTYLE
  2
ISO-25
 70
     0
  3

  4

  5

  6

  7

 40
1.0
 41
2.5
 42
0.625
 43
3.75
 44
1.25
 45
0.0
 46
0.0
 47
0.0
 48
0.0
140
2.5
141
2.5
142
0.0
143
0.0393700787
144
1.0
145
0.0
146
1.0
147
0.625
 71
     0
 72
     0
 73
     0
 74
     0
 75
     0
 76
     0
 77
     1
 78
     8
170
     0
171
     3
172
     1
173
     0
174
     0
175
     0
176
     0
177
     0
178
     0
  0
ENDTAB
  0
ENDSEC
  0
SECTION
  2
BLOCKS
  0
BLOCK
  8
0
  2
$MODEL_SPACE
 70
     0
 10
0.0
 20
0.0
 30
0.0
  3
$MODEL_SPACE
  1

  0
ENDBLK
  5
644
  8
0
  0
BLOCK
 67
     1
  8
0
  2
$PAPER_SPACE
 70
     0
 10
0.0
 20
0.0
 30
0.0
  3
$PAPER_SPACE
  1

  0
ENDBLK
  5
642
 67
     1
  8
0
  0
ENDSEC
  0
SECTION
  2
ENTITIES
  0
LINE
  5
C23
  8
1
 10
78.967853151254261
 20
136.27719765179961
 30
0.0
 11
129.96908120898769
 21
136.27719765179961
 31
0.0
  0
LINE
  5
C24
  8
1
 10
78.967853151254246
 20
36.277197651799611
 30
0.0
 11
129.96908120898769
 21
36.277197651799611
 31
0.0
  0
LINE
  5
C25
  8
0
 10
93.030002016575992
 20
38.527197651799597
 30
0.0
 11
100.7366848260131
 21
38.527197651799582
 31
0.0
  0
LINE
  5
C26
  8
0
 10
100.7366848260131
 20
34.027197651799582
 30
0.0
 11
93.030002016575978
 21
34.027197651799582
 31
0.0
  0
LINE
  5
C27
  8
0
 10
107.4678531512541
 20
41.277197651799547
 30
0.0
 11
90.738751232369708
 21
41.277197651799611
 31
0.0
  0
LINE
  5
C28
  8
0
 10
107.4678531512544
 20
31.277197651799529
 30
0.0
 11
90.767229768230905
 21
31.277197651799611
 31
0.0
  0
LINE
  5
C29
  8
0
 10
80.795807287684767
 20
141.2771976517995
 30
0.0
 11
107.4678531512542
 21
141.2771976517995
 31
0.0
  0
LINE
  5
C2A
  8
0
 10
80.795807287684767
 20
131.2771976517995
 30
0.0
 11
107.4678531512542
 21
131.2771976517995
 31
0.0
  0
LINE
  5
C2B
  8
0
 10
87.467853151254204
 20
100.4361976517996
 30
0.0
 11
102.4678531512542
 21
100.4361976517996
 31
0.0
  0
ARC
  5
C2C
  8
0
 10
100.7366848260131
 20
90.436197651799588
 30
0.0
 40
6.000000000000016
 50
90.0
 51
161.50517029167889
  0
LINE
  5
C2D
  8
1
 10
54.468467180121003
 20
67.618197651799605
 30
0.0
 11
54.468467180121003
 21
104.9361976517996
 31
0.0
  0
LINE
  5
C2E
  8
1
 10
87.467853151254275
 20
67.618197651799605
 30
0.0
 11
87.467853151254246
 21
102.9361976517996
 31
0.0
  0
LINE
  5
C2F
  8
0
 10
59.46846718012101
 20
100.4321969943062
 30
0.0
 11
59.46846718012101
 21
87.118197651799576
 31
0.0
  0
LINE
  5
C30
  8
0
 10
56.71846718012101
 20
100.4321969943062
 30
0.0
 11
56.71846718012101
 21
87.118197651799576
 31
0.0
  0
LINE
  5
C31
  8
0
 10
49.468467180121017
 20
100.4321969943062
 30
0.0
 11
49.468467180121017
 21
87.118197651799576
 31
0.0
  0
LINE
  5
C32
  8
0
 10
52.218467180121017
 20
100.4321969943062
 30
0.0
 11
52.21846718012101
 21
87.118197651799576
 31
0.0
  0
POLYLINE
  5
C33
  8
0
 66
     1
 10
0.0
 20
0.0
 30
0.0
 70
   128
  0
VERTEX
  5
2060
  8
0
 10
95.046571119150116
 20
92.339512130011087
 30
0.0
  0
VERTEX
  5
2061
  8
0
 10
94.664757162868256
 20
91.403719161159188
 30
0.0
  0
VERTEX
  5
2062
  8
0
 10
94.168365139537087
 20
90.531456486670308
 30
0.0
  0
VERTEX
  5
2063
  8
0
 10
93.568136328445291
 20
89.735677582768432
 30
0.0
  0
VERTEX
  5
2064
  8
0
 10
92.875452260378438
 20
89.028598542675525
 30
0.0
  0
VERTEX
  5
2065
  8
0
 10
91.924042551962629
 20
88.302964385582399
 30
0.0
  0
VERTEX
  5
2066
  8
0
 10
90.879842936884899
 20
87.739844007044397
 30
0.0
  0
VERTEX
  5
2067
  8
0
 10
89.769968432364522
 20
87.351209008774518
 30
0.0
  0
VERTEX
  5
2068
  8
0
 10
88.622964412541961
 20
87.14363723253841
 30
0.0
  0
VERTEX
  5
2069
  8
0
 10
87.467853151254346
 20
87.118197651799576
 30
0.0
  0
VERTEX
  5
206A
  8
0
 10
86.333545703089996
 20
87.273769957872702
 30
0.0
  0
VERTEX
  5
206B
  8
0
 10
85.247276475786634
 20
87.601884453097554
 30
0.0
  0
VERTEX
  5
206C
  8
0
 10
84.235436366931339
 20
88.092092423173057
 30
0.0
  0
VERTEX
  5
206D
  8
0
 10
83.321685929585243
 20
88.729347306781719
 30
0.0
  0
VERTEX
  5
206E
  8
0
 10
82.526237410932112
 20
89.494581911477368
 30
0.0
  0
VERTEX
  5
206F
  8
0
 10
81.867731056108667
 20
90.367337645334629
 30
0.0
  0
VERTEX
  5
2070
  8
0
 10
81.358658730163896
 20
91.323378673056041
 30
0.0
  0
VERTEX
  5
2071
  8
0
 10
81.009594483201724
 20
92.337720933096065
 30
0.0
  0
VERTEX
  5
2072
  8
0
 10
80.826142497406494
 20
93.384169673480514
 30
0.0
  0
VERTEX
  5
2073
  8
0
 10
80.808853151254254
 20
94.436197651799546
 30
0.0
  0
VERTEX
  5
2074
  8
0
 10
80.9562752227408
 20
95.467421816995241
 30
0.0
  0
VERTEX
  5
2075
  8
0
 10
81.260269927524746
 20
96.453135764860505
 30
0.0
  0
VERTEX
  5
2076
  8
0
 10
81.710907146292556
 20
97.369443629235434
 30
0.0
  0
VERTEX
  5
2077
  8
0
 10
82.294113977307987
 20
98.195035479225197
 30
0.0
  0
VERTEX
  5
2078
  8
0
 10
82.992220779733955
 20
98.911830023319837
 30
0.0
  0
VERTEX
  5
2079
  8
0
 10
83.786322539032724
 20
99.5032085758736
 30
0.0
  0
VERTEX
  5
207A
  8
0
 10
84.654204979397804
 20
99.958232849225155
 30
0.0
  0
VERTEX
  5
207B
  8
0
 10
85.573014994957447
 20
100.26772634487961
 30
0.0
  0
VERTEX
  5
207C
  8
0
 10
86.518908455903812
 20
100.4270585402339
 30
0.0
  0
VERTEX
  5
207D
  8
0
 10
87.467853151254204
 20
100.4361976517996
 30
0.0
  0
SEQEND
  5
207E
  8
0
  0
LINE
  5
C34
  8
0
 10
60.46846718012101
 20
85.118197651799605
 30
0.0
 11
48.46846718012101
 21
85.118197651799605
 31
0.0
  0
LINE
  5
C35
  8
0
 10
60.46846718012101
 20
87.118197651799605
 30
0.0
 11
48.46846718012101
 21
87.118197651799605
 31
0.0
  0
LINE
  5
C36
  8
0
 10
48.46846718012101
 20
87.118197651799605
 30
0.0
 11
48.46846718012101
 21
85.118197651799605
 31
0.0
  0
LINE
  5
C39
  8
1
 10
87.467853151254232
 20
44.777197651799611
 30
0.0
 11
87.467853151254232
 21
27.777197651799639
 31
0.0
  0
LINE
  5
C3A
  8
0
 10
88.967853151254246
 20
43.277197651799632
 30
0.0
 11
88.967853151254246
 21
42.277197651799639
 31
0.0
  0
LINE
  5
C3B
  8
0
 10
85.967853151254232
 20
42.277197651799639
 30
0.0
 11
85.967853151254232
 21
43.277197651799632
 31
0.0
  0
LINE
  5
C3C
  8
0
 10
85.967853151254232
 20
43.277197651799632
 30
0.0
 11
88.967853151254246
 21
43.277197651799632
 31
0.0
  0
LINE
  5
C3D
  8
0
 10
60.46846718012101
 20
85.118197651799605
 30
0.0
 11
60.46846718012101
 21
87.118197651799605
 31
0.0
  0
CIRCLE
  5
C40
  8
0
 10
87.467853151254232
 20
36.277197651799611
 30
0.0
 40
5.9999999999999956
  0
LINE
  5
C42
  8
0
 10
83.467853151254246
 20
42.277197651799582
 30
0.0
 11
91.467853151254232
 21
42.277197651799582
 31
0.0
  0
LINE
  5
C43
  8
0
 10
83.467853151254246
 20
30.277197651799579
 30
0.0
 11
91.467853151254232
 21
30.277197651799579
 31
0.0
  0
LINE
  5
C44
  8
0
 10
84.192049310714012
 20
31.277197651799611
 30
0.0
 11
80.815677166238984
 21
31.277197651799579
 31
0.0
  0
LINE
  5
C45
  8
0
 10
81.914596051294296
 20
34.027197651799611
 30
0.0
 11
80.815677166238984
 21
34.027197651799582
 31
0.0
  0
LINE
  5
C46
  8
0
 10
80.795807287684738
 20
34.027197651799582
 30
0.0
 11
80.795807287684738
 21
31.277197651799579
 31
0.0
  0
LINE
  5
C47
  8
0
 10
83.467853151254246
 20
31.277197651799611
 30
0.0
 11
83.467853151254246
 21
30.277197651799579
 31
0.0
  0
LINE
  5
C48
  8
0
 10
80.815677166238984
 20
38.527197651799582
 30
0.0
 11
81.90610214004856
 21
38.527197651799597
 31
0.0
  0
LINE
  5
C49
  8
0
 10
84.184312174601445
 20
41.277197651799611
 30
0.0
 11
80.815677166238984
 21
41.277197651799582
 31
0.0
  0
LINE
  5
C4A
  8
0
 10
80.795807287684738
 20
41.277197651799582
 30
0.0
 11
80.795807287684738
 21
38.527197651799582
 31
0.0
  0
LINE
  5
C4B
  8
0
 10
83.467853151254246
 20
42.277197651799582
 30
0.0
 11
83.467853151254246
 21
41.277197651799611
 31
0.0
  0
LINE
  5
C4C
  8
0
 10
94.467853151254218
 20
38.527197651799582
 30
0.0
 11
94.467853151254218
 21
34.027197651799582
 31
0.0
  0
LINE
  5
C4D
  8
0
 10
91.467853151254232
 20
30.277197651799579
 30
0.0
 11
91.467853151254232
 21
31.277197651799611
 31
0.0
  0
LINE
  5
C4E
  8
0
 10
91.467853151254232
 20
41.277197651799611
 30
0.0
 11
91.467853151254232
 21
42.277197651799582
 31
0.0
  0
LINE
  5
C4F
  8
0
 10
93.467853151254246
 20
87.118197651799605
 30
0.0
 11
81.467853151254246
 21
87.118197651799605
 31
0.0
  0
LINE
  5
C50
  8
0
 10
93.467853151254246
 20
85.118197651799605
 30
0.0
 11
81.467853151254246
 21
85.118197651799605
 31
0.0
  0
LINE
  5
C51
  8
0
 10
81.467853151254246
 20
87.118197651799605
 30
0.0
 11
81.467853151254246
 21
85.118197651799605
 31
0.0
  0
LINE
  5
C54
  8
0
 10
93.467853151254246
 20
85.118197651799605
 30
0.0
 11
93.467853151254246
 21
87.118197651799605
 31
0.0
  0
LINE
  5
C55
  8
1
 10
62.968467180120989
 20
94.436197651799603
 30
0.0
 11
45.96846718012101
 21
94.436197651799603
 31
0.0
  0
LINE
  5
C56
  8
0
 10
61.384102547028128
 20
102.4361976517996
 30
0.0
 11
47.552448621252488
 21
102.4361976517996
 31
0.0
  0
LINE
  5
C57
  8
0
 10
59.46846718012101
 20
100.4506692457242
 30
0.0
 11
56.71846718012101
 21
100.4506692457242
 31
0.0
  0
POLYLINE
  5
C58
  8
0
 66
     1
 10
0.0
 20
0.0
 30
0.0
 70
   128
  0
VERTEX
  5
207F
  8
0
 10
47.792166602086212
 20
101.9402899196585
 30
0.0
  0
VERTEX
  5
2080
  8
0
 10
47.579979517456962
 20
102.1090338391427
 30
0.0
  0
VERTEX
  5
2081
  8
0
 10
47.47739494394375
 20
102.2937318983749
 30
0.0
  0
SEQEND
  5
2082
  8
0
  0
LINE
  5
C59
  8
0
 10
61.468467180121102
 20
102.3503500499793
 30
0.0
 11
61.468467180120982
 21
95.936197651799603
 31
0.0
  0
LINE
  5
C5E
  8
0
 10
61.468467180120982
 20
95.936197651799603
 30
0.0
 11
61.468467180120982
 21
92.936197651799588
 31
0.0
  0
LINE
  5
C5F
  8
0
 10
48.46846718012101
 20
98.436197651799603
 30
0.0
 11
48.46846718012101
 21
90.436197651799588
 31
0.0
  0
LINE
  5
C60
  8
0
 10
48.46846718012101
 20
90.436197651799588
 30
0.0
 11
49.468467180121017
 21
90.436197651799588
 31
0.0
  0
LINE
  5
C61
  8
0
 10
61.468467180120982
 20
92.936197651799588
 30
0.0
 11
60.468467180120982
 21
92.936197651799588
 31
0.0
  0
LINE
  5
C65
  8
0
 10
52.218467180121017
 20
100.4506692457242
 30
0.0
 11
49.468467180121017
 21
100.4506692457242
 31
0.0
  0
POLYLINE
  5
C66
  8
0
 66
     1
 10
0.0
 20
0.0
 30
0.0
 70
   128
  0
VERTEX
  5
2083
  8
0
 10
61.144767758155773
 20
95.988358975134901
 30
0.0
  0
VERTEX
  5
2084
  8
0
 10
60.897994810203002
 20
96.18036141554856
 30
0.0
  0
VERTEX
  5
2085
  8
0
 10
60.666966743373933
 20
96.320436194046778
 30
0.0
  0
VERTEX
  5
2086
  8
0
 10
60.468467180120967
 20
96.400145858504942
 30
0.0
  0
SEQEND
  5
2087
  8
0
  0
LINE
  5
C67
  8
0
 10
60.468467180120982
 20
95.936197651799603
 30
0.0
 11
61.468467180120982
 21
95.936197651799603
 31
0.0
  0
LINE
  5
C68
  8
0
 10
61.184476386698307
 20
95.936197651799603
 30
0.0
 11
61.144767758155773
 21
95.988358975134901
 31
0.0
  0
LINE
  5
C69
  8
0
 10
49.468467180121017
 20
98.436197651799603
 30
0.0
 11
48.46846718012101
 21
98.436197651799603
 31
0.0
  0
POLYLINE
  5
C6A
  8
0
 66
     1
 10
0.0
 20
0.0
 30
0.0
 70
   128
  0
VERTEX
  5
2088
  8
0
 10
49.468467180120939
 20
100.583818843636
 30
0.0
  0
VERTEX
  5
2089
  8
0
 10
49.442643173638018
 20
100.6757657657852
 30
0.0
  0
VERTEX
  5
208A
  8
0
 10
49.365381339794389
 20
100.7896293903199
 30
0.0
  0
VERTEX
  5
208B
  8
0
 10
49.235931095361167
 20
100.9260968881467
 30
0.0
  0
VERTEX
  5
208C
  8
0
 10
49.055142094532648
 20
101.0839844773887
 30
0.0
  0
VERTEX
  5
208D
  8
0
 10
48.81825029205902
 20
101.2666282355117
 30
0.0
  0
VERTEX
  5
208E
  8
0
 10
48.529186573878953
 20
101.47023868335189
 30
0.0
  0
VERTEX
  5
208F
  8
0
 10
48.186256359830097
 20
101.6955593324934
 30
0.0
  0
VERTEX
  5
2090
  8
0
 10
47.792166602086212
 20
101.9402899196585
 30
0.0
  0
SEQEND
  5
2091
  8
0
  0
LINE
  5
C6B
  8
0
 10
49.468467180120953
 20
100.4361976517996
 30
0.0
 11
49.468467180120939
 21
100.583818843636
 31
0.0
  0
LINE
  5
C6D
  8
0
 10
52.218467180120982
 20
100.4361976517996
 30
0.0
 11
56.718467180120982
 21
100.4361976517996
 31
0.0
  0
POLYLINE
  5
C70
  8
0
 66
     1
 10
0.0
 20
0.0
 30
0.0
 70
   128
  0
VERTEX
  5
2092
  8
0
 10
47.552448621252488
 20
102.4235384368008
 30
0.0
  0
VERTEX
  5
2093
  8
0
 10
47.510248637888317
 20
102.4308487665711
 30
0.0
  0
VERTEX
  5
2094
  8
0
 10
47.469853625350808
 20
102.3355698288522
 30
0.0
  0
VERTEX
  5
2095
  8
0
 10
47.47739494394375
 20
102.2937318983749
 30
0.0
  0
SEQEND
  5
2096
  8
0
  0
POLYLINE
  5
C71
  8
0
 66
     1
 10
0.0
 20
0.0
 30
0.0
 70
   128
  0
VERTEX
  5
2097
  8
0
 10
61.144767758155567
 20
101.9402899196585
 30
0.0
  0
VERTEX
  5
2098
  8
0
 10
61.264335645226033
 20
102.02274678136099
 30
0.0
  0
VERTEX
  5
2099
  8
0
 10
61.356954842784823
 20
102.1090338391427
 30
0.0
  0
VERTEX
  5
209A
  8
0
 10
61.422466999123571
 20
102.19967447551279
 30
0.0
  0
VERTEX
  5
209B
  8
0
 10
61.459539416298028
 20
102.2937318983749
 30
0.0
  0
SEQEND
  5
209C
  8
0
  0
LINE
  5
C72
  8
0
 10
47.468467180121102
 20
95.217911127704227
 30
0.0
 11
47.468467180121102
 21
102.3448861799051
 31
0.0
  0
POLYLINE
  5
C73
  8
0
 66
     1
 10
0.0
 20
0.0
 30
0.0
 70
   128
  0
VERTEX
  5
209D
  8
0
 10
47.756591040674657
 20
94.072561288163257
 30
0.0
  0
VERTEX
  5
209E
  8
0
 10
47.534150741626341
 20
94.726946657822367
 30
0.0
  0
VERTEX
  5
209F
  8
0
 10
47.479827825024323
 20
95.027954591319812
 30
0.0
  0
VERTEX
  5
20A0
  8
0
 10
47.470702344941678
 20
95.302301590080162
 30
0.0
  0
VERTEX
  5
20A1
  8
0
 10
47.559545059148292
 20
95.682786912807146
 30
0.0
  0
VERTEX
  5
20A2
  8
0
 10
47.792166602086418
 20
95.988358975134901
 30
0.0
  0
SEQEND
  5
20A3
  8
0
  0
LINE
  5
C74
  8
0
 10
60.46846718012101
 20
98.436197651799603
 30
0.0
 11
60.46846718012101
 21
90.436197651799588
 31
0.0
  0
LINE
  5
C75
  8
0
 10
59.468467180121017
 20
90.436197651799588
 30
0.0
 11
60.46846718012101
 21
90.436197651799588
 31
0.0
  0
POLYLINE
  5
C76
  8
0
 66
     1
 10
0.0
 20
0.0
 30
0.0
 70
   128
  0
VERTEX
  5
20A4
  8
0
 10
48.468467180120967
 20
93.465110293510634
 30
0.0
  0
VERTEX
  5
20A5
  8
0
 10
48.230788254975671
 20
93.534935859185438
 30
0.0
  0
VERTEX
  5
20A6
  8
0
 10
47.992359363748228
 20
93.704086525372205
 30
0.0
  0
VERTEX
  5
20A7
  8
0
 10
47.756591040674657
 20
94.072561288163257
 30
0.0
  0
SEQEND
  5
20A8
  8
0
  0
POLYLINE
  5
C77
  8
0
 66
     1
 10
0.0
 20
0.0
 30
0.0
 70
   128
  0
VERTEX
  5
20A9
  8
0
 10
47.792166602086418
 20
95.988358975134901
 30
0.0
  0
VERTEX
  5
20AA
  8
0
 10
48.038939550039188
 20
96.180361415548546
 30
0.0
  0
VERTEX
  5
20AB
  8
0
 10
48.26996761686825
 20
96.320436194046778
 30
0.0
  0
VERTEX
  5
20AC
  8
0
 10
48.468467180120967
 20
96.400145858504871
 30
0.0
  0
SEQEND
  5
20AD
  8
0
  0
POLYLINE
  5
C78
  8
0
 66
     1
 10
0.0
 20
0.0
 30
0.0
 70
   128
  0
VERTEX
  5
20AE
  8
0
 10
59.468467180120939
 20
100.583818843636
 30
0.0
  0
VERTEX
  5
20AF
  8
0
 10
59.494291186603839
 20
100.6757657657852
 30
0.0
  0
VERTEX
  5
20B0
  8
0
 10
59.571553020447453
 20
100.7896293903199
 30
0.0
  0
VERTEX
  5
20B1
  8
0
 10
59.701003264880683
 20
100.9260968881467
 30
0.0
  0
VERTEX
  5
20B2
  8
0
 10
59.88179226570918
 20
101.0839844773887
 30
0.0
  0
VERTEX
  5
20B3
  8
0
 10
60.118684068182802
 20
101.2666282355117
 30
0.0
  0
VERTEX
  5
20B4
  8
0
 10
60.407747786362862
 20
101.47023868335189
 30
0.0
  0
VERTEX
  5
20B5
  8
0
 10
60.75067800041171
 20
101.6955593324934
 30
0.0
  0
VERTEX
  5
20B6
  8
0
 10
61.144767758155581
 20
101.9402899196585
 30
0.0
  0
SEQEND
  5
20B7
  8
0
  0
LINE
  5
C79
  8
0
 10
60.46846718012101
 20
98.436197651799603
 30
0.0
 11
59.468467180121017
 21
98.436197651799603
 31
0.0
  0
LINE
  5
C7A
  8
0
 10
59.468467180120953
 20
100.4361976517996
 30
0.0
 11
59.468467180120939
 21
100.583818843636
 31
0.0
  0
POLYLINE
  5
C7B
  8
0
 66
     1
 10
0.0
 20
0.0
 30
0.0
 70
   128
  0
VERTEX
  5
20B8
  8
0
 10
61.459539416298028
 20
102.2937318983749
 30
0.0
  0
VERTEX
  5
20B9
  8
0
 10
61.451025943180788
 20
102.4151503234197
 30
0.0
  0
VERTEX
  5
20BA
  8
0
 10
61.384102547028149
 20
102.4230579645387
 30
0.0
  0
SEQEND
  5
20BB
  8
0
  0
LINE
  5
C7C
  8
1
 10
93.967853151254246
 20
94.436197651799603
 30
0.0
 11
80.967853151254246
 21
94.436197651799603
 31
0.0
  0
CIRCLE
  5
C7D
  8
0
 10
87.467853151254246
 20
94.436197651799603
 30
0.0
 40
4.0
  0
LINE
  5
C82
  8
1
 10
87.467853151254246
 20
144.77719765179961
 30
0.0
 11
87.467853151254246
 21
127.7771976517996
 31
0.0
  0
LINE
  5
C83
  8
0
 10
91.467853151254246
 20
141.2771976517995
 30
0.0
 11
91.467853151254246
 21
142.27719765179961
 31
0.0
  0
LINE
  5
C84
  8
0
 10
83.467853151254261
 20
142.27719765179961
 30
0.0
 11
83.467853151254261
 21
141.2771976517995
 31
0.0
  0
LINE
  5
C86
  8
0
 10
80.795807287684767
 20
138.5271976517995
 30
0.0
 11
94.467853151254246
 21
138.5271976517995
 31
0.0
  0
LINE
  5
C87
  8
0
 10
94.467853151254246
 20
134.0271976517995
 30
0.0
 11
80.795807287684767
 21
134.0271976517995
 31
0.0
  0
LINE
  5
C89
  8
0
 10
91.467853151254246
 20
130.27719765179961
 30
0.0
 11
83.467853151254261
 21
130.27719765179961
 31
0.0
  0
ARC
  5
C8A
  8
0
 10
87.467853151254246
 20
136.27719765179961
 30
0.0
 40
5.9999999999999982
 50
157.93969478948881
 51
202.02595730525309
  0
LINE
  5
C8B
  8
0
 10
83.467853151254261
 20
138.5271976517995
 30
0.0
 11
83.467853151254261
 21
134.0271976517995
 31
0.0
  0
LINE
  5
C8C
  8
0
 10
80.795807287684767
 20
134.02719765179961
 30
0.0
 11
80.795807287684767
 21
131.27719765179961
 31
0.0
  0
LINE
  5
C8D
  8
0
 10
83.467853151254261
 20
131.2771976517995
 30
0.0
 11
83.467853151254261
 21
130.27719765179961
 31
0.0
  0
LINE
  5
C8E
  8
0
 10
80.795807287684767
 20
141.27719765179961
 30
0.0
 11
80.795807287684767
 21
138.52719765179961
 31
0.0
  0
LINE
  5
C8F
  8
0
 10
94.467853151254246
 20
138.5271976517995
 30
0.0
 11
94.467853151254246
 21
134.0271976517995
 31
0.0
  0
ARC
  5
C90
  8
0
 10
87.467853151254246
 20
136.27719765179961
 30
0.0
 40
6.0000000000000027
 50
337.97568716295791
 51
22.02431283704129
  0
LINE
  5
C91
  8
0
 10
91.467853151254246
 20
134.0271976517995
 30
0.0
 11
91.467853151254246
 21
138.5271976517995
 31
0.0
  0
LINE
  5
C92
  8
0
 10
91.467853151254246
 20
130.27719765179961
 30
0.0
 11
91.467853151254246
 21
131.2771976517995
 31
0.0
  0
LINE
  5
C96
  8
0
 10
88.217853151254261
 20
129.27719765179961
 30
0.0
 11
85.967853151254246
 21
129.27719765179961
 31
0.0
  0
LINE
  5
C97
  8
0
 10
91.467853151254246
 20
142.27719765179961
 30
0.0
 11
83.467853151254261
 21
142.27719765179961
 31
0.0
  0
LINE
  5
C98
  8
0
 10
85.967853151254246
 20
129.27719765179961
 30
0.0
 11
85.967853151254246
 21
130.27719765179961
 31
0.0
  0
LINE
  5
C99
  8
0
 10
88.967853151254246
 20
129.27719765179961
 30
0.0
 11
88.217853151254261
 21
129.27719765179961
 31
0.0
  0
LINE
  5
C9A
  8
0
 10
88.967853151254246
 20
130.27719765179961
 30
0.0
 11
88.967853151254246
 21
129.27719765179961
 31
0.0
  0
LINE
  5
C9B
  8
1
 10
154.468467180121
 20
67.633135186799606
 30
0.0
 11
154.468467180121
 21
104.9212601167996
 31
0.0
  0
LINE
  5
C9C
  8
0
 10
149.46846718012091
 20
93.421260116799601
 30
0.0
 11
149.46846718012091
 21
87.112401128327804
 31
0.0
  0
LINE
  5
C9D
  8
0
 10
152.21846718012091
 20
87.112401128327804
 30
0.0
 11
152.21846718012091
 21
93.421260116799601
 31
0.0
  0
LINE
  5
C9E
  8
0
 10
159.468467180121
 20
93.421260116799601
 30
0.0
 11
159.468467180121
 21
87.112401128327804
 31
0.0
  0
LINE
  5
C9F
  8
0
 10
156.71846718012091
 20
93.421260116799601
 30
0.0
 11
156.71846718012091
 21
87.112401128327804
 31
0.0
  0
POLYLINE
  5
CA0
  8
0
 66
     1
 10
0.0
 20
0.0
 30
0.0
 70
   128
  0
VERTEX
  5
20BC
  8
0
 10
118.3638069084796
 20
29.600897073764902
 30
0.0
  0
VERTEX
  5
20BD
  8
0
 10
117.5473969869528
 20
29.847670021717661
 30
0.0
  0
VERTEX
  5
20BE
  8
0
 10
116.7120306231937
 20
30.078698088546751
 30
0.0
  0
VERTEX
  5
20BF
  8
0
 10
115.85292717973959
 20
30.294080609282801
 30
0.0
  0
VERTEX
  5
20C0
  8
0
 10
114.9810201707491
 20
30.490063037117419
 30
0.0
  0
SEQEND
  5
20C1
  8
0
  0
POLYLINE
  5
CA1
  8
0
 66
     1
 10
0.0
 20
0.0
 30
0.0
 70
   128
  0
VERTEX
  5
20C2
  8
0
 10
122.4554946402379
 20
29.56532151235314
 30
0.0
  0
VERTEX
  5
20C3
  8
0
 10
122.93446750257191
 20
29.72647837806463
 30
0.0
  0
VERTEX
  5
20C4
  8
0
 10
123.4356620403663
 20
29.937472863000981
 30
0.0
  0
VERTEX
  5
20C5
  8
0
 10
123.93712039507621
 20
30.197672834836769
 30
0.0
  0
VERTEX
  5
20C6
  8
0
 10
124.42495149537061
 20
30.502998772735001
 30
0.0
  0
VERTEX
  5
20C7
  8
0
 10
125.0474166074912
 20
30.983600752392729
 30
0.0
  0
VERTEX
  5
20C8
  8
0
 10
125.6056561021652
 20
31.522938420582779
 30
0.0
  0
VERTEX
  5
20C9
  8
0
 10
126.0662384942259
 20
32.075216918739663
 30
0.0
  0
VERTEX
  5
20CA
  8
0
 10
126.462802115765
 20
32.663466597033157
 30
0.0
  0
VERTEX
  5
20CB
  8
0
 10
126.793796992352
 20
33.28012666176997
 30
0.0
  0
VERTEX
  5
20CC
  8
0
 10
127.0719310168306
 20
33.955994871017843
 30
0.0
  0
VERTEX
  5
20CD
  8
0
 10
127.2803194277986
 20
34.66713618496938
 30
0.0
  0
VERTEX
  5
20CE
  8
0
 10
127.41396795408249
 20
35.410312915557263
 30
0.0
  0
VERTEX
  5
20CF
  8
0
 10
127.4541777830425
 20
35.840951794692756
 30
0.0
  0
VERTEX
  5
20D0
  8
0
 10
127.4678531512542
 20
36.277197651799582
 30
0.0
  0
VERTEX
  5
20D1
  8
0
 10
127.4269545869352
 20
37.028976096063303
 30
0.0
  0
VERTEX
  5
20D2
  8
0
 10
127.3095927121723
 20
37.757265143696273
 30
0.0
  0
VERTEX
  5
20D3
  8
0
 10
127.1071729454039
 20
38.496135799258617
 30
0.0
  0
VERTEX
  5
20D4
  8
0
 10
126.8283083746972
 20
39.201027958444257
 30
0.0
  0
VERTEX
  5
20D5
  8
0
 10
126.4754515705894
 20
39.870074108345413
 30
0.0
  0
VERTEX
  5
20D6
  8
0
 10
125.93435630883501
 20
40.649114297630398
 30
0.0
  0
VERTEX
  5
20D7
  8
0
 10
125.2774514189294
 20
41.363233878919559
 30
0.0
  0
VERTEX
  5
20D8
  8
0
 10
124.7409448816864
 20
41.821192303810363
 30
0.0
  0
VERTEX
  5
20D9
  8
0
 10
124.1579467794007
 20
42.225576339771017
 30
0.0
  0
VERTEX
  5
20DA
  8
0
 10
123.64384041759369
 20
42.514876576945028
 30
0.0
  0
VERTEX
  5
20DB
  8
0
 10
123.1249243867905
 20
42.753305468172456
 30
0.0
  0
VERTEX
  5
20DC
  8
0
 10
122.4554946402379
 20
42.989073791246021
 30
0.0
  0
SEQEND
  5
20DD
  8
0
  0
POLYLINE
  5
CA2
  8
0
 66
     1
 10
0.0
 20
0.0
 30
0.0
 70
   128
  0
VERTEX
  5
20DE
  8
0
 10
122.4554946402379
 20
29.56532151235314
 30
0.0
  0
VERTEX
  5
20DF
  8
0
 10
121.4245430335157
 20
29.342881213304821
 30
0.0
  0
VERTEX
  5
20E0
  8
0
 10
120.8657413245798
 20
29.288558296702799
 30
0.0
  0
VERTEX
  5
20E1
  8
0
 10
120.29097095450619
 20
29.279432816620162
 30
0.0
  0
VERTEX
  5
20E2
  8
0
 10
119.3423332152546
 20
29.368275530826772
 30
0.0
  0
VERTEX
  5
20E3
  8
0
 10
118.3638069084796
 20
29.600897073764902
 30
0.0
  0
SEQEND
  5
20E4
  8
0
  0
POLYLINE
  5
CA3
  8
0
 66
     1
 10
0.0
 20
0.0
 30
0.0
 70
   128
  0
VERTEX
  5
20E5
  8
0
 10
118.3638069084797
 20
42.953498229834253
 30
0.0
  0
VERTEX
  5
20E6
  8
0
 10
117.5473969869529
 20
42.706725281881489
 30
0.0
  0
VERTEX
  5
20E7
  8
0
 10
116.7120306231937
 20
42.475697215052421
 30
0.0
  0
VERTEX
  5
20E8
  8
0
 10
115.85292717973959
 20
42.260314694316342
 30
0.0
  0
VERTEX
  5
20E9
  8
0
 10
114.9810201707491
 20
42.064332266481728
 30
0.0
  0
SEQEND
  5
20EA
  8
0
  0
ARC
  5
CA4
  8
0
 10
107.4678531512542
 20
-4.9728023482004167
 30
0.0
 40
36.25
 50
78.038183505839541
 51
90.0
  0
ARC
  5
CA5
  8
0
 10
107.4678531512542
 20
77.527197651799568
 30
0.0
 40
36.25
 50
270.0000000000008
 51
281.96181649416121
  0
POLYLINE
  5
CA6
  8
0
 66
     1
 10
0.0
 20
0.0
 30
0.0
 70
   128
  0
VERTEX
  5
20EB
  8
0
 10
122.4554946402379
 20
42.989073791246021
 30
0.0
  0
VERTEX
  5
20EC
  8
0
 10
121.4245430335157
 20
43.211514090294322
 30
0.0
  0
VERTEX
  5
20ED
  8
0
 10
120.8657413245798
 20
43.265837006896362
 30
0.0
  0
VERTEX
  5
20EE
  8
0
 10
120.29097095450619
 20
43.274962486978993
 30
0.0
  0
VERTEX
  5
20EF
  8
0
 10
119.3423332152546
 20
43.186119772772379
 30
0.0
  0
VERTEX
  5
20F0
  8
0
 10
118.3638069084796
 20
42.953498229834253
 30
0.0
  0
SEQEND
  5
20F1
  8
0
  0
LINE
  5
CA7
  8
0
 10
160.468467180121
 20
87.103260116799603
 30
0.0
 11
148.46846718012091
 21
87.103260116799603
 31
0.0
  0
LINE
  5
CA8
  8
0
 10
160.468467180121
 20
85.103260116799603
 30
0.0
 11
148.46846718012091
 21
85.103260116799603
 31
0.0
  0
LINE
  5
CA9
  8
0
 10
148.46846718012091
 20
87.103260116799603
 30
0.0
 11
148.46846718012091
 21
85.103260116799603
 31
0.0
  0
LINE
  5
CAC
  8
0
 10
160.468467180121
 20
85.103260116799603
 30
0.0
 11
160.468467180121
 21
87.103260116799603
 31
0.0
  0
POLYLINE
  5
CAD
  8
0
 66
     1
 10
0.0
 20
0.0
 30
0.0
 70
   128
  0
VERTEX
  5
20F2
  8
0
 10
107.4678531512542
 20
100.583818843636
 30
0.0
  0
VERTEX
  5
20F3
  8
0
 10
109.2964320122763
 20
100.7118529051761
 30
0.0
  0
VERTEX
  5
20F4
  8
0
 10
111.1185988859489
 20
100.8789676347231
 30
0.0
  0
VERTEX
  5
20F5
  8
0
 10
112.92635395997191
 20
101.0839844773887
 30
0.0
  0
VERTEX
  5
20F6
  8
0
 10
114.76447880811639
 20
101.3331234762834
 30
0.0
  0
VERTEX
  5
20F7
  8
0
 10
116.5795066480073
 20
101.6194197915233
 30
0.0
  0
VERTEX
  5
20F8
  8
0
 10
118.3638069084797
 20
101.9402899196585
 30
0.0
  0
SEQEND
  5
20F9
  8
0
  0
POLYLINE
  5
CAE
  8
0
 66
     1
 10
0.0
 20
0.0
 30
0.0
 70
   128
  0
VERTEX
  5
20FA
  8
0
 10
118.3638069084797
 20
95.988358975134901
 30
0.0
  0
VERTEX
  5
20FB
  8
0
 10
117.5456133153242
 20
96.180692277477135
 30
0.0
  0
VERTEX
  5
20FC
  8
0
 10
116.7120306231937
 20
96.320436194046778
 30
0.0
  0
VERTEX
  5
20FD
  8
0
 10
115.85085031863311
 20
96.407028829635905
 30
0.0
  0
VERTEX
  5
20FE
  8
0
 10
114.9810201707491
 20
96.436197651799617
 30
0.0
  0
SEQEND
  5
20FF
  8
0
  0
ARC
  5
CAF
  8
0
 10
102.4678531512542
 20
185.1861976517996
 30
0.0
 40
84.749999999999986
 50
270.0000000000008
 51
273.3822459857742
  0
LINE
  5
CB0
  8
0
 10
114.9810201707491
 20
96.436197651799617
 30
0.0
 11
100.7366848260131
 21
96.436197651799617
 31
0.0
  0
POLYLINE
  5
CB1
  8
0
 66
     1
 10
0.0
 20
0.0
 30
0.0
 70
   128
  0
VERTEX
  5
2100
  8
0
 10
118.3638069084796
 20
101.9402899196585
 30
0.0
  0
VERTEX
  5
2101
  8
0
 10
119.223370238022
 20
102.1090338391427
 30
0.0
  0
VERTEX
  5
2102
  8
0
 10
120.11442849372
 20
102.2937318983749
 30
0.0
  0
SEQEND
  5
2103
  8
0
  0
POLYLINE
  5
CB2
  8
0
 66
     1
 10
0.0
 20
0.0
 30
0.0
 70
   128
  0
VERTEX
  5
2104
  8
0
 10
120.11442849372
 20
102.2937318983749
 30
0.0
  0
VERTEX
  5
2105
  8
0
 10
120.9530061780473
 20
102.4151503234197
 30
0.0
  0
VERTEX
  5
2106
  8
0
 10
121.7932032743885
 20
102.4280500297713
 30
0.0
  0
VERTEX
  5
2107
  8
0
 10
122.6068539522273
 20
102.3352013181668
 30
0.0
  0
VERTEX
  5
2108
  8
0
 10
123.3763980073301
 20
102.1496875352987
 30
0.0
  0
VERTEX
  5
2109
  8
0
 10
124.2714014455816
 20
101.8000960659905
 30
0.0
  0
VERTEX
  5
210A
  8
0
 10
125.0583194611971
 20
101.3545508773807
 30
0.0
  0
VERTEX
  5
210B
  8
0
 10
125.6687372557803
 20
100.8956828900655
 30
0.0
  0
VERTEX
  5
210C
  8
0
 10
126.19184438872109
 20
100.4002190496047
 30
0.0
  0
VERTEX
  5
210D
  8
0
 10
126.6270790840253
 20
99.889979104361473
 30
0.0
  0
VERTEX
  5
210E
  8
0
 10
127.01189314789021
 20
99.327809567807407
 30
0.0
  0
VERTEX
  5
210F
  8
0
 10
127.2892802426455
 20
98.827734720490895
 30
0.0
  0
VERTEX
  5
2110
  8
0
 10
127.3900583516499
 20
98.615213244028993
 30
0.0
  0
VERTEX
  5
2111
  8
0
 10
127.45130448117651
 20
98.475549967342303
 30
0.0
  0
VERTEX
  5
2112
  8
0
 10
127.4678531512542
 20
98.436197651799603
 30
0.0
  0
SEQEND
  5
2113
  8
0
  0
POLYLINE
  5
CB3
  8
0
 66
     1
 10
0.0
 20
0.0
 30
0.0
 70
   128
  0
VERTEX
  5
2114
  8
0
 10
122.455494640238
 20
94.072561288163257
 30
0.0
  0
VERTEX
  5
2115
  8
0
 10
121.4245430335157
 20
94.726946657822367
 30
0.0
  0
VERTEX
  5
2116
  8
0
 10
120.8657413245798
 20
95.027954591319812
 30
0.0
  0
VERTEX
  5
2117
  8
0
 10
120.29097095450619
 20
95.302301590080162
 30
0.0
  0
VERTEX
  5
2118
  8
0
 10
119.3423332152547
 20
95.682786912807146
 30
0.0
  0
VERTEX
  5
2119
  8
0
 10
118.3638069084796
 20
95.988358975134901
 30
0.0
  0
SEQEND
  5
211A
  8
0
  0
POLYLINE
  5
CB4
  8
0
 66
     1
 10
0.0
 20
0.0
 30
0.0
 70
   128
  0
VERTEX
  5
211B
  8
0
 10
127.4678531512542
 20
95.133422014067634
 30
0.0
  0
VERTEX
  5
211C
  8
0
 10
127.4269545869352
 20
95.066402791049967
 30
0.0
  0
VERTEX
  5
211D
  8
0
 10
127.3095927121723
 20
94.893034352424493
 30
0.0
  0
VERTEX
  5
211E
  8
0
 10
127.1071729454039
 20
94.638997237418096
 30
0.0
  0
VERTEX
  5
211F
  8
0
 10
126.8283083746972
 20
94.353382290431853
 30
0.0
  0
VERTEX
  5
2120
  8
0
 10
126.4754515705894
 20
94.069222139751616
 30
0.0
  0
VERTEX
  5
2121
  8
0
 10
125.93435630883501
 20
93.758411560467479
 30
0.0
  0
VERTEX
  5
2122
  8
0
 10
125.2774514189294
 20
93.531120465453085
 30
0.0
  0
VERTEX
  5
2123
  8
0
 10
124.7409448816864
 20
93.447086086861518
 30
0.0
  0
VERTEX
  5
2124
  8
0
 10
124.1579467794007
 20
93.449944929938411
 30
0.0
  0
VERTEX
  5
2125
  8
0
 10
123.64384041759369
 20
93.534935859185438
 30
0.0
  0
VERTEX
  5
2126
  8
0
 10
123.1249243867905
 20
93.704086525372205
 30
0.0
  0
VERTEX
  5
2127
  8
0
 10
122.455494640238
 20
94.072561288163257
 30
0.0
  0
SEQEND
  5
2128
  8
0
  0
LINE
  5
CB5
  8
0
 10
127.4678531512542
 20
95.133422014067634
 30
0.0
 11
127.4678531512542
 21
98.436197651799603
 31
0.0
  0
POLYLINE
  5
CB6
  8
0
 66
     1
 10
0.0
 20
0.0
 30
0.0
 70
   128
  0
VERTEX
  5
2129
  8
0
 10
107.4678531512542
 20
141.2771976517995
 30
0.0
  0
VERTEX
  5
212A
  8
0
 10
108.83558123640459
 20
141.3030216582824
 30
0.0
  0
VERTEX
  5
212B
  8
0
 10
110.199720046474
 20
141.3802834921261
 30
0.0
  0
VERTEX
  5
212C
  8
0
 10
111.5671115102536
 20
141.5097337365593
 30
0.0
  0
VERTEX
  5
212D
  8
0
 10
112.92635395997191
 20
141.69052273738779
 30
0.0
  0
VERTEX
  5
212E
  8
0
 10
114.3028411612158
 20
141.9274145398615
 30
0.0
  0
VERTEX
  5
212F
  8
0
 10
115.66636496104501
 20
142.21647825804149
 30
0.0
  0
VERTEX
  5
2130
  8
0
 10
117.0237621486073
 20
142.5594084720903
 30
0.0
  0
VERTEX
  5
2131
  8
0
 10
118.3638069084796
 20
142.9534982298342
 30
0.0
  0
SEQEND
  5
2132
  8
0
  0
POLYLINE
  5
CB7
  8
0
 66
     1
 10
0.0
 20
0.0
 30
0.0
 70
   128
  0
VERTEX
  5
2133
  8
0
 10
107.4678531512542
 20
131.2771976517995
 30
0.0
  0
VERTEX
  5
2134
  8
0
 10
108.83558123640459
 20
131.25137364531659
 30
0.0
  0
VERTEX
  5
2135
  8
0
 10
110.199720046474
 20
131.17411181147301
 30
0.0
  0
VERTEX
  5
2136
  8
0
 10
111.5671115102536
 20
131.0446615670397
 30
0.0
  0
VERTEX
  5
2137
  8
0
 10
112.92635395997191
 20
130.86387256621131
 30
0.0
  0
VERTEX
  5
2138
  8
0
 10
114.3028411612158
 20
130.62698076373761
 30
0.0
  0
VERTEX
  5
2139
  8
0
 10
115.66636496104501
 20
130.33791704555759
 30
0.0
  0
VERTEX
  5
213A
  8
0
 10
117.0237621486073
 20
129.9949868315087
 30
0.0
  0
VERTEX
  5
213B
  8
0
 10
118.3638069084797
 20
129.6008970737648
 30
0.0
  0
SEQEND
  5
213C
  8
0
  0
POLYLINE
  5
CB8
  8
0
 66
     1
 10
0.0
 20
0.0
 30
0.0
 70
   128
  0
VERTEX
  5
213D
  8
0
 10
120.11442849372
 20
129.28612541562239
 30
0.0
  0
VERTEX
  5
213E
  8
0
 10
120.9530061780473
 20
129.2946388887396
 30
0.0
  0
VERTEX
  5
213F
  8
0
 10
121.7932032743885
 20
129.40381078278739
 30
0.0
  0
VERTEX
  5
2140
  8
0
 10
122.6068539522273
 20
129.61247256928641
 30
0.0
  0
VERTEX
  5
2141
  8
0
 10
123.3763980073301
 20
129.91006589407741
 30
0.0
  0
VERTEX
  5
2142
  8
0
 10
124.2714014455816
 20
130.40117698889151
 30
0.0
  0
VERTEX
  5
2143
  8
0
 10
125.0583194611971
 20
130.9925388116018
 30
0.0
  0
VERTEX
  5
2144
  8
0
 10
125.6687372557803
 20
131.59177703101639
 30
0.0
  0
VERTEX
  5
2145
  8
0
 10
126.19184438872109
 20
132.24755635303319
 30
0.0
  0
VERTEX
  5
2146
  8
0
 10
126.6270790840253
 20
132.95094812581991
 30
0.0
  0
VERTEX
  5
2147
  8
0
 10
127.01189314789021
 20
133.79076581166851
 30
0.0
  0
VERTEX
  5
2148
  8
0
 10
127.2892802426455
 20
134.7061685505945
 30
0.0
  0
VERTEX
  5
2149
  8
0
 10
127.3900583516499
 20
135.23716606741289
 30
0.0
  0
VERTEX
  5
214A
  8
0
 10
127.45130448117651
 20
135.7961492939319
 30
0.0
  0
VERTEX
  5
214B
  8
0
 10
127.4678531512542
 20
136.2771976517995
 30
0.0
  0
VERTEX
  5
214C
  8
0
 10
127.4433147844023
 20
136.8590070559269
 30
0.0
  0
VERTEX
  5
214D
  8
0
 10
127.3738891326488
 20
137.42029302126051
 30
0.0
  0
VERTEX
  5
214E
  8
0
 10
127.1856650391337
 20
138.2456310623885
 30
0.0
  0
VERTEX
  5
214F
  8
0
 10
126.9138671467734
 20
139.00646560668631
 30
0.0
  0
VERTEX
  5
2150
  8
0
 10
126.5037798340002
 20
139.82335888256361
 30
0.0
  0
VERTEX
  5
2151
  8
0
 10
125.9884549257597
 20
140.5819461433218
 30
0.0
  0
VERTEX
  5
2152
  8
0
 10
125.36843405923079
 20
141.2756280818821
 30
0.0
  0
VERTEX
  5
2153
  8
0
 10
124.6148116866885
 20
141.9162296238546
 30
0.0
  0
VERTEX
  5
2154
  8
0
 10
123.74613737707151
 20
142.4620866996934
 30
0.0
  0
VERTEX
  5
2155
  8
0
 10
122.9581342476564
 20
142.81875113398169
 30
0.0
  0
VERTEX
  5
2156
  8
0
 10
122.1126591742388
 20
143.08121213934689
 30
0.0
  0
VERTEX
  5
2157
  8
0
 10
121.2243842469862
 20
143.2354161940321
 30
0.0
  0
VERTEX
  5
2158
  8
0
 10
120.3285394369661
 20
143.27581120656961
 30
0.0
  0
VERTEX
  5
2159
  8
0
 10
120.11442849372
 20
143.26826988797669
 30
0.0
  0
SEQEND
  5
215A
  8
0
  0
POLYLINE
  5
CB9
  8
0
 66
     1
 10
0.0
 20
0.0
 30
0.0
 70
   128
  0
VERTEX
  5
215B
  8
0
 10
118.3638069084796
 20
129.6008970737648
 30
0.0
  0
VERTEX
  5
215C
  8
0
 10
119.223370238022
 20
129.38870998913561
 30
0.0
  0
VERTEX
  5
215D
  8
0
 10
120.11442849372
 20
129.28612541562239
 30
0.0
  0
SEQEND
  5
215E
  8
0
  0
POLYLINE
  5
CBA
  8
0
 66
     1
 10
0.0
 20
0.0
 30
0.0
 70
   128
  0
VERTEX
  5
215F
  8
0
 10
118.3638069084796
 20
142.9534982298342
 30
0.0
  0
VERTEX
  5
2160
  8
0
 10
119.223370238022
 20
143.1656853144635
 30
0.0
  0
VERTEX
  5
2161
  8
0
 10
120.11442849372
 20
143.26826988797669
 30
0.0
  0
SEQEND
  5
2162
  8
0
  0
LINE
  5
CBB
  8
1
 10
162.968467180121
 20
94.421260116799601
 30
0.0
 11
145.968467180121
 21
94.421260116799601
 31
0.0
  0
POLYLINE
  5
CBC
  8
0
 66
     1
 10
0.0
 20
0.0
 30
0.0
 70
   128
  0
VERTEX
  5
2163
  8
0
 10
161.1803433195673
 20
94.057623753163256
 30
0.0
  0
VERTEX
  5
2164
  8
0
 10
161.01918645385581
 20
93.775523802362997
 30
0.0
  0
VERTEX
  5
2165
  8
0
 10
160.8081919689194
 20
93.576924381469809
 30
0.0
  0
VERTEX
  5
2166
  8
0
 10
160.54799199708361
 20
93.461976460425873
 30
0.0
  0
VERTEX
  5
2167
  8
0
 10
160.24266605918541
 20
93.421523062687896
 30
0.0
  0
VERTEX
  5
2168
  8
0
 10
159.7620640795277
 20
93.469788766233705
 30
0.0
  0
VERTEX
  5
2169
  8
0
 10
159.22272641133759
 20
93.61136518721375
 30
0.0
  0
VERTEX
  5
216A
  8
0
 10
158.67044791318079
 20
93.807781695520902
 30
0.0
  0
VERTEX
  5
216B
  8
0
 10
158.08219823488719
 20
94.045774663221636
 30
0.0
  0
VERTEX
  5
216C
  8
0
 10
157.46553817015041
 20
94.305923570949489
 30
0.0
  0
VERTEX
  5
216D
  8
0
 10
156.78966996090259
 20
94.58437091557856
 30
0.0
  0
VERTEX
  5
216E
  8
0
 10
156.07852864695101
 20
94.839509405194178
 30
0.0
  0
VERTEX
  5
216F
  8
0
 10
155.33535191636309
 20
95.031707903031474
 30
0.0
  0
VERTEX
  5
2170
  8
0
 10
154.90471303722771
 20
95.095781929984355
 30
0.0
  0
VERTEX
  5
2171
  8
0
 10
154.4684671801208
 20
95.118484479067618
 30
0.0
  0
VERTEX
  5
2172
  8
0
 10
153.7166887358571
 20
95.051465256049966
 30
0.0
  0
VERTEX
  5
2173
  8
0
 10
152.98839968822409
 20
94.878096817424492
 30
0.0
  0
VERTEX
  5
2174
  8
0
 10
152.2495290326618
 20
94.624059702418094
 30
0.0
  0
VERTEX
  5
2175
  8
0
 10
151.54463687347621
 20
94.338444755431851
 30
0.0
  0
VERTEX
  5
2176
  8
0
 10
150.87559072357499
 20
94.054284604751615
 30
0.0
  0
VERTEX
  5
2177
  8
0
 10
150.09655053429
 20
93.743474025467478
 30
0.0
  0
VERTEX
  5
2178
  8
0
 10
149.38243095300089
 20
93.516182930453084
 30
0.0
  0
VERTEX
  5
2179
  8
0
 10
148.9244725281101
 20
93.432148551861516
 30
0.0
  0
VERTEX
  5
217A
  8
0
 10
148.5200884921494
 20
93.435007394938395
 30
0.0
  0
VERTEX
  5
217B
  8
0
 10
148.23078825497541
 20
93.519998324185437
 30
0.0
  0
VERTEX
  5
217C
  8
0
 10
147.99235936374799
 20
93.689148990372189
 30
0.0
  0
VERTEX
  5
217D
  8
0
 10
147.75659104067441
 20
94.057623753163256
 30
0.0
  0
SEQEND
  5
217E
  8
0
  0
POLYLINE
  5
CBD
  8
0
 66
     1
 10
0.0
 20
0.0
 30
0.0
 70
   128
  0
VERTEX
  5
217F
  8
0
 10
147.4809817191838
 20
102.3299486449051
 30
0.0
  0
VERTEX
  5
2180
  8
0
 10
147.4859084170609
 20
102.40021278841969
 30
0.0
  0
VERTEX
  5
2181
  8
0
 10
147.59508031110869
 20
102.4131124947712
 30
0.0
  0
VERTEX
  5
2182
  8
0
 10
147.80374209760771
 20
102.32026378316679
 30
0.0
  0
VERTEX
  5
2183
  8
0
 10
148.10133542239859
 20
102.13475000029869
 30
0.0
  0
VERTEX
  5
2184
  8
0
 10
148.59244651721281
 20
101.7851585309905
 30
0.0
  0
VERTEX
  5
2185
  8
0
 10
149.1838083399231
 20
101.3396133423807
 30
0.0
  0
VERTEX
  5
2186
  8
0
 10
149.78304655933769
 20
100.8807453550655
 30
0.0
  0
VERTEX
  5
2187
  8
0
 10
150.43882588135449
 20
100.3852815146047
 30
0.0
  0
VERTEX
  5
2188
  8
0
 10
151.14221765414121
 20
99.875041569361471
 30
0.0
  0
VERTEX
  5
2189
  8
0
 10
151.98203533998981
 20
99.312872032807405
 30
0.0
  0
VERTEX
  5
218A
  8
0
 10
152.89743807891571
 20
98.812797185490894
 30
0.0
  0
VERTEX
  5
218B
  8
0
 10
153.42843559573419
 20
98.600275709029006
 30
0.0
  0
VERTEX
  5
218C
  8
0
 10
153.98741882225309
 20
98.460612432342316
 30
0.0
  0
VERTEX
  5
218D
  8
0
 10
154.4684671801208
 20
98.421260116799601
 30
0.0
  0
VERTEX
  5
218E
  8
0
 10
155.05027658424819
 20
98.479700494821984
 30
0.0
  0
VERTEX
  5
218F
  8
0
 10
155.61156254958181
 20
98.635802248812354
 30
0.0
  0
VERTEX
  5
2190
  8
0
 10
156.4369005907098
 20
99.011389176586846
 30
0.0
  0
VERTEX
  5
2191
  8
0
 10
157.1977351350076
 20
99.46963038505092
 30
0.0
  0
VERTEX
  5
2192
  8
0
 10
158.01462841088491
 20
100.0293771865678
 30
0.0
  0
VERTEX
  5
2193
  8
0
 10
158.7732156716431
 20
100.59048059541421
 30
0.0
  0
VERTEX
  5
2194
  8
0
 10
159.46689761020349
 20
101.1208243851148
 30
0.0
  0
VERTEX
  5
2195
  8
0
 10
160.1074991521759
 20
101.6083282968879
 30
0.0
  0
VERTEX
  5
2196
  8
0
 10
160.65335622801479
 20
102.00890506262159
 30
0.0
  0
VERTEX
  5
2197
  8
0
 10
161.01002066230291
 20
102.2476571933253
 30
0.0
  0
VERTEX
  5
2198
  8
0
 10
161.27248166766819
 20
102.38919836578771
 30
0.0
  0
VERTEX
  5
2199
  8
0
 10
161.4266857223534
 20
102.4159112315711
 30
0.0
  0
VERTEX
  5
219A
  8
0
 10
161.46081442638629
 20
102.3354125149793
 30
0.0
  0
SEQEND
  5
219B
  8
0
  0
LINE
  5
CBE
  8
0
 10
148.73508993958629
 20
93.421260116799601
 30
0.0
 11
160.20975553341231
 21
93.421260116799601
 31
0.0
  0
LINE
  5
CBF
  8
0
 10
161.38448573898921
 20
102.4212601167996
 30
0.0
 11
147.5528318132136
 21
102.4212601167996
 31
0.0
  0
LINE
  5
CC0
  8
0
 10
147.4684671801208
 20
102.3299486449051
 30
0.0
 11
147.4684671801208
 21
95.202973592704197
 31
0.0
  0
LINE
  5
CC1
  8
0
 10
148.46846718012091
 20
90.421260116799587
 30
0.0
 11
149.46846718012091
 21
90.421260116799587
 31
0.0
  0
POLYLINE
  5
CC2
  8
0
 66
     1
 10
0.0
 20
0.0
 30
0.0
 70
   128
  0
VERTEX
  5
219C
  8
0
 10
147.75659104067441
 20
94.057623753163256
 30
0.0
  0
VERTEX
  5
219D
  8
0
 10
147.53415074162609
 20
94.712009122822366
 30
0.0
  0
VERTEX
  5
219E
  8
0
 10
147.47982782502399
 20
95.013017056319811
 30
0.0
  0
VERTEX
  5
219F
  8
0
 10
147.47350938670621
 20
95.202973592704197
 30
0.0
  0
SEQEND
  5
21A0
  8
0
  0
LINE
  5
CC3
  8
0
 10
148.46846718012091
 20
90.421260116799587
 30
0.0
 11
148.46846718012091
 21
93.447000262422108
 31
0.0
  0
LINE
  5
CC7
  8
0
 10
161.468467180121
 20
95.202973592704197
 30
0.0
 11
161.46846718012091
 21
102.3354125149793
 31
0.0
  0
POLYLINE
  5
CC8
  8
0
 66
     1
 10
0.0
 20
0.0
 30
0.0
 70
   128
  0
VERTEX
  5
21A1
  8
0
 10
161.1803433195673
 20
94.057623753163256
 30
0.0
  0
VERTEX
  5
21A2
  8
0
 10
161.40278361861559
 20
94.712009122822366
 30
0.0
  0
VERTEX
  5
21A3
  8
0
 10
161.4571065352176
 20
95.013017056319811
 30
0.0
  0
VERTEX
  5
21A4
  8
0
 10
161.46342497353541
 20
95.202973592704197
 30
0.0
  0
SEQEND
  5
21A5
  8
0
  0
LINE
  5
CC9
  8
0
 10
147.468467180121
 20
92.921260116799587
 30
0.0
 11
147.468467180121
 21
95.202973592704197
 31
0.0
  0
LINE
  5
CCA
  8
0
 10
160.468467180121
 20
90.421260116799587
 30
0.0
 11
160.46846718012091
 21
93.448250989068356
 31
0.0
  0
LINE
  5
CCB
  8
0
 10
159.46846718012091
 20
90.421260116799587
 30
0.0
 11
160.468467180121
 21
90.421260116799587
 31
0.0
  0
LINE
  5
CCC
  8
0
 10
148.468467180121
 20
92.921260116799587
 30
0.0
 11
147.468467180121
 21
92.921260116799587
 31
0.0
  0
TEXT
  5
D9B
  8
0
 62
     3
 10
0.0
 20
0.0
 30
0.0
 40
10.0
  1
QLCA-04X15
  7
STANDARD1
  0
LINE
  5
1259
  8
0
 10
85.467853151254246
 20
85.106322581799603
 30
0.0
 11
85.467853151254246
 21
70.818197651799608
 31
0.0
  0
LINE
  5
125A
  8
0
 10
89.467853151254246
 20
70.818197651799608
 30
0.0
 11
89.467853151254246
 21
85.106322581799603
 31
0.0
  0
LINE
  5
125C
  8
0
 10
85.467853151254246
 20
70.818197651799608
 30
0.0
 11
86.167853151254263
 21
70.118197651799605
 31
0.0
  0
LINE
  5
125D
  8
0
 10
88.767853151254215
 20
70.118197651799605
 30
0.0
 11
89.467853151254246
 21
70.818197651799608
 31
0.0
  0
LINE
  5
125E
  8
0
 10
85.717853151254246
 20
87.443504640699601
 30
0.0
 11
85.717853151254246
 21
87.106322581799617
 31
0.0
  0
LINE
  5
125F
  8
0
 10
89.217853151254246
 20
87.106322581799617
 30
0.0
 11
89.217853151254246
 21
87.233141533799596
 31
0.0
  0
LINE
  5
128B
  8
0
 10
88.217853151254246
 20
94.003184949899605
 30
0.0
 11
88.217853151254246
 21
94.869210353699586
 31
0.0
  0
LINE
  5
128C
  8
0
 10
86.717853151254246
 20
94.869210353699586
 30
0.0
 11
86.717853151254246
 21
94.003184949899605
 31
0.0
  0
CIRCLE
  5
128D
  8
0
 10
87.467853151254246
 20
94.436197651799603
 30
0.0
 40
1.500000000000014
  0
LINE
  5
128E
  8
0
 10
87.467853151254246
 20
95.302223055599583
 30
0.0
 11
86.717853151254246
 21
94.869210353699586
 31
0.0
  0
LINE
  5
128F
  8
0
 10
86.717853151254246
 20
94.003184949899605
 30
0.0
 11
87.467853151254246
 21
93.570172247999594
 31
0.0
  0
LINE
  5
1290
  8
0
 10
88.217853151254246
 20
94.869210353699586
 30
0.0
 11
87.467853151254246
 21
95.302223055599583
 31
0.0
  0
LINE
  5
1291
  8
0
 10
87.467853151254246
 20
93.570172247999594
 30
0.0
 11
88.217853151254246
 21
94.003184949899605
 31
0.0
  0
LINE
  5
1298
  8
0
 10
85.467853151254246
 20
70.818197651799608
 30
0.0
 11
89.467853151254246
 21
70.818197651799608
 31
0.0
  0
LINE
  5
1299
  8
0
 10
88.767853151254215
 20
70.118197651799605
 30
0.0
 11
86.167853151254263
 21
70.118197651799605
 31
0.0
  0
LINE
  5
130E
  8
0
 10
152.468467180121
 20
90.789213702999575
 30
0.0
 11
152.468467180121
 21
89.633135186799606
 31
0.0
  0
LINE
  5
130F
  8
0
 10
156.468467180121
 20
89.633135186799606
 30
0.0
 11
156.468467180121
 21
90.787773915699603
 31
0.0
  0
LINE
  5
1311
  8
0
 10
152.468467180121
 20
85.103260116799603
 30
0.0
 11
152.468467180121
 21
70.803260116799606
 31
0.0
  0
LINE
  5
1312
  8
0
 10
156.468467180121
 20
70.803260116799606
 30
0.0
 11
156.468467180121
 21
85.103260116799603
 31
0.0
  0
LINE
  5
1314
  8
0
 10
152.468467180121
 20
70.803260116799606
 30
0.0
 11
153.16846718012101
 21
70.103260116799603
 31
0.0
  0
LINE
  5
1315
  8
0
 10
155.76846718012101
 20
70.103260116799603
 30
0.0
 11
156.468467180121
 21
70.803260116799606
 31
0.0
  0
LINE
  5
1316
  8
0
 10
152.66846718012101
 20
89.633135186799606
 30
0.0
 11
152.66846718012101
 21
88.133135186799606
 31
0.0
  0
LINE
  5
1317
  8
0
 10
156.26846718012101
 20
88.133135186799606
 30
0.0
 11
156.26846718012101
 21
89.633135186799606
 31
0.0
  0
LINE
  5
1318
  8
0
 10
152.718467180121
 20
88.133135186799606
 30
0.0
 11
152.718467180121
 21
87.103260116799603
 31
0.0
  0
LINE
  5
1319
  8
0
 10
156.218467180121
 20
87.103260116799603
 30
0.0
 11
156.218467180121
 21
88.133135186799606
 31
0.0
  0
LINE
  5
1386
  8
0
 10
152.468467180121
 20
89.633135186799606
 30
0.0
 11
156.468467180121
 21
89.633135186799606
 31
0.0
  0
LINE
  5
138B
  8
0
 10
152.468467180121
 20
70.803260116799606
 30
0.0
 11
156.468467180121
 21
70.803260116799606
 31
0.0
  0
LINE
  5
138C
  8
0
 10
155.76846718012101
 20
70.103260116799603
 30
0.0
 11
153.16846718012101
 21
70.103260116799603
 31
0.0
  0
LINE
  5
138E
  8
0
 10
152.66846718012101
 20
88.133135186799606
 30
0.0
 11
156.26846718012101
 21
88.133135186799606
 31
0.0
  0
ARC
  5
1393
  8
0
 10
154.46733883902101
 20
84.741091480699595
 30
0.0
 40
6.3741562269805394
 50
69.318981903699651
 51
110.6593377012
  0
LINE
  5
1401
  8
0
 10
52.46846718012101
 20
70.818197651799608
 30
0.0
 11
53.168467180120999
 21
70.118197651799605
 31
0.0
  0
LINE
  5
1402
  8
0
 10
55.768467180121021
 20
70.118197651799605
 30
0.0
 11
56.46846718012101
 21
70.818197651799608
 31
0.0
  0
LINE
  5
1404
  8
0
 10
52.46846718012101
 20
85.118197651799605
 30
0.0
 11
52.46846718012101
 21
70.818197651799608
 31
0.0
  0
LINE
  5
1405
  8
0
 10
56.46846718012101
 20
70.818197651799608
 30
0.0
 11
56.46846718012101
 21
85.118197651799605
 31
0.0
  0
LINE
  5
1407
  8
0
 10
52.46846718012101
 20
99.148072721799593
 30
0.0
 11
52.46846718012101
 21
98.09349140699959
 31
0.0
  0
LINE
  5
1408
  8
0
 10
52.46846718012101
 20
90.802510149099604
 30
0.0
 11
52.46846718012101
 21
89.648072721799593
 31
0.0
  0
LINE
  5
1409
  8
0
 10
56.46846718012101
 20
89.648072721799593
 30
0.0
 11
56.46846718012101
 21
90.801921022399597
 31
0.0
  0
LINE
  5
140A
  8
0
 10
56.46846718012101
 20
98.094136157099598
 30
0.0
 11
56.46846718012101
 21
99.148072721799593
 31
0.0
  0
LINE
  5
140B
  8
0
 10
52.96846718012101
 20
99.648072721799593
 30
0.0
 11
52.46846718012101
 21
99.148072721799593
 31
0.0
  0
LINE
  5
140C
  8
0
 10
56.46846718012101
 20
99.148072721799593
 30
0.0
 11
55.96846718012101
 21
99.648072721799593
 31
0.0
  0
LINE
  5
140D
  8
0
 10
52.668467180120999
 20
89.648072721799593
 30
0.0
 11
52.668467180120999
 21
88.148072721799593
 31
0.0
  0
LINE
  5
140E
  8
0
 10
56.268467180121021
 20
88.148072721799593
 30
0.0
 11
56.268467180121021
 21
89.648072721799593
 31
0.0
  0
LINE
  5
140F
  8
0
 10
52.71846718012101
 20
88.148072721799593
 30
0.0
 11
52.71846718012101
 21
87.118197651799605
 31
0.0
  0
LINE
  5
1410
  8
0
 10
56.21846718012101
 20
87.118197651799605
 30
0.0
 11
56.21846718012101
 21
88.148072721799593
 31
0.0
  0
LINE
  5
148A
  8
0
 10
52.46846718012101
 20
70.818197651799608
 30
0.0
 11
56.46846718012101
 21
70.818197651799608
 31
0.0
  0
LINE
  5
148B
  8
0
 10
55.768467180121021
 20
70.118197651799605
 30
0.0
 11
53.168467180120999
 21
70.118197651799605
 31
0.0
  0
LINE
  5
148D
  8
0
 10
52.46846718012101
 20
89.648072721799593
 30
0.0
 11
56.46846718012101
 21
89.648072721799593
 31
0.0
  0
LINE
  5
148E
  8
0
 10
56.468467180120989
 20
99.148072721799593
 30
0.0
 11
52.46846718012101
 21
99.148072721799593
 31
0.0
  0
LINE
  5
1493
  8
0
 10
52.96846718012101
 20
99.648072721799593
 30
0.0
 11
55.968467180120989
 21
99.648072721799593
 31
0.0
  0
LINE
  5
1497
  8
0
 10
52.668467180120999
 20
88.148072721799593
 30
0.0
 11
56.268467180121021
 21
88.148072721799593
 31
0.0
  0
ARC
  5
149E
  8
0
 10
54.46861031902101
 20
84.769000539099608
 30
0.0
 40
6.3616976241293566
 50
69.288862152699934
 51
110.7138943295994
  0
ARC
  5
149F
  8
0
 10
54.469075436721013
 20
104.1312156482996
 30
0.0
 40
6.3655497896882016
 50
249.2947410668003
 51
290.69355359420069
  0
ARC
  5
1562
  8
0
 10
87.467853151254246
 20
136.27719765179961
 30
0.0
 40
1.5000000000000231
 50
103.4933988215995
 51
256.5066011784005
  0
LINE
  5
1566
  8
0
 10
87.117853151254252
 20
138.24633451849959
 30
0.0
 11
87.117853151254252
 21
134.3080607850996
 31
0.0
  0
ARC
  5
1567
  8
0
 10
87.467853151254246
 20
136.27719765179961
 30
0.0
 40
1.5000000000000231
 50
283.4933988215995
 51
76.506601178400501
  0
LINE
  5
156B
  8
0
 10
87.817853151254226
 20
134.3080607850996
 30
0.0
 11
87.817853151254226
 21
138.24633451849959
 31
0.0
  0
CIRCLE
  5
1630
  8
0
 10
87.467853151254232
 20
36.277197651799632
 30
0.0
 40
2.0000000000000142
  0
CIRCLE
  5
1631
  8
0
 10
87.467853151254232
 20
36.277197651799632
 30
0.0
 40
1.30000000000001
  0
CIRCLE
  5
1DB0
  8
0
 10
87.467853151254246
 20
136.27719765179961
 30
0.0
 40
1.9999999999492559
  0
LINE
  5
1E8E
  8
3
 10
56.089467180120749
 20
70.439197651799333
 30
0.0
 11
56.089467180120749
 21
85.118197651799591
 31
0.0
  0
LINE
  5
1E90
  8
3
 10
52.847467180121271
 20
70.439197651799333
 30
0.0
 11
52.847467180121257
 21
85.118197651799591
 31
0.0
  0
CIRCLE
  5
1E98
  8
3
 10
87.467853151254246
 20
36.277197651799632
 30
0.0
 40
1.6209999999997391
  0
ARC
  5
1E99
  8
3
 10
87.467853151254246
 20
136.27719765179961
 30
0.0
 40
1.6209999999997391
 50
102.4692784866827
 51
257.5307215133173
  0
LINE
  5
1E9A
  8
3
 10
89.088853151254014
 20
70.439197651799333
 30
0.0
 11
89.088853151254014
 21
85.106322581799603
 31
0.0
  0
LINE
  5
1E9B
  8
3
 10
85.846853151254535
 20
70.439197651799333
 30
0.0
 11
85.846853151254535
 21
85.106322581799603
 31
0.0
  0
LINE
  5
1E9C
  8
3
 10
156.08946718012069
 20
70.424260116799331
 30
0.0
 11
156.08946718012069
 21
85.103260116799603
 31
0.0
  0
LINE
  5
1E9D
  8
3
 10
152.8474671801213
 20
70.424260116799331
 30
0.0
 11
152.84746718012121
 21
85.103260116799603
 31
0.0
  0
ARC
  5
1F76
  8
3
 10
87.467853151254246
 20
136.27719765179961
 30
0.0
 40
1.6209999999997391
 50
282.46927848668258
 51
77.530721513317346
  0
LINE
  5
1F77
  8
3
 10
56.089467180120749
 20
89.648072721799579
 30
0.0
 11
56.089467180120749
 21
90.920749859145005
 31
0.0
  0
LINE
  5
1F78
  8
3
 10
52.847467180121221
 20
89.648072721799593
 30
0.0
 11
52.847467180121242
 21
90.92067442382816
 31
0.0
  0
LINE
  5
1F79
  8
3
 10
56.089467180120756
 20
97.975360328125049
 30
0.0
 11
56.089467180120749
 21
99.527072721799826
 31
0.0
  0
LINE
  5
1F7A
  8
3
 10
52.847467180121257
 20
97.97568067665604
 30
0.0
 11
52.847467180121271
 21
99.527072721799854
 31
0.0
  0
LINE
  5
1F7B
  8
3
 10
156.08946718012069
 20
89.633135186799578
 30
0.0
 11
156.08946718012069
 21
90.905812324145003
 31
0.0
  0
LINE
  5
1F7C
  8
3
 10
152.84746718012121
 20
89.633135186799606
 30
0.0
 11
152.84746718012121
 21
90.905736888828159
 31
0.0
  0
ENDSEC
  0
EOF
