  0
SECTION
  2
HEADER
  9
$ACADVER
  1
AC1009
  9
$INSBASE
 10
0.0
 20
0.0
 30
0.0
  9
$EXTMIN
 10
0.0
 20
-2.960436562073669
 30
0.0
  9
$EXTMAX
 10
167.36444565251881
 20
134.3783679856387
 30
0.0
  9
$LIMMIN
 10
0.0
 20
0.0
  9
$LIMMAX
 10
770.0
 20
540.0
  9
$ORTHOMODE
 70
     0
  9
$REGENMODE
 70
     1
  9
$FILLMODE
 70
     1
  9
$QTEXTMODE
 70
     0
  9
$MIRRTEXT
 70
     0
  9
$DRAGMODE
 70
     2
  9
$LTSCALE
 40
5.0
  9
$OSMODE
 70
  3071
  9
$ATTMODE
 70
     1
  9
$TEXTSIZE
 40
4.000000000000048
  9
$TRACEWID
 40
0.05
  9
$TEXTSTYLE
  7
STANDARD
  9
$CLAYER
  8
0
  9
$CELTYPE
  6
BYLAYER
  9
$CECOLOR
 62
   256
  9
$DIMSCALE
 40
2.0
  9
$DIMASZ
 40
3.0
  9
$DIMEXO
 40
2.0
  9
$DIMDLI
 40
0.38
  9
$DIMRND
 40
0.0
  9
$DIMDLE
 40
0.0
  9
$DIMEXE
 40
2.0
  9
$DIMTP
 40
0.0
  9
$DIMTM
 40
0.0
  9
$DIMTXT
 40
3.0
  9
$DIMCEN
 40
0.0
  9
$DIMTSZ
 40
0.0
  9
$DIMTOL
 70
     0
  9
$DIMLIM
 70
     0
  9
$DIMTIH
 70
     0
  9
$DIMTOH
 70
     0
  9
$DIMSE1
 70
     0
  9
$DIMSE2
 70
     0
  9
$DIMTAD
 70
     1
  9
$DIMZIN
 70
     0
  9
$DIMBLK
  1

  9
$DIMASO
 70
     0
  9
$DIMSHO
 70
     0
  9
$DIMPOST
  1

  9
$DIMAPOST
  1

  9
$DIMALT
 70
     0
  9
$DIMALTD
 70
     2
  9
$DIMALTF
 40
25.399999999999999
  9
$DIMLFAC
 40
1.0
  9
$DIMTOFL
 70
     0
  9
$DIMTVP
 40
1.6000000000000001
  9
$DIMTIX
 70
     1
  9
$DIMSOXD
 70
     0
  9
$DIMSAH
 70
     0
  9
$DIMBLK1
  1

  9
$DIMBLK2
  1

  9
$DIMSTYLE
  2
STANDARD
  9
$DIMCLRD
 70
     4
  9
$DIMCLRE
 70
     4
  9
$DIMCLRT
 70
     4
  9
$DIMTFAC
 40
1.0
  9
$DIMGAP
 40
0.09
  9
$LUNITS
 70
     2
  9
$LUPREC
 70
     1
  9
$SKETCHINC
 40
0.1
  9
$FILLETRAD
 40
0.0
  9
$AUNITS
 70
     0
  9
$AUPREC
 70
     0
  9
$MENU
  1
E:\r13\win\SUPPORT\ACAD
  9
$ELEVATION
 40
0.0
  9
$PELEVATION
 40
0.0
  9
$THICKNESS
 40
0.0
  9
$LIMCHECK
 70
     0
  9
$BLIPMODE
 70
     0
  9
$CHAMFERA
 40
1.1999999999999991
  9
$CHAMFERB
 40
1.1999999999999991
  9
$SKPOLY
 70
     0
  9
$TDCREATE
 40
2450158.583426042
  9
$TDUPDATE
 40
2456598.4236588888
  9
$TDINDWG
 40
0.152774838
  9
$TDUSRTIMER
 40
0.152774838
  9
$USRTIMER
 70
     1
  9
$ANGBASE
 50
0.0
  9
$ANGDIR
 70
     0
  9
$PDMODE
 70
     0
  9
$PDSIZE
 40
0.0
  9
$PLINEWID
 40
0.0
  9
$COORDS
 70
     1
  9
$SPLFRAME
 70
     0
  9
$SPLINETYPE
 70
     6
  9
$SPLINESEGS
 70
     8
  9
$ATTDIA
 70
     0
  9
$ATTREQ
 70
     1
  9
$HANDLING
 70
     1
  9
$HANDSEED
  5
F90
  9
$SURFTAB1
 70
     6
  9
$SURFTAB2
 70
     6
  9
$SURFTYPE
 70
     6
  9
$SURFU
 70
     6
  9
$SURFV
 70
     6
  9
$UCSNAME
  2

  9
$UCSORG
 10
0.0
 20
0.0
 30
0.0
  9
$UCSXDIR
 10
1.0
 20
0.0
 30
0.0
  9
$UCSYDIR
 10
0.0
 20
1.0
 30
0.0
  9
$PUCSNAME
  2

  9
$PUCSORG
 10
0.0
 20
0.0
 30
0.0
  9
$PUCSXDIR
 10
1.0
 20
0.0
 30
0.0
  9
$PUCSYDIR
 10
0.0
 20
1.0
 30
0.0
  9
$USERI1
 70
     3
  9
$USERI2
 70
     1
  9
$USERI3
 70
     0
  9
$USERI4
 70
     0
  9
$USERI5
 70
     0
  9
$USERR1
 40
2.0
  9
$USERR2
 40
3.0
  9
$USERR3
 40
3.0
  9
$USERR4
 40
3.0
  9
$USERR5
 40
10.0
  9
$WORLDVIEW
 70
     1
  9
$SHADEDGE
 70
     3
  9
$SHADEDIF
 70
    70
  9
$TILEMODE
 70
     1
  9
$MAXACTVP
 70
    16
  9
$PLIMCHECK
 70
     0
  9
$PEXTMIN
 10
1.0000000000000000E+020
 20
1.0000000000000000E+020
 30
1.0000000000000000E+020
  9
$PEXTMAX
 10
-1.0000000000000000E+020
 20
-1.0000000000000000E+020
 30
-1.0000000000000000E+020
  9
$PLIMMIN
 10
0.0
 20
0.0
  9
$PLIMMAX
 10
12.0
 20
9.0
  9
$UNITMODE
 70
     0
  9
$VISRETAIN
 70
     0
  9
$PLINEGEN
 70
     0
  9
$PSLTSCALE
 70
     0
  0
ENDSEC
  0
SECTION
  2
TABLES
  0
TABLE
  2
VPORT
 70
     1
  0
VPORT
  2
*ACTIVE
 70
     0
 10
0.0
 20
0.0
 11
1.0
 21
1.0
 12
384.98825162880632
 22
300.06130074792389
 13
0.0
 23
0.0
 14
10.0
 24
10.0
 15
10.0
 25
10.0
 16
0.0
 26
0.0
 36
1.0
 17
0.0
 27
0.0
 37
0.0
 40
613.70008338671539
 41
2.304913294797688
 42
50.0
 43
0.0
 44
0.0
 50
0.0
 51
0.0
 71
     0
 72
   500
 73
     1
 74
     0
 75
     0
 76
     0
 77
     0
 78
     2
  0
ENDTAB
  0
TABLE
  2
LTYPE
 70
     4
  0
LTYPE
  2
CONTINUOUS
 70
     0
  3
Solid Line
 72
    65
 73
     0
 40
0.0
  0
LTYPE
  2
CENTER
 70
     0
  3
____ _ ____ _ ____ _ ____ _ ____ _ ____ _ ____
 72
    65
 73
     4
 40
2.0
 49
1.25
 49
-0.25
 49
0.25
 49
-0.25
  0
LTYPE
  2
HIDDEN
 70
     0
  3
_ _ _ _ _ _ _ _ _ _ _ _ _ _ _ _ _ _ _ _ _ _ _
 72
    65
 73
     2
 40
0.375
 49
0.25
 49
-0.125
  0
LTYPE
  2
PHANTOM2
 70
     0
  3
___ _ _ ___ _ _ ___ _ _ ___ _ _
 72
    65
 73
     6
 40
1.25
 49
0.625
 49
-0.125
 49
0.125
 49
-0.125
 49
0.125
 49
-0.125
  0
ENDTAB
  0
TABLE
  2
LAYER
 70
     4
  0
LAYER
  2
0
 70
     0
 62
     7
  6
CONTINUOUS
  0
LAYER
  2
1
 70
     0
 62
     1
  6
CENTER
  0
LAYER
  2
2
 70
     0
 62
     2
  6
HIDDEN
  0
LAYER
  2
3
 70
     0
 62
     3
  6
CONTINUOUS
  0
ENDTAB
  0
TABLE
  2
STYLE
 70
     2
  0
STYLE
  2
STANDARD
 70
     0
 40
0.0
 41
1.0
 50
0.0
 71
     0
 42
4.000000000000048
  3
SIMPLEX
  4
BIGFONT
  0
STYLE
  2
STANDARD1
 70
     0
 40
0.0
 41
1.0
 50
0.0
 71
     0
 42
3.0
  3
txt
  4

  0
ENDTAB
  0
TABLE
  2
VIEW
 70
     1
  0
VIEW
  2
ALL
 70
     0
 40
179.5384664489153
 10
146.94997169852391
 20
89.769233224457665
 41
0.0
 11
0.0
 21
0.0
 31
1.0
 12
0.0
 22
0.0
 32
0.0
 42
50.0
 43
0.0
 44
0.0
 50
0.0
 71
     0
  0
ENDTAB
  0
TABLE
  2
UCS
 70
     0
  0
ENDTAB
  0
TABLE
  2
APPID
 70
     3
  0
APPID
  2
ACAD
 70
     0
  0
APPID
  2
ACAD_MLEADERVER
 70
     0
  0
APPID
  2
ACAD_NAV_VCDISPLAY
 70
     0
  0
ENDTAB
  0
TABLE
  2
DIMSTYLE
 70
     1
  0
DIMSTYLE
  2
STANDARD
 70
     0
  3

  4

  5

  6

  7

 40
1.0
 41
0.18
 42
0.0625
 43
0.38
 44
0.18
 45
0.0
 46
0.0
 47
0.0
 48
0.0
140
0.18
141
0.09
142
0.0
143
25.399999999999999
144
1.0
145
0.0
146
1.0
147
0.09
 71
     0
 72
     0
 73
     1
 74
     1
 75
     0
 76
     0
 77
     0
 78
     0
170
     0
171
     2
172
     0
173
     0
174
     0
175
     0
176
     0
177
     0
178
     0
  0
ENDTAB
  0
ENDSEC
  0
SECTION
  2
BLOCKS
  0
BLOCK
  8
0
  2
$MODEL_SPACE
 70
     0
 10
0.0
 20
0.0
 30
0.0
  3
$MODEL_SPACE
  1

  0
ENDBLK
  5
644
  8
0
  0
BLOCK
 67
     1
  8
0
  2
$PAPER_SPACE
 70
     0
 10
0.0
 20
0.0
 30
0.0
  3
$PAPER_SPACE
  1

  0
ENDBLK
  5
642
 67
     1
  8
0
  0
ENDSEC
  0
SECTION
  2
ENTITIES
  0
LINE
  5
C23
  8
1
 10
78.967853151254261
 20
125.8783679856387
 30
0.0
 11
129.96908120898769
 21
125.8783679856387
 31
0.0
  0
LINE
  5
C24
  8
1
 10
78.967853151254261
 20
44.676027317960482
 30
0.0
 11
129.96908120898769
 21
44.676027317960482
 31
0.0
  0
LINE
  5
C25
  8
0
 10
93.030002016576006
 20
46.926027317960468
 30
0.0
 11
100.7366848260131
 21
46.926027317960447
 31
0.0
  0
LINE
  5
C26
  8
0
 10
100.7366848260131
 20
42.426027317960461
 30
0.0
 11
93.030002016575992
 21
42.426027317960461
 31
0.0
  0
LINE
  5
C27
  8
0
 10
107.4678531512541
 20
49.676027317960433
 30
0.0
 11
90.738751232369736
 21
49.676027317960482
 31
0.0
  0
LINE
  5
C28
  8
0
 10
107.4678531512544
 20
39.676027317960397
 30
0.0
 11
90.767229768230905
 21
39.676027317960489
 31
0.0
  0
LINE
  5
C29
  8
0
 10
80.795807287684767
 20
130.87836798563859
 30
0.0
 11
107.4678531512542
 21
130.87836798563859
 31
0.0
  0
LINE
  5
C2A
  8
0
 10
80.795807287684767
 20
120.8783679856387
 30
0.0
 11
107.4678531512542
 21
120.8783679856387
 31
0.0
  0
LINE
  5
C2B
  8
0
 10
87.467853151254204
 20
90.540144464969444
 30
0.0
 11
102.4678531512542
 21
90.540144464969444
 31
0.0
  0
ARC
  5
C2C
  8
0
 10
100.7366848260131
 20
80.540144464969444
 30
0.0
 40
6.000000000000016
 50
90.0
 51
161.50517029167881
  0
LINE
  5
C2D
  8
1
 10
48.435196790606938
 20
72.722144464969446
 30
0.0
 11
48.435196790606938
 21
95.040144464969444
 31
0.0
  0
LINE
  5
C2E
  8
1
 10
87.467853151254246
 20
72.722144464969446
 30
0.0
 11
87.467853151254246
 21
93.040144464969444
 31
0.0
  0
LINE
  5
C2F
  8
0
 10
53.435196790606952
 20
90.536143807476023
 30
0.0
 11
53.435196790606952
 21
77.222144464969432
 31
0.0
  0
LINE
  5
C30
  8
0
 10
50.685196790606952
 20
90.536143807476023
 30
0.0
 11
50.685196790606952
 21
77.222144464969432
 31
0.0
  0
LINE
  5
C31
  8
0
 10
43.435196790606973
 20
90.536143807476023
 30
0.0
 11
43.435196790606973
 21
77.222144464969432
 31
0.0
  0
LINE
  5
C32
  8
0
 10
46.185196790606959
 20
90.536143807476023
 30
0.0
 11
46.185196790606952
 21
77.222144464969432
 31
0.0
  0
POLYLINE
  5
C33
  8
0
 66
     1
 10
0.0
 20
0.0
 30
0.0
 70
   128
  0
VERTEX
  5
DCA
  8
0
 10
95.046571119150116
 20
82.443458943180914
 30
0.0
  0
VERTEX
  5
DCB
  8
0
 10
94.664757162868256
 20
81.507665974329029
 30
0.0
  0
VERTEX
  5
DCC
  8
0
 10
94.168365139537087
 20
80.635403299840164
 30
0.0
  0
VERTEX
  5
DCD
  8
0
 10
93.568136328445291
 20
79.839624395938273
 30
0.0
  0
VERTEX
  5
DCE
  8
0
 10
92.875452260378438
 20
79.13254535584538
 30
0.0
  0
VERTEX
  5
DCF
  8
0
 10
91.924042551962629
 20
78.406911198752255
 30
0.0
  0
VERTEX
  5
DD0
  8
0
 10
90.879842936884899
 20
77.843790820214252
 30
0.0
  0
VERTEX
  5
DD1
  8
0
 10
89.769968432364522
 20
77.455155821944373
 30
0.0
  0
VERTEX
  5
DD2
  8
0
 10
88.622964412541961
 20
77.247584045708251
 30
0.0
  0
VERTEX
  5
DD3
  8
0
 10
87.467853151254346
 20
77.222144464969432
 30
0.0
  0
VERTEX
  5
DD4
  8
0
 10
86.333545703089996
 20
77.377716771042543
 30
0.0
  0
VERTEX
  5
DD5
  8
0
 10
85.247276475786634
 20
77.705831266267396
 30
0.0
  0
VERTEX
  5
DD6
  8
0
 10
84.235436366931339
 20
78.196039236342912
 30
0.0
  0
VERTEX
  5
DD7
  8
0
 10
83.321685929585243
 20
78.833294119951574
 30
0.0
  0
VERTEX
  5
DD8
  8
0
 10
82.526237410932112
 20
79.59852872464721
 30
0.0
  0
VERTEX
  5
DD9
  8
0
 10
81.867731056108667
 20
80.471284458504485
 30
0.0
  0
VERTEX
  5
DDA
  8
0
 10
81.358658730163896
 20
81.427325486225868
 30
0.0
  0
VERTEX
  5
DDB
  8
0
 10
81.009594483201724
 20
82.441667746265907
 30
0.0
  0
VERTEX
  5
DDC
  8
0
 10
80.826142497406494
 20
83.48811648665037
 30
0.0
  0
VERTEX
  5
DDD
  8
0
 10
80.808853151254254
 20
84.540144464969387
 30
0.0
  0
VERTEX
  5
DDE
  8
0
 10
80.9562752227408
 20
85.571368630165068
 30
0.0
  0
VERTEX
  5
DDF
  8
0
 10
81.260269927524746
 20
86.557082578030347
 30
0.0
  0
VERTEX
  5
DE0
  8
0
 10
81.710907146292556
 20
87.473390442405289
 30
0.0
  0
VERTEX
  5
DE1
  8
0
 10
82.294113977307987
 20
88.298982292395024
 30
0.0
  0
VERTEX
  5
DE2
  8
0
 10
82.992220779733955
 20
89.015776836489664
 30
0.0
  0
VERTEX
  5
DE3
  8
0
 10
83.786322539032724
 20
89.607155389043427
 30
0.0
  0
VERTEX
  5
DE4
  8
0
 10
84.654204979397804
 20
90.062179662394982
 30
0.0
  0
VERTEX
  5
DE5
  8
0
 10
85.573014994957447
 20
90.371673158049447
 30
0.0
  0
VERTEX
  5
DE6
  8
0
 10
86.518908455903812
 20
90.531005353403771
 30
0.0
  0
VERTEX
  5
DE7
  8
0
 10
87.467853151254204
 20
90.540144464969444
 30
0.0
  0
SEQEND
  5
DE8
  8
0
  0
LINE
  5
C34
  8
0
 10
54.435196790606952
 20
75.222144464969446
 30
0.0
 11
42.435196790606952
 21
75.222144464969446
 31
0.0
  0
LINE
  5
C35
  8
0
 10
54.435196790606952
 20
77.222144464969446
 30
0.0
 11
42.435196790606952
 21
77.222144464969446
 31
0.0
  0
LINE
  5
C36
  8
0
 10
42.435196790606952
 20
77.222144464969446
 30
0.0
 11
42.435196790606952
 21
75.222144464969446
 31
0.0
  0
LINE
  5
C37
  8
2
 10
46.335196790606943
 20
75.222144464969446
 30
0.0
 11
46.335196790606943
 21
77.222144464969446
 31
0.0
  0
LINE
  5
C38
  8
2
 10
50.535196790606932
 20
75.222144464969446
 30
0.0
 11
50.535196790606932
 21
77.222144464969446
 31
0.0
  0
LINE
  5
C39
  8
1
 10
87.467853151254246
 20
53.176027317960489
 30
0.0
 11
87.467853151254246
 21
36.176027317960518
 31
0.0
  0
LINE
  5
C3A
  8
0
 10
88.967853151254246
 20
37.676027317960461
 30
0.0
 11
88.967853151254246
 21
38.676027317960461
 31
0.0
  0
LINE
  5
C3B
  8
0
 10
85.967853151254246
 20
38.676027317960461
 30
0.0
 11
85.967853151254246
 21
37.676027317960461
 31
0.0
  0
LINE
  5
C3C
  8
0
 10
85.967853151254246
 20
37.676027317960461
 30
0.0
 11
88.967853151254246
 21
37.676027317960461
 31
0.0
  0
LINE
  5
C3D
  8
0
 10
54.435196790606952
 20
75.222144464969446
 30
0.0
 11
54.435196790606952
 21
77.222144464969446
 31
0.0
  0
CIRCLE
  5
C3E
  8
0
 10
87.467853151254246
 20
44.676027317960482
 30
0.0
 40
2.1000000000000001
  0
CIRCLE
  5
C3F
  8
0
 10
87.467853151254246
 20
44.676027317960482
 30
0.0
 40
1.649999999999999
  0
CIRCLE
  5
C40
  8
0
 10
87.467853151254246
 20
44.676027317960482
 30
0.0
 40
5.9999999999999956
  0
CIRCLE
  5
C41
  8
3
 10
87.467853151254246
 20
44.676027317960482
 30
0.0
 40
2.0
  0
LINE
  5
C42
  8
0
 10
83.467853151254261
 20
50.676027317960461
 30
0.0
 11
91.467853151254246
 21
50.676027317960461
 31
0.0
  0
LINE
  5
C43
  8
0
 10
83.467853151254261
 20
38.676027317960461
 30
0.0
 11
91.467853151254246
 21
38.676027317960461
 31
0.0
  0
LINE
  5
C44
  8
0
 10
84.192049310714026
 20
39.676027317960489
 30
0.0
 11
80.815677166238984
 21
39.676027317960461
 31
0.0
  0
LINE
  5
C45
  8
0
 10
81.914596051294296
 20
42.426027317960489
 30
0.0
 11
80.815677166238984
 21
42.426027317960461
 31
0.0
  0
LINE
  5
C46
  8
0
 10
80.795807287684767
 20
42.426027317960461
 30
0.0
 11
80.795807287684767
 21
39.676027317960461
 31
0.0
  0
LINE
  5
C47
  8
0
 10
83.467853151254261
 20
39.676027317960489
 30
0.0
 11
83.467853151254261
 21
38.676027317960461
 31
0.0
  0
LINE
  5
C48
  8
0
 10
80.815677166238984
 20
46.926027317960447
 30
0.0
 11
81.906102140048574
 21
46.926027317960468
 31
0.0
  0
LINE
  5
C49
  8
0
 10
84.184312174601445
 20
49.676027317960482
 30
0.0
 11
80.815677166238984
 21
49.676027317960461
 31
0.0
  0
LINE
  5
C4A
  8
0
 10
80.795807287684767
 20
49.676027317960461
 30
0.0
 11
80.795807287684767
 21
46.926027317960447
 31
0.0
  0
LINE
  5
C4B
  8
0
 10
83.467853151254261
 20
50.676027317960461
 30
0.0
 11
83.467853151254261
 21
49.676027317960482
 31
0.0
  0
LINE
  5
C4C
  8
0
 10
94.467853151254246
 20
46.926027317960447
 30
0.0
 11
94.467853151254246
 21
42.426027317960461
 31
0.0
  0
LINE
  5
C4D
  8
0
 10
91.467853151254246
 20
38.676027317960461
 30
0.0
 11
91.467853151254246
 21
39.676027317960489
 31
0.0
  0
LINE
  5
C4E
  8
0
 10
91.467853151254246
 20
49.676027317960482
 30
0.0
 11
91.467853151254246
 21
50.676027317960461
 31
0.0
  0
LINE
  5
C4F
  8
0
 10
93.467853151254246
 20
77.222144464969446
 30
0.0
 11
81.467853151254246
 21
77.222144464969446
 31
0.0
  0
LINE
  5
C50
  8
0
 10
93.467853151254246
 20
75.222144464969446
 30
0.0
 11
81.467853151254246
 21
75.222144464969446
 31
0.0
  0
LINE
  5
C51
  8
0
 10
81.467853151254246
 20
77.222144464969446
 30
0.0
 11
81.467853151254246
 21
75.222144464969446
 31
0.0
  0
LINE
  5
C52
  8
2
 10
85.367853151254266
 20
75.222144464969446
 30
0.0
 11
85.367853151254266
 21
77.222144464969446
 31
0.0
  0
LINE
  5
C53
  8
2
 10
89.567853151254255
 20
75.222144464969446
 30
0.0
 11
89.567853151254255
 21
77.222144464969446
 31
0.0
  0
LINE
  5
C54
  8
0
 10
93.467853151254246
 20
75.222144464969446
 30
0.0
 11
93.467853151254246
 21
77.222144464969446
 31
0.0
  0
LINE
  5
C55
  8
1
 10
56.935196790606938
 20
84.540144464969444
 30
0.0
 11
39.935196790606959
 21
84.540144464969444
 31
0.0
  0
LINE
  5
C56
  8
0
 10
55.350832157514077
 20
92.540144464969444
 30
0.0
 11
41.519178231738429
 21
92.540144464969444
 31
0.0
  0
LINE
  5
C57
  8
0
 10
53.435196790606952
 20
90.554616058894084
 30
0.0
 11
50.685196790606952
 21
90.554616058894084
 31
0.0
  0
POLYLINE
  5
C58
  8
0
 66
     1
 10
0.0
 20
0.0
 30
0.0
 70
   128
  0
VERTEX
  5
DE9
  8
0
 10
41.758896212572161
 20
92.044236732828352
 30
0.0
  0
VERTEX
  5
DEA
  8
0
 10
41.546709127942911
 20
92.212980652312524
 30
0.0
  0
VERTEX
  5
DEB
  8
0
 10
41.444124554429692
 20
92.397678711544785
 30
0.0
  0
SEQEND
  5
DEC
  8
0
  0
LINE
  5
C59
  8
0
 10
41.435196790606831
 20
92.454296863149196
 30
0.0
 11
41.435196790606952
 21
86.040144464969444
 31
0.0
  0
LINE
  5
C5A
  8
2
 10
50.435196790606952
 20
80.540144464969444
 30
0.0
 11
50.435196790606931
 21
88.540144464969444
 31
0.0
  0
LINE
  5
C5B
  8
2
 10
50.085196790606943
 20
80.540144464969444
 30
0.0
 11
50.085196790606943
 21
88.540144464969444
 31
0.0
  0
LINE
  5
C5C
  8
2
 10
46.78519679060696
 20
80.540144464969444
 30
0.0
 11
46.78519679060696
 21
88.540144464969444
 31
0.0
  0
LINE
  5
C5D
  8
2
 10
46.435196790606952
 20
80.540144464969444
 30
0.0
 11
46.435196790606938
 21
88.540144464969444
 31
0.0
  0
LINE
  5
C5E
  8
0
 10
41.435196790606952
 20
86.040144464969444
 30
0.0
 11
41.435196790606952
 21
83.040144464969444
 31
0.0
  0
LINE
  5
C5F
  8
0
 10
42.435196790606952
 20
88.540144464969444
 30
0.0
 11
42.435196790606952
 21
80.540144464969444
 31
0.0
  0
LINE
  5
C60
  8
0
 10
42.435196790606952
 20
80.540144464969444
 30
0.0
 11
43.435196790606973
 21
80.540144464969444
 31
0.0
  0
LINE
  5
C61
  8
0
 10
41.435196790606952
 20
83.040144464969444
 30
0.0
 11
42.435196790606952
 21
83.040144464969444
 31
0.0
  0
POLYLINE
  5
C62
  8
0
 66
     1
 10
0.0
 20
0.0
 30
0.0
 70
   128
  0
VERTEX
  5
DED
  8
0
 10
46.78519679060696
 20
80.540144464969444
 30
0.0
  0
VERTEX
  5
DEE
  8
0
 10
46.801425479147689
 20
80.546811433760126
 30
0.0
  0
VERTEX
  5
DEF
  8
0
 10
46.950229815246537
 20
80.605347530194905
 30
0.0
  0
VERTEX
  5
DF0
  8
0
 10
47.247929610364288
 20
80.707768784365911
 30
0.0
  0
VERTEX
  5
DF1
  8
0
 10
47.695590088908652
 20
80.822010783510805
 30
0.0
  0
VERTEX
  5
DF2
  8
0
 10
47.96052492144544
 20
80.865374202233994
 30
0.0
  0
VERTEX
  5
DF3
  8
0
 10
48.241476499628639
 20
80.891168231676502
 30
0.0
  0
VERTEX
  5
DF4
  8
0
 10
48.771357325243741
 20
80.880840719029877
 30
0.0
  0
VERTEX
  5
DF5
  8
0
 10
49.241504173176821
 20
80.808170242766579
 30
0.0
  0
VERTEX
  5
DF6
  8
0
 10
49.653661350343917
 20
80.697989355745577
 30
0.0
  0
VERTEX
  5
DF7
  8
0
 10
49.957738220299447
 20
80.591013876456316
 30
0.0
  0
VERTEX
  5
DF8
  8
0
 10
50.043459136241843
 20
80.557230875383141
 30
0.0
  0
VERTEX
  5
DF9
  8
0
 10
50.082868354218569
 20
80.541104382457846
 30
0.0
  0
VERTEX
  5
DFA
  8
0
 10
50.085196790606943
 20
80.540144464969444
 30
0.0
  0
SEQEND
  5
DFB
  8
0
  0
LINE
  5
C63
  8
0
 10
46.185196790606959
 20
80.540144464969444
 30
0.0
 11
46.78519679060696
 21
80.540144464969444
 31
0.0
  0
LINE
  5
C64
  8
0
 10
50.085196790606943
 20
80.540144464969444
 30
0.0
 11
50.685196790606959
 21
80.540144464969444
 31
0.0
  0
LINE
  5
C65
  8
0
 10
46.185196790606959
 20
90.554616058894084
 30
0.0
 11
43.435196790606973
 21
90.554616058894084
 31
0.0
  0
POLYLINE
  5
C66
  8
0
 66
     1
 10
0.0
 20
0.0
 30
0.0
 70
   128
  0
VERTEX
  5
DFC
  8
0
 10
41.758896212572161
 20
86.092305788304756
 30
0.0
  0
VERTEX
  5
DFD
  8
0
 10
42.005669160524931
 20
86.284308228718388
 30
0.0
  0
VERTEX
  5
DFE
  8
0
 10
42.236697227354
 20
86.424383007216619
 30
0.0
  0
VERTEX
  5
DFF
  8
0
 10
42.435196790606959
 20
86.504092671674783
 30
0.0
  0
SEQEND
  5
E00
  8
0
  0
LINE
  5
C67
  8
0
 10
42.435196790606952
 20
86.040144464969444
 30
0.0
 11
41.435196790606952
 21
86.040144464969444
 31
0.0
  0
LINE
  5
C68
  8
0
 10
41.719187584029619
 20
86.040144464969444
 30
0.0
 11
41.758896212572161
 21
86.092305788304756
 31
0.0
  0
LINE
  5
C69
  8
0
 10
43.435196790606973
 20
88.540144464969444
 30
0.0
 11
42.435196790606952
 21
88.540144464969444
 31
0.0
  0
POLYLINE
  5
C6A
  8
0
 66
     1
 10
0.0
 20
0.0
 30
0.0
 70
   128
  0
VERTEX
  5
E01
  8
0
 10
43.435196790606881
 20
90.687765656805908
 30
0.0
  0
VERTEX
  5
E02
  8
0
 10
43.40937278412396
 20
90.779712578955085
 30
0.0
  0
VERTEX
  5
E03
  8
0
 10
43.332110950280331
 20
90.893576203489715
 30
0.0
  0
VERTEX
  5
E04
  8
0
 10
43.202660705847101
 20
91.030043701316572
 30
0.0
  0
VERTEX
  5
E05
  8
0
 10
43.02187170501859
 20
91.187931290558538
 30
0.0
  0
VERTEX
  5
E06
  8
0
 10
42.784979902544947
 20
91.370575048681573
 30
0.0
  0
VERTEX
  5
E07
  8
0
 10
42.495916184364901
 20
91.574185496521764
 30
0.0
  0
VERTEX
  5
E08
  8
0
 10
42.152985970316038
 20
91.799506145663216
 30
0.0
  0
VERTEX
  5
E09
  8
0
 10
41.758896212572161
 20
92.044236732828338
 30
0.0
  0
SEQEND
  5
E0A
  8
0
  0
LINE
  5
C6B
  8
0
 10
43.435196790606902
 20
90.540144464969444
 30
0.0
 11
43.435196790606881
 21
90.687765656805908
 31
0.0
  0
POLYLINE
  5
C6C
  8
0
 66
     1
 10
0.0
 20
0.0
 30
0.0
 70
   128
  0
VERTEX
  5
E0B
  8
0
 10
50.085196790606943
 20
88.540144464969444
 30
0.0
  0
VERTEX
  5
E0C
  8
0
 10
50.000644624469018
 20
88.506014725144809
 30
0.0
  0
VERTEX
  5
E0D
  8
0
 10
49.760072516941101
 20
88.417359404875342
 30
0.0
  0
VERTEX
  5
E0E
  8
0
 10
49.371415973292223
 20
88.302325528930595
 30
0.0
  0
VERTEX
  5
E0F
  8
0
 10
49.123215792271381
 20
88.248463756754674
 30
0.0
  0
VERTEX
  5
E10
  8
0
 10
48.852603656787387
 20
88.207804276338905
 30
0.0
  0
VERTEX
  5
E11
  8
0
 10
48.304609449742117
 20
88.186314106332048
 30
0.0
  0
VERTEX
  5
E12
  8
0
 10
47.81124533710183
 20
88.237010085509525
 30
0.0
  0
VERTEX
  5
E13
  8
0
 10
47.373547892826871
 20
88.335483498857954
 30
0.0
  0
VERTEX
  5
E14
  8
0
 10
47.016401101931187
 20
88.450448955185635
 30
0.0
  0
VERTEX
  5
E15
  8
0
 10
46.89267642075648
 20
88.496978721508626
 30
0.0
  0
VERTEX
  5
E16
  8
0
 10
46.814347665836202
 20
88.528208141149904
 30
0.0
  0
VERTEX
  5
E17
  8
0
 10
46.78519679060696
 20
88.540144464969444
 30
0.0
  0
SEQEND
  5
E18
  8
0
  0
LINE
  5
C6D
  8
0
 10
46.185196790606923
 20
90.540144464969444
 30
0.0
 11
50.685196790606923
 21
90.540144464969444
 31
0.0
  0
LINE
  5
C6E
  8
0
 10
46.78519679060696
 20
88.540144464969444
 30
0.0
 11
46.185196790606959
 21
88.540144464969444
 31
0.0
  0
LINE
  5
C6F
  8
0
 10
50.685196790606959
 20
88.540144464969444
 30
0.0
 11
50.085196790606943
 21
88.540144464969444
 31
0.0
  0
POLYLINE
  5
C70
  8
0
 66
     1
 10
0.0
 20
0.0
 30
0.0
 70
   128
  0
VERTEX
  5
E19
  8
0
 10
41.519178231738429
 20
92.527485249970638
 30
0.0
  0
VERTEX
  5
E1A
  8
0
 10
41.476978248374259
 20
92.534795579740972
 30
0.0
  0
VERTEX
  5
E1B
  8
0
 10
41.43658323583675
 20
92.439516642022056
 30
0.0
  0
VERTEX
  5
E1C
  8
0
 10
41.444124554429692
 20
92.397678711544799
 30
0.0
  0
SEQEND
  5
E1D
  8
0
  0
POLYLINE
  5
C71
  8
0
 66
     1
 10
0.0
 20
0.0
 30
0.0
 70
   128
  0
VERTEX
  5
E1E
  8
0
 10
55.111497368641508
 20
92.044236732828352
 30
0.0
  0
VERTEX
  5
E1F
  8
0
 10
55.231065255711968
 20
92.126693594530906
 30
0.0
  0
VERTEX
  5
E20
  8
0
 10
55.323684453270758
 20
92.212980652312524
 30
0.0
  0
VERTEX
  5
E21
  8
0
 10
55.389196609609513
 20
92.303621288682635
 30
0.0
  0
VERTEX
  5
E22
  8
0
 10
55.42626902678397
 20
92.397678711544799
 30
0.0
  0
SEQEND
  5
E23
  8
0
  0
LINE
  5
C72
  8
0
 10
55.435196790606831
 20
85.321857940874068
 30
0.0
 11
55.435196790606831
 21
92.448832993074944
 31
0.0
  0
POLYLINE
  5
C73
  8
0
 66
     1
 10
0.0
 20
0.0
 30
0.0
 70
   128
  0
VERTEX
  5
E24
  8
0
 10
55.14707293005327
 20
84.176508101333084
 30
0.0
  0
VERTEX
  5
E25
  8
0
 10
55.369513229101592
 20
84.830893470992208
 30
0.0
  0
VERTEX
  5
E26
  8
0
 10
55.423836145703604
 20
85.131901404489653
 30
0.0
  0
VERTEX
  5
E27
  8
0
 10
55.432961625786248
 20
85.406248403250004
 30
0.0
  0
VERTEX
  5
E28
  8
0
 10
55.344118911579642
 20
85.786733725977001
 30
0.0
  0
VERTEX
  5
E29
  8
0
 10
55.111497368641508
 20
86.092305788304756
 30
0.0
  0
SEQEND
  5
E2A
  8
0
  0
LINE
  5
C74
  8
0
 10
54.435196790606952
 20
88.540144464969444
 30
0.0
 11
54.435196790606952
 21
80.540144464969444
 31
0.0
  0
LINE
  5
C75
  8
0
 10
53.435196790606973
 20
80.540144464969444
 30
0.0
 11
54.435196790606952
 21
80.540144464969444
 31
0.0
  0
POLYLINE
  5
C76
  8
0
 66
     1
 10
0.0
 20
0.0
 30
0.0
 70
   128
  0
VERTEX
  5
E2B
  8
0
 10
54.435196790606959
 20
83.569057106680475
 30
0.0
  0
VERTEX
  5
E2C
  8
0
 10
54.672875715752262
 20
83.638882672355294
 30
0.0
  0
VERTEX
  5
E2D
  8
0
 10
54.911304606979698
 20
83.808033338542032
 30
0.0
  0
VERTEX
  5
E2E
  8
0
 10
55.14707293005327
 20
84.176508101333084
 30
0.0
  0
SEQEND
  5
E2F
  8
0
  0
POLYLINE
  5
C77
  8
0
 66
     1
 10
0.0
 20
0.0
 30
0.0
 70
   128
  0
VERTEX
  5
E30
  8
0
 10
55.111497368641508
 20
86.092305788304756
 30
0.0
  0
VERTEX
  5
E31
  8
0
 10
54.864724420688738
 20
86.284308228718388
 30
0.0
  0
VERTEX
  5
E32
  8
0
 10
54.633696353859669
 20
86.424383007216619
 30
0.0
  0
VERTEX
  5
E33
  8
0
 10
54.435196790606959
 20
86.504092671674698
 30
0.0
  0
SEQEND
  5
E34
  8
0
  0
POLYLINE
  5
C78
  8
0
 66
     1
 10
0.0
 20
0.0
 30
0.0
 70
   128
  0
VERTEX
  5
E35
  8
0
 10
53.435196790606881
 20
90.687765656805908
 30
0.0
  0
VERTEX
  5
E36
  8
0
 10
53.461020797089787
 20
90.779712578955085
 30
0.0
  0
VERTEX
  5
E37
  8
0
 10
53.538282630933402
 20
90.893576203489715
 30
0.0
  0
VERTEX
  5
E38
  8
0
 10
53.667732875366632
 20
91.030043701316572
 30
0.0
  0
VERTEX
  5
E39
  8
0
 10
53.848521876195122
 20
91.187931290558552
 30
0.0
  0
VERTEX
  5
E3A
  8
0
 10
54.085413678668743
 20
91.370575048681573
 30
0.0
  0
VERTEX
  5
E3B
  8
0
 10
54.37447739684881
 20
91.574185496521764
 30
0.0
  0
VERTEX
  5
E3C
  8
0
 10
54.717407610897652
 20
91.799506145663258
 30
0.0
  0
VERTEX
  5
E3D
  8
0
 10
55.111497368641523
 20
92.044236732828352
 30
0.0
  0
SEQEND
  5
E3E
  8
0
  0
LINE
  5
C79
  8
0
 10
54.435196790606952
 20
88.540144464969444
 30
0.0
 11
53.435196790606973
 21
88.540144464969444
 31
0.0
  0
LINE
  5
C7A
  8
0
 10
53.435196790606902
 20
90.540144464969444
 30
0.0
 11
53.435196790606881
 21
90.687765656805908
 31
0.0
  0
POLYLINE
  5
C7B
  8
0
 66
     1
 10
0.0
 20
0.0
 30
0.0
 70
   128
  0
VERTEX
  5
E3F
  8
0
 10
55.42626902678397
 20
92.397678711544799
 30
0.0
  0
VERTEX
  5
E40
  8
0
 10
55.41775555366673
 20
92.519097136589536
 30
0.0
  0
VERTEX
  5
E41
  8
0
 10
55.350832157514091
 20
92.527004777708612
 30
0.0
  0
SEQEND
  5
E42
  8
0
  0
LINE
  5
C7C
  8
1
 10
93.967853151254246
 20
84.540144464969444
 30
0.0
 11
80.967853151254246
 21
84.540144464969444
 31
0.0
  0
CIRCLE
  5
C7D
  8
0
 10
87.467853151254246
 20
84.540144464969444
 30
0.0
 40
4.0
  0
LINE
  5
C7E
  8
2
 10
85.467853151254246
 20
81.076042849831694
 30
0.0
 11
85.467853151254246
 21
88.004246080107194
 31
0.0
  0
LINE
  5
C7F
  8
2
 10
85.817853151254255
 20
80.896314062769022
 30
0.0
 11
85.817853151254255
 21
88.183974867169852
 31
0.0
  0
LINE
  5
C80
  8
2
 10
89.117853151254266
 20
80.896314062769022
 30
0.0
 11
89.117853151254266
 21
88.183974867169852
 31
0.0
  0
LINE
  5
C81
  8
2
 10
89.467853151254246
 20
81.076042849831694
 30
0.0
 11
89.467853151254246
 21
88.004246080107194
 31
0.0
  0
LINE
  5
C82
  8
1
 10
87.467853151254246
 20
134.3783679856387
 30
0.0
 11
87.467853151254246
 21
117.3783679856387
 31
0.0
  0
LINE
  5
C83
  8
0
 10
91.467853151254246
 20
130.87836798563859
 30
0.0
 11
91.467853151254246
 21
131.8783679856387
 31
0.0
  0
LINE
  5
C84
  8
0
 10
83.467853151254261
 20
131.8783679856387
 30
0.0
 11
83.467853151254261
 21
130.87836798563859
 31
0.0
  0
CIRCLE
  5
C85
  8
3
 10
87.467853151254246
 20
125.8783679856387
 30
0.0
 40
2.0
  0
LINE
  5
C86
  8
0
 10
80.795807287684767
 20
128.12836798563859
 30
0.0
 11
94.467853151254246
 21
128.12836798563859
 31
0.0
  0
LINE
  5
C87
  8
0
 10
94.467853151254246
 20
123.6283679856387
 30
0.0
 11
80.795807287684767
 21
123.6283679856386
 31
0.0
  0
POLYLINE
  5
C88
  8
0
 66
     1
 10
0.0
 20
0.0
 30
0.0
 70
   128
  0
VERTEX
  5
E43
  8
0
 10
87.467853151254246
 20
124.2283679856386
 30
0.0
  0
VERTEX
  5
E44
  8
0
 10
86.946438652552388
 20
124.31292015177659
 30
0.0
  0
VERTEX
  5
E45
  8
0
 10
86.484387691885956
 20
124.55349225930451
 30
0.0
  0
VERTEX
  5
E46
  8
0
 10
86.109179665102374
 20
124.9421488029534
 30
0.0
  0
VERTEX
  5
E47
  8
0
 10
85.968341724504967
 20
125.1903489839742
 30
0.0
  0
VERTEX
  5
E48
  8
0
 10
85.871522512550186
 20
125.4609611194582
 30
0.0
  0
VERTEX
  5
E49
  8
0
 10
85.823028860819036
 20
126.0089553265035
 30
0.0
  0
VERTEX
  5
E4A
  8
0
 10
85.940376610135274
 20
126.5023194391438
 30
0.0
  0
VERTEX
  5
E4B
  8
0
 10
86.204761065204195
 20
126.94001688341881
 30
0.0
  0
VERTEX
  5
E4C
  8
0
 10
86.625523765684079
 20
127.2971636743144
 30
0.0
  0
VERTEX
  5
E4D
  8
0
 10
86.882650736326354
 20
127.4208883554891
 30
0.0
  0
VERTEX
  5
E4E
  8
0
 10
87.159068250830288
 20
127.4992171104094
 30
0.0
  0
VERTEX
  5
E4F
  8
0
 10
87.467853151254246
 20
127.5283679856387
 30
0.0
  0
SEQEND
  5
E50
  8
0
  0
LINE
  5
C89
  8
0
 10
91.467853151254246
 20
119.8783679856387
 30
0.0
 11
83.467853151254261
 21
119.8783679856387
 31
0.0
  0
ARC
  5
C8A
  8
0
 10
87.467853151254246
 20
125.8783679856387
 30
0.0
 40
5.9999999999999982
 50
157.93969478948881
 51
202.02595730525309
  0
LINE
  5
C8B
  8
0
 10
83.467853151254261
 20
128.12836798563859
 30
0.0
 11
83.467853151254261
 21
123.6283679856387
 31
0.0
  0
LINE
  5
C8C
  8
0
 10
80.795807287684767
 20
123.6283679856387
 30
0.0
 11
80.795807287684767
 21
120.8783679856387
 31
0.0
  0
LINE
  5
C8D
  8
0
 10
83.467853151254261
 20
120.8783679856387
 30
0.0
 11
83.467853151254261
 21
119.8783679856387
 31
0.0
  0
LINE
  5
C8E
  8
0
 10
80.795807287684767
 20
130.8783679856387
 30
0.0
 11
80.795807287684767
 21
128.1283679856387
 31
0.0
  0
LINE
  5
C8F
  8
0
 10
94.467853151254246
 20
128.12836798563859
 30
0.0
 11
94.467853151254246
 21
123.6283679856387
 31
0.0
  0
ARC
  5
C90
  8
0
 10
87.467853151254246
 20
125.8783679856387
 30
0.0
 40
6.0000000000000027
 50
337.97568716295791
 51
22.024312837041329
  0
LINE
  5
C91
  8
0
 10
91.467853151254246
 20
123.6283679856387
 30
0.0
 11
91.467853151254246
 21
128.12836798563859
 31
0.0
  0
LINE
  5
C92
  8
0
 10
91.467853151254246
 20
119.8783679856387
 30
0.0
 11
91.467853151254246
 21
120.8783679856387
 31
0.0
  0
POLYLINE
  5
C94
  8
0
 66
     1
 10
0.0
 20
0.0
 30
0.0
 70
   128
  0
VERTEX
  5
E51
  8
0
 10
87.467853151254246
 20
127.5283679856387
 30
0.0
  0
VERTEX
  5
E52
  8
0
 10
87.698702240168757
 20
127.5121392970979
 30
0.0
  0
VERTEX
  5
E53
  8
0
 10
88.187139660295614
 20
127.3633349609991
 30
0.0
  0
VERTEX
  5
E54
  8
0
 10
88.613670170991085
 20
127.0656351658813
 30
0.0
  0
VERTEX
  5
E55
  8
0
 10
88.94280465106803
 20
126.617974687337
 30
0.0
  0
VERTEX
  5
E56
  8
0
 10
89.047878622449346
 20
126.3530398548002
 30
0.0
  0
VERTEX
  5
E57
  8
0
 10
89.106441705121057
 20
126.072088276617
 30
0.0
  0
VERTEX
  5
E58
  8
0
 10
89.083246631169473
 20
125.5422074510019
 30
0.0
  0
VERTEX
  5
E59
  8
0
 10
88.907425450520009
 20
125.07206060306881
 30
0.0
  0
VERTEX
  5
E5A
  8
0
 10
88.580437582506534
 20
124.6599034259017
 30
0.0
  0
VERTEX
  5
E5B
  8
0
 10
88.103752195812376
 20
124.35582655594619
 30
0.0
  0
VERTEX
  5
E5C
  8
0
 10
87.835658231105754
 20
124.27010564000381
 30
0.0
  0
VERTEX
  5
E5D
  8
0
 10
87.555479736635505
 20
124.23069642202699
 30
0.0
  0
VERTEX
  5
E5E
  8
0
 10
87.467853151254246
 20
124.2283679856386
 30
0.0
  0
SEQEND
  5
E5F
  8
0
  0
LINE
  5
C96
  8
0
 10
88.217853151254261
 20
132.8783679856387
 30
0.0
 11
85.967853151254246
 21
132.8783679856387
 31
0.0
  0
LINE
  5
C97
  8
0
 10
91.467853151254246
 20
131.8783679856387
 30
0.0
 11
83.467853151254261
 21
131.8783679856387
 31
0.0
  0
LINE
  5
C98
  8
0
 10
85.967853151254246
 20
132.8783679856387
 30
0.0
 11
85.967853151254246
 21
131.8783679856387
 31
0.0
  0
LINE
  5
C99
  8
0
 10
88.967853151254246
 20
132.8783679856387
 30
0.0
 11
88.217853151254261
 21
132.8783679856387
 31
0.0
  0
LINE
  5
C9A
  8
0
 10
88.967853151254246
 20
131.8783679856387
 30
0.0
 11
88.967853151254246
 21
132.8783679856387
 31
0.0
  0
LINE
  5
C9B
  8
1
 10
158.86444565251881
 20
72.722144464969446
 30
0.0
 11
158.86444565251881
 21
95.040144464969444
 31
0.0
  0
LINE
  5
C9C
  8
0
 10
153.86444565251881
 20
83.540144464969444
 30
0.0
 11
153.86444565251881
 21
77.231285476497646
 31
0.0
  0
LINE
  5
C9D
  8
0
 10
156.61444565251881
 20
77.231285476497646
 30
0.0
 11
156.61444565251881
 21
83.540144464969444
 31
0.0
  0
LINE
  5
C9E
  8
0
 10
163.86444565251881
 20
83.540144464969444
 30
0.0
 11
163.86444565251881
 21
77.231285476497646
 31
0.0
  0
LINE
  5
C9F
  8
0
 10
161.11444565251881
 20
83.540144464969444
 30
0.0
 11
161.11444565251881
 21
77.231285476497646
 31
0.0
  0
POLYLINE
  5
CA0
  8
0
 66
     1
 10
0.0
 20
0.0
 30
0.0
 70
   128
  0
VERTEX
  5
E60
  8
0
 10
118.3638069084796
 20
37.999726739925777
 30
0.0
  0
VERTEX
  5
E61
  8
0
 10
117.5473969869529
 20
38.24649968787854
 30
0.0
  0
VERTEX
  5
E62
  8
0
 10
116.7120306231937
 20
38.477527754707623
 30
0.0
  0
VERTEX
  5
E63
  8
0
 10
115.85292717973959
 20
38.69291027544368
 30
0.0
  0
VERTEX
  5
E64
  8
0
 10
114.9810201707491
 20
38.888892703278302
 30
0.0
  0
SEQEND
  5
E65
  8
0
  0
POLYLINE
  5
CA1
  8
0
 66
     1
 10
0.0
 20
0.0
 30
0.0
 70
   128
  0
VERTEX
  5
E66
  8
0
 10
122.455494640238
 20
37.964151178514022
 30
0.0
  0
VERTEX
  5
E67
  8
0
 10
122.93446750257191
 20
38.125308044225498
 30
0.0
  0
VERTEX
  5
E68
  8
0
 10
123.4356620403663
 20
38.336302529161863
 30
0.0
  0
VERTEX
  5
E69
  8
0
 10
123.93712039507621
 20
38.596502500997651
 30
0.0
  0
VERTEX
  5
E6A
  8
0
 10
124.42495149537071
 20
38.901828438895883
 30
0.0
  0
VERTEX
  5
E6B
  8
0
 10
125.0474166074912
 20
39.382430418553611
 30
0.0
  0
VERTEX
  5
E6C
  8
0
 10
125.6056561021652
 20
39.921768086743647
 30
0.0
  0
VERTEX
  5
E6D
  8
0
 10
126.0662384942259
 20
40.474046584900528
 30
0.0
  0
VERTEX
  5
E6E
  8
0
 10
126.462802115765
 20
41.062296263194042
 30
0.0
  0
VERTEX
  5
E6F
  8
0
 10
126.793796992352
 20
41.678956327930848
 30
0.0
  0
VERTEX
  5
E70
  8
0
 10
127.0719310168306
 20
42.354824537178708
 30
0.0
  0
VERTEX
  5
E71
  8
0
 10
127.2803194277986
 20
43.065965851130251
 30
0.0
  0
VERTEX
  5
E72
  8
0
 10
127.41396795408249
 20
43.809142581718127
 30
0.0
  0
VERTEX
  5
E73
  8
0
 10
127.4541777830425
 20
44.239781460853642
 30
0.0
  0
VERTEX
  5
E74
  8
0
 10
127.4678531512542
 20
44.676027317960461
 30
0.0
  0
VERTEX
  5
E75
  8
0
 10
127.4269545869352
 20
45.427805762224182
 30
0.0
  0
VERTEX
  5
E76
  8
0
 10
127.3095927121723
 20
46.156094809857152
 30
0.0
  0
VERTEX
  5
E77
  8
0
 10
127.1071729454039
 20
46.894965465419489
 30
0.0
  0
VERTEX
  5
E78
  8
0
 10
126.8283083746972
 20
47.599857624605129
 30
0.0
  0
VERTEX
  5
E79
  8
0
 10
126.4754515705894
 20
48.268903774506278
 30
0.0
  0
VERTEX
  5
E7A
  8
0
 10
125.93435630883501
 20
49.047943963791283
 30
0.0
  0
VERTEX
  5
E7B
  8
0
 10
125.2774514189294
 20
49.762063545080437
 30
0.0
  0
VERTEX
  5
E7C
  8
0
 10
124.7409448816864
 20
50.220021969971242
 30
0.0
  0
VERTEX
  5
E7D
  8
0
 10
124.1579467794007
 20
50.624406005931903
 30
0.0
  0
VERTEX
  5
E7E
  8
0
 10
123.64384041759369
 20
50.913706243105914
 30
0.0
  0
VERTEX
  5
E7F
  8
0
 10
123.1249243867905
 20
51.152135134333328
 30
0.0
  0
VERTEX
  5
E80
  8
0
 10
122.455494640238
 20
51.387903457406907
 30
0.0
  0
SEQEND
  5
E81
  8
0
  0
POLYLINE
  5
CA2
  8
0
 66
     1
 10
0.0
 20
0.0
 30
0.0
 70
   128
  0
VERTEX
  5
E82
  8
0
 10
122.455494640238
 20
37.964151178514022
 30
0.0
  0
VERTEX
  5
E83
  8
0
 10
121.4245430335157
 20
37.7417108794657
 30
0.0
  0
VERTEX
  5
E84
  8
0
 10
120.8657413245798
 20
37.687387962863681
 30
0.0
  0
VERTEX
  5
E85
  8
0
 10
120.29097095450619
 20
37.678262482781037
 30
0.0
  0
VERTEX
  5
E86
  8
0
 10
119.3423332152547
 20
37.767105196987643
 30
0.0
  0
VERTEX
  5
E87
  8
0
 10
118.3638069084796
 20
37.999726739925777
 30
0.0
  0
SEQEND
  5
E88
  8
0
  0
POLYLINE
  5
CA3
  8
0
 66
     1
 10
0.0
 20
0.0
 30
0.0
 70
   128
  0
VERTEX
  5
E89
  8
0
 10
118.3638069084797
 20
51.352327895995131
 30
0.0
  0
VERTEX
  5
E8A
  8
0
 10
117.5473969869529
 20
51.105554948042368
 30
0.0
  0
VERTEX
  5
E8B
  8
0
 10
116.7120306231937
 20
50.874526881213299
 30
0.0
  0
VERTEX
  5
E8C
  8
0
 10
115.85292717973959
 20
50.659144360477228
 30
0.0
  0
VERTEX
  5
E8D
  8
0
 10
114.9810201707491
 20
50.463161932642613
 30
0.0
  0
SEQEND
  5
E8E
  8
0
  0
ARC
  5
CA4
  8
0
 10
107.4678531512542
 20
3.426027317960461
 30
0.0
 40
36.25
 50
78.038183505839541
 51
90.0
  0
ARC
  5
CA5
  8
0
 10
107.4678531512542
 20
85.926027317960447
 30
0.0
 40
36.25
 50
270.0000000000008
 51
281.96181649416121
  0
POLYLINE
  5
CA6
  8
0
 66
     1
 10
0.0
 20
0.0
 30
0.0
 70
   128
  0
VERTEX
  5
E8F
  8
0
 10
122.455494640238
 20
51.387903457406907
 30
0.0
  0
VERTEX
  5
E90
  8
0
 10
121.4245430335157
 20
51.610343756455201
 30
0.0
  0
VERTEX
  5
E91
  8
0
 10
120.8657413245798
 20
51.664666673057241
 30
0.0
  0
VERTEX
  5
E92
  8
0
 10
120.29097095450619
 20
51.673792153139871
 30
0.0
  0
VERTEX
  5
E93
  8
0
 10
119.3423332152547
 20
51.584949438933272
 30
0.0
  0
VERTEX
  5
E94
  8
0
 10
118.3638069084796
 20
51.352327895995131
 30
0.0
  0
SEQEND
  5
E95
  8
0
  0
LINE
  5
CA7
  8
0
 10
164.8644456525189
 20
77.222144464969446
 30
0.0
 11
152.86444565251881
 21
77.222144464969446
 31
0.0
  0
LINE
  5
CA8
  8
0
 10
164.8644456525189
 20
75.222144464969446
 30
0.0
 11
152.86444565251881
 21
75.222144464969446
 31
0.0
  0
LINE
  5
CA9
  8
0
 10
152.86444565251881
 20
77.222144464969446
 30
0.0
 11
152.86444565251881
 21
75.222144464969446
 31
0.0
  0
LINE
  5
CAA
  8
2
 10
156.76444565251879
 20
75.222144464969446
 30
0.0
 11
156.76444565251879
 21
77.222144464969446
 31
0.0
  0
LINE
  5
CAB
  8
2
 10
160.9644456525188
 20
75.222144464969446
 30
0.0
 11
160.9644456525188
 21
77.222144464969446
 31
0.0
  0
LINE
  5
CAC
  8
0
 10
164.8644456525189
 20
75.222144464969446
 30
0.0
 11
164.8644456525189
 21
77.222144464969446
 31
0.0
  0
POLYLINE
  5
CAD
  8
0
 66
     1
 10
0.0
 20
0.0
 30
0.0
 70
   128
  0
VERTEX
  5
E96
  8
0
 10
107.4678531512542
 20
90.687765656805908
 30
0.0
  0
VERTEX
  5
E97
  8
0
 10
109.2964320122763
 20
90.815799718345943
 30
0.0
  0
VERTEX
  5
E98
  8
0
 10
111.1185988859489
 20
90.982914447892938
 30
0.0
  0
VERTEX
  5
E99
  8
0
 10
112.92635395997191
 20
91.187931290558552
 30
0.0
  0
VERTEX
  5
E9A
  8
0
 10
114.76447880811639
 20
91.437070289453274
 30
0.0
  0
VERTEX
  5
E9B
  8
0
 10
116.5795066480073
 20
91.723366604693155
 30
0.0
  0
VERTEX
  5
E9C
  8
0
 10
118.3638069084797
 20
92.044236732828352
 30
0.0
  0
SEQEND
  5
E9D
  8
0
  0
POLYLINE
  5
CAE
  8
0
 66
     1
 10
0.0
 20
0.0
 30
0.0
 70
   128
  0
VERTEX
  5
E9E
  8
0
 10
118.3638069084797
 20
86.092305788304756
 30
0.0
  0
VERTEX
  5
E9F
  8
0
 10
117.5456133153242
 20
86.284639090646976
 30
0.0
  0
VERTEX
  5
EA0
  8
0
 10
116.7120306231937
 20
86.424383007216619
 30
0.0
  0
VERTEX
  5
EA1
  8
0
 10
115.85085031863311
 20
86.510975642805747
 30
0.0
  0
VERTEX
  5
EA2
  8
0
 10
114.9810201707491
 20
86.540144464969444
 30
0.0
  0
SEQEND
  5
EA3
  8
0
  0
ARC
  5
CAF
  8
0
 10
102.4678531512542
 20
175.29014446496939
 30
0.0
 40
84.749999999999986
 50
270.0000000000008
 51
273.3822459857742
  0
LINE
  5
CB0
  8
0
 10
114.9810201707491
 20
86.540144464969444
 30
0.0
 11
100.7366848260131
 21
86.540144464969444
 31
0.0
  0
POLYLINE
  5
CB1
  8
0
 66
     1
 10
0.0
 20
0.0
 30
0.0
 70
   128
  0
VERTEX
  5
EA4
  8
0
 10
118.3638069084796
 20
92.044236732828352
 30
0.0
  0
VERTEX
  5
EA5
  8
0
 10
119.223370238022
 20
92.212980652312524
 30
0.0
  0
VERTEX
  5
EA6
  8
0
 10
120.11442849372
 20
92.397678711544785
 30
0.0
  0
SEQEND
  5
EA7
  8
0
  0
POLYLINE
  5
CB2
  8
0
 66
     1
 10
0.0
 20
0.0
 30
0.0
 70
   128
  0
VERTEX
  5
EA8
  8
0
 10
120.11442849372
 20
92.397678711544799
 30
0.0
  0
VERTEX
  5
EA9
  8
0
 10
120.9530061780473
 20
92.519097136589536
 30
0.0
  0
VERTEX
  5
EAA
  8
0
 10
121.7932032743885
 20
92.531996842941126
 30
0.0
  0
VERTEX
  5
EAB
  8
0
 10
122.6068539522273
 20
92.439148131336694
 30
0.0
  0
VERTEX
  5
EAC
  8
0
 10
123.3763980073301
 20
92.253634348468594
 30
0.0
  0
VERTEX
  5
EAD
  8
0
 10
124.2714014455816
 20
91.904042879160386
 30
0.0
  0
VERTEX
  5
EAE
  8
0
 10
125.0583194611971
 20
91.458497690550587
 30
0.0
  0
VERTEX
  5
EAF
  8
0
 10
125.6687372557803
 20
90.999629703235343
 30
0.0
  0
VERTEX
  5
EB0
  8
0
 10
126.19184438872109
 20
90.504165862774613
 30
0.0
  0
VERTEX
  5
EB1
  8
0
 10
126.6270790840253
 20
89.9939259175313
 30
0.0
  0
VERTEX
  5
EB2
  8
0
 10
127.01189314789021
 20
89.431756380977248
 30
0.0
  0
VERTEX
  5
EB3
  8
0
 10
127.2892802426455
 20
88.931681533660736
 30
0.0
  0
VERTEX
  5
EB4
  8
0
 10
127.3900583516499
 20
88.719160057198835
 30
0.0
  0
VERTEX
  5
EB5
  8
0
 10
127.45130448117651
 20
88.579496780512159
 30
0.0
  0
VERTEX
  5
EB6
  8
0
 10
127.4678531512542
 20
88.540144464969444
 30
0.0
  0
SEQEND
  5
EB7
  8
0
  0
POLYLINE
  5
CB3
  8
0
 66
     1
 10
0.0
 20
0.0
 30
0.0
 70
   128
  0
VERTEX
  5
EB8
  8
0
 10
122.455494640238
 20
84.176508101333084
 30
0.0
  0
VERTEX
  5
EB9
  8
0
 10
121.4245430335157
 20
84.830893470992208
 30
0.0
  0
VERTEX
  5
EBA
  8
0
 10
120.8657413245798
 20
85.131901404489653
 30
0.0
  0
VERTEX
  5
EBB
  8
0
 10
120.29097095450619
 20
85.406248403250004
 30
0.0
  0
VERTEX
  5
EBC
  8
0
 10
119.3423332152547
 20
85.786733725977001
 30
0.0
  0
VERTEX
  5
EBD
  8
0
 10
118.3638069084796
 20
86.092305788304756
 30
0.0
  0
SEQEND
  5
EBE
  8
0
  0
POLYLINE
  5
CB4
  8
0
 66
     1
 10
0.0
 20
0.0
 30
0.0
 70
   128
  0
VERTEX
  5
EBF
  8
0
 10
127.4678531512542
 20
85.237368827237475
 30
0.0
  0
VERTEX
  5
EC0
  8
0
 10
127.4269545869352
 20
85.170349604219794
 30
0.0
  0
VERTEX
  5
EC1
  8
0
 10
127.3095927121723
 20
84.996981165594335
 30
0.0
  0
VERTEX
  5
EC2
  8
0
 10
127.1071729454039
 20
84.742944050587923
 30
0.0
  0
VERTEX
  5
EC3
  8
0
 10
126.8283083746972
 20
84.457329103601694
 30
0.0
  0
VERTEX
  5
EC4
  8
0
 10
126.4754515705894
 20
84.173168952921444
 30
0.0
  0
VERTEX
  5
EC5
  8
0
 10
125.93435630883501
 20
83.862358373637335
 30
0.0
  0
VERTEX
  5
EC6
  8
0
 10
125.2774514189294
 20
83.635067278622927
 30
0.0
  0
VERTEX
  5
EC7
  8
0
 10
124.7409448816864
 20
83.551032900031373
 30
0.0
  0
VERTEX
  5
EC8
  8
0
 10
124.1579467794007
 20
83.553891743108252
 30
0.0
  0
VERTEX
  5
EC9
  8
0
 10
123.64384041759369
 20
83.638882672355294
 30
0.0
  0
VERTEX
  5
ECA
  8
0
 10
123.1249243867905
 20
83.808033338542032
 30
0.0
  0
VERTEX
  5
ECB
  8
0
 10
122.455494640238
 20
84.176508101333084
 30
0.0
  0
SEQEND
  5
ECC
  8
0
  0
LINE
  5
CB5
  8
0
 10
127.4678531512542
 20
85.237368827237475
 30
0.0
 11
127.4678531512542
 21
88.540144464969444
 31
0.0
  0
POLYLINE
  5
CB6
  8
0
 66
     1
 10
0.0
 20
0.0
 30
0.0
 70
   128
  0
VERTEX
  5
ECD
  8
0
 10
107.4678531512542
 20
130.87836798563859
 30
0.0
  0
VERTEX
  5
ECE
  8
0
 10
108.83558123640459
 20
130.9041919921215
 30
0.0
  0
VERTEX
  5
ECF
  8
0
 10
110.199720046474
 20
130.98145382596519
 30
0.0
  0
VERTEX
  5
ED0
  8
0
 10
111.5671115102536
 20
131.11090407039839
 30
0.0
  0
VERTEX
  5
ED1
  8
0
 10
112.92635395997191
 20
131.29169307122689
 30
0.0
  0
VERTEX
  5
ED2
  8
0
 10
114.3028411612158
 20
131.52858487370059
 30
0.0
  0
VERTEX
  5
ED3
  8
0
 10
115.66636496104501
 20
131.81764859188061
 30
0.0
  0
VERTEX
  5
ED4
  8
0
 10
117.0237621486073
 20
132.1605788059295
 30
0.0
  0
VERTEX
  5
ED5
  8
0
 10
118.3638069084796
 20
132.55466856367329
 30
0.0
  0
SEQEND
  5
ED6
  8
0
  0
POLYLINE
  5
CB7
  8
0
 66
     1
 10
0.0
 20
0.0
 30
0.0
 70
   128
  0
VERTEX
  5
ED7
  8
0
 10
107.4678531512542
 20
120.8783679856387
 30
0.0
  0
VERTEX
  5
ED8
  8
0
 10
108.83558123640459
 20
120.8525439791557
 30
0.0
  0
VERTEX
  5
ED9
  8
0
 10
110.199720046474
 20
120.7752821453121
 30
0.0
  0
VERTEX
  5
EDA
  8
0
 10
111.5671115102536
 20
120.6458319008789
 30
0.0
  0
VERTEX
  5
EDB
  8
0
 10
112.92635395997191
 20
120.46504290005041
 30
0.0
  0
VERTEX
  5
EDC
  8
0
 10
114.3028411612158
 20
120.2281510975768
 30
0.0
  0
VERTEX
  5
EDD
  8
0
 10
115.66636496104501
 20
119.9390873793967
 30
0.0
  0
VERTEX
  5
EDE
  8
0
 10
117.0237621486073
 20
119.5961571653478
 30
0.0
  0
VERTEX
  5
EDF
  8
0
 10
118.3638069084797
 20
119.20206740760401
 30
0.0
  0
SEQEND
  5
EE0
  8
0
  0
POLYLINE
  5
CB8
  8
0
 66
     1
 10
0.0
 20
0.0
 30
0.0
 70
   128
  0
VERTEX
  5
EE1
  8
0
 10
120.11442849372
 20
118.8872957494615
 30
0.0
  0
VERTEX
  5
EE2
  8
0
 10
120.9530061780473
 20
118.89580922257871
 30
0.0
  0
VERTEX
  5
EE3
  8
0
 10
121.7932032743885
 20
119.0049811166266
 30
0.0
  0
VERTEX
  5
EE4
  8
0
 10
122.6068539522273
 20
119.2136429031255
 30
0.0
  0
VERTEX
  5
EE5
  8
0
 10
123.3763980073301
 20
119.5112362279165
 30
0.0
  0
VERTEX
  5
EE6
  8
0
 10
124.2714014455816
 20
120.0023473227306
 30
0.0
  0
VERTEX
  5
EE7
  8
0
 10
125.0583194611971
 20
120.5937091454409
 30
0.0
  0
VERTEX
  5
EE8
  8
0
 10
125.6687372557803
 20
121.1929473648555
 30
0.0
  0
VERTEX
  5
EE9
  8
0
 10
126.19184438872109
 20
121.8487266868723
 30
0.0
  0
VERTEX
  5
EEA
  8
0
 10
126.6270790840253
 20
122.552118459659
 30
0.0
  0
VERTEX
  5
EEB
  8
0
 10
127.01189314789021
 20
123.3919361455076
 30
0.0
  0
VERTEX
  5
EEC
  8
0
 10
127.2892802426455
 20
124.30733888443361
 30
0.0
  0
VERTEX
  5
EED
  8
0
 10
127.3900583516499
 20
124.83833640125199
 30
0.0
  0
VERTEX
  5
EEE
  8
0
 10
127.45130448117651
 20
125.397319627771
 30
0.0
  0
VERTEX
  5
EEF
  8
0
 10
127.4678531512542
 20
125.8783679856387
 30
0.0
  0
VERTEX
  5
EF0
  8
0
 10
127.4433147844023
 20
126.4601773897661
 30
0.0
  0
VERTEX
  5
EF1
  8
0
 10
127.3738891326488
 20
127.0214633550996
 30
0.0
  0
VERTEX
  5
EF2
  8
0
 10
127.1856650391337
 20
127.8468013962276
 30
0.0
  0
VERTEX
  5
EF3
  8
0
 10
126.9138671467734
 20
128.6076359405254
 30
0.0
  0
VERTEX
  5
EF4
  8
0
 10
126.5037798340002
 20
129.4245292164027
 30
0.0
  0
VERTEX
  5
EF5
  8
0
 10
125.9884549257597
 20
130.18311647716089
 30
0.0
  0
VERTEX
  5
EF6
  8
0
 10
125.36843405923079
 20
130.87679841572131
 30
0.0
  0
VERTEX
  5
EF7
  8
0
 10
124.6148116866885
 20
131.5173999576937
 30
0.0
  0
VERTEX
  5
EF8
  8
0
 10
123.74613737707151
 20
132.06325703353261
 30
0.0
  0
VERTEX
  5
EF9
  8
0
 10
122.9581342476564
 20
132.41992146782081
 30
0.0
  0
VERTEX
  5
EFA
  8
0
 10
122.1126591742388
 20
132.68238247318601
 30
0.0
  0
VERTEX
  5
EFB
  8
0
 10
121.2243842469862
 20
132.83658652787119
 30
0.0
  0
VERTEX
  5
EFC
  8
0
 10
120.3285394369661
 20
132.87698154040871
 30
0.0
  0
VERTEX
  5
EFD
  8
0
 10
120.11442849372
 20
132.86944022181581
 30
0.0
  0
SEQEND
  5
EFE
  8
0
  0
POLYLINE
  5
CB9
  8
0
 66
     1
 10
0.0
 20
0.0
 30
0.0
 70
   128
  0
VERTEX
  5
EFF
  8
0
 10
118.3638069084796
 20
119.20206740760401
 30
0.0
  0
VERTEX
  5
F00
  8
0
 10
119.223370238022
 20
118.9898803229747
 30
0.0
  0
VERTEX
  5
F01
  8
0
 10
120.11442849372
 20
118.8872957494615
 30
0.0
  0
SEQEND
  5
F02
  8
0
  0
POLYLINE
  5
CBA
  8
0
 66
     1
 10
0.0
 20
0.0
 30
0.0
 70
   128
  0
VERTEX
  5
F03
  8
0
 10
118.3638069084796
 20
132.55466856367329
 30
0.0
  0
VERTEX
  5
F04
  8
0
 10
119.223370238022
 20
132.7668556483026
 30
0.0
  0
VERTEX
  5
F05
  8
0
 10
120.11442849372
 20
132.86944022181581
 30
0.0
  0
SEQEND
  5
F06
  8
0
  0
LINE
  5
CBB
  8
1
 10
167.36444565251881
 20
84.540144464969444
 30
0.0
 11
150.36444565251881
 21
84.540144464969444
 31
0.0
  0
POLYLINE
  5
CBC
  8
0
 66
     1
 10
0.0
 20
0.0
 30
0.0
 70
   128
  0
VERTEX
  5
F07
  8
0
 10
165.57632179196511
 20
84.176508101333084
 30
0.0
  0
VERTEX
  5
F08
  8
0
 10
165.4151649262536
 20
83.894408150532854
 30
0.0
  0
VERTEX
  5
F09
  8
0
 10
165.2041704413173
 20
83.695808729639651
 30
0.0
  0
VERTEX
  5
F0A
  8
0
 10
164.94397046948151
 20
83.580860808595716
 30
0.0
  0
VERTEX
  5
F0B
  8
0
 10
164.63864453158331
 20
83.540407410857725
 30
0.0
  0
VERTEX
  5
F0C
  8
0
 10
164.1580425519256
 20
83.588673114403534
 30
0.0
  0
VERTEX
  5
F0D
  8
0
 10
163.61870488373549
 20
83.730249535383606
 30
0.0
  0
VERTEX
  5
F0E
  8
0
 10
163.06642638557861
 20
83.926666043690744
 30
0.0
  0
VERTEX
  5
F0F
  8
0
 10
162.47817670728509
 20
84.164659011391464
 30
0.0
  0
VERTEX
  5
F10
  8
0
 10
161.86151664254831
 20
84.424807919119331
 30
0.0
  0
VERTEX
  5
F11
  8
0
 10
161.1856484333004
 20
84.703255263748403
 30
0.0
  0
VERTEX
  5
F12
  8
0
 10
160.47450711934891
 20
84.958393753364021
 30
0.0
  0
VERTEX
  5
F13
  8
0
 10
159.73133038876099
 20
85.150592251201303
 30
0.0
  0
VERTEX
  5
F14
  8
0
 10
159.30069150962549
 20
85.214666278154183
 30
0.0
  0
VERTEX
  5
F15
  8
0
 10
158.8644456525187
 20
85.237368827237475
 30
0.0
  0
VERTEX
  5
F16
  8
0
 10
158.112667208255
 20
85.170349604219794
 30
0.0
  0
VERTEX
  5
F17
  8
0
 10
157.38437816062199
 20
84.996981165594335
 30
0.0
  0
VERTEX
  5
F18
  8
0
 10
156.6455075050597
 20
84.742944050587923
 30
0.0
  0
VERTEX
  5
F19
  8
0
 10
155.94061534587399
 20
84.457329103601694
 30
0.0
  0
VERTEX
  5
F1A
  8
0
 10
155.27156919597289
 20
84.173168952921444
 30
0.0
  0
VERTEX
  5
F1B
  8
0
 10
154.4925290066879
 20
83.862358373637335
 30
0.0
  0
VERTEX
  5
F1C
  8
0
 10
153.77840942539871
 20
83.635067278622927
 30
0.0
  0
VERTEX
  5
F1D
  8
0
 10
153.32045100050789
 20
83.551032900031373
 30
0.0
  0
VERTEX
  5
F1E
  8
0
 10
152.9160669645473
 20
83.553891743108252
 30
0.0
  0
VERTEX
  5
F1F
  8
0
 10
152.62676672737319
 20
83.638882672355294
 30
0.0
  0
VERTEX
  5
F20
  8
0
 10
152.38833783614581
 20
83.808033338542032
 30
0.0
  0
VERTEX
  5
F21
  8
0
 10
152.15256951307231
 20
84.176508101333084
 30
0.0
  0
SEQEND
  5
F22
  8
0
  0
POLYLINE
  5
CBD
  8
0
 66
     1
 10
0.0
 20
0.0
 30
0.0
 70
   128
  0
VERTEX
  5
F23
  8
0
 10
151.87696019158159
 20
92.448832993074944
 30
0.0
  0
VERTEX
  5
F24
  8
0
 10
151.8818868894588
 20
92.519097136589536
 30
0.0
  0
VERTEX
  5
F25
  8
0
 10
151.99105878350659
 20
92.531996842941126
 30
0.0
  0
VERTEX
  5
F26
  8
0
 10
152.19972057000561
 20
92.439148131336694
 30
0.0
  0
VERTEX
  5
F27
  8
0
 10
152.49731389479649
 20
92.253634348468594
 30
0.0
  0
VERTEX
  5
F28
  8
0
 10
152.98842498961071
 20
91.904042879160386
 30
0.0
  0
VERTEX
  5
F29
  8
0
 10
153.579786812321
 20
91.458497690550587
 30
0.0
  0
VERTEX
  5
F2A
  8
0
 10
154.17902503173559
 20
90.999629703235343
 30
0.0
  0
VERTEX
  5
F2B
  8
0
 10
154.8348043537523
 20
90.504165862774613
 30
0.0
  0
VERTEX
  5
F2C
  8
0
 10
155.53819612653899
 20
89.9939259175313
 30
0.0
  0
VERTEX
  5
F2D
  8
0
 10
156.37801381238759
 20
89.431756380977248
 30
0.0
  0
VERTEX
  5
F2E
  8
0
 10
157.29341655131361
 20
88.931681533660736
 30
0.0
  0
VERTEX
  5
F2F
  8
0
 10
157.824414068132
 20
88.719160057198835
 30
0.0
  0
VERTEX
  5
F30
  8
0
 10
158.38339729465099
 20
88.579496780512159
 30
0.0
  0
VERTEX
  5
F31
  8
0
 10
158.8644456525187
 20
88.540144464969444
 30
0.0
  0
VERTEX
  5
F32
  8
0
 10
159.44625505664609
 20
88.598584842991812
 30
0.0
  0
VERTEX
  5
F33
  8
0
 10
160.0075410219797
 20
88.754686596982197
 30
0.0
  0
VERTEX
  5
F34
  8
0
 10
160.8328790631077
 20
89.130273524756674
 30
0.0
  0
VERTEX
  5
F35
  8
0
 10
161.5937136074055
 20
89.588514733220748
 30
0.0
  0
VERTEX
  5
F36
  8
0
 10
162.4106068832827
 20
90.148261534737657
 30
0.0
  0
VERTEX
  5
F37
  8
0
 10
163.169194144041
 20
90.709364943584021
 30
0.0
  0
VERTEX
  5
F38
  8
0
 10
163.8628760826013
 20
91.239708733284715
 30
0.0
  0
VERTEX
  5
F39
  8
0
 10
164.5034776245738
 20
91.727212645057762
 30
0.0
  0
VERTEX
  5
F3A
  8
0
 10
165.0493347004126
 20
92.127789410791479
 30
0.0
  0
VERTEX
  5
F3B
  8
0
 10
165.40599913470081
 20
92.366541541495153
 30
0.0
  0
VERTEX
  5
F3C
  8
0
 10
165.668460140066
 20
92.508082713957535
 30
0.0
  0
VERTEX
  5
F3D
  8
0
 10
165.8226641947513
 20
92.534795579740972
 30
0.0
  0
VERTEX
  5
F3E
  8
0
 10
165.85679289878419
 20
92.454296863149196
 30
0.0
  0
SEQEND
  5
F3F
  8
0
  0
LINE
  5
CBE
  8
0
 10
153.13106841198419
 20
83.540144464969444
 30
0.0
 11
164.60573400581009
 21
83.540144464969444
 31
0.0
  0
LINE
  5
CBF
  8
0
 10
165.78046421138711
 20
92.540144464969444
 30
0.0
 11
151.94881028561139
 21
92.540144464969444
 31
0.0
  0
LINE
  5
CC0
  8
0
 10
151.8644456525187
 20
92.448832993074944
 30
0.0
 11
151.8644456525187
 21
85.321857940874054
 31
0.0
  0
LINE
  5
CC1
  8
0
 10
152.86444565251881
 20
80.540144464969444
 30
0.0
 11
153.86444565251881
 21
80.540144464969444
 31
0.0
  0
POLYLINE
  5
CC2
  8
0
 66
     1
 10
0.0
 20
0.0
 30
0.0
 70
   128
  0
VERTEX
  5
F40
  8
0
 10
152.15256951307231
 20
84.176508101333084
 30
0.0
  0
VERTEX
  5
F41
  8
0
 10
151.93012921402391
 20
84.830893470992208
 30
0.0
  0
VERTEX
  5
F42
  8
0
 10
151.87580629742189
 20
85.131901404489653
 30
0.0
  0
VERTEX
  5
F43
  8
0
 10
151.86948785910411
 20
85.321857940874054
 30
0.0
  0
SEQEND
  5
F44
  8
0
  0
LINE
  5
CC3
  8
0
 10
152.86444565251881
 20
80.540144464969444
 30
0.0
 11
152.86444565251881
 21
83.565884610591937
 31
0.0
  0
POLYLINE
  5
CC4
  8
0
 66
     1
 10
0.0
 20
0.0
 30
0.0
 70
   128
  0
VERTEX
  5
F45
  8
0
 10
157.2144456525188
 20
80.540144464969444
 30
0.0
  0
VERTEX
  5
F46
  8
0
 10
157.2989978186568
 20
80.574274204794065
 30
0.0
  0
VERTEX
  5
F47
  8
0
 10
157.5395699261847
 20
80.662929525063575
 30
0.0
  0
VERTEX
  5
F48
  8
0
 10
157.92822646983359
 20
80.777963401008293
 30
0.0
  0
VERTEX
  5
F49
  8
0
 10
158.17642665085441
 20
80.831825173184214
 30
0.0
  0
VERTEX
  5
F4A
  8
0
 10
158.4470387863384
 20
80.872484653599997
 30
0.0
  0
VERTEX
  5
F4B
  8
0
 10
158.99503299338369
 20
80.893974823606854
 30
0.0
  0
VERTEX
  5
F4C
  8
0
 10
159.48839710602391
 20
80.843278844429364
 30
0.0
  0
VERTEX
  5
F4D
  8
0
 10
159.9260945502989
 20
80.744805431080934
 30
0.0
  0
VERTEX
  5
F4E
  8
0
 10
160.28324134119461
 20
80.629839974753267
 30
0.0
  0
VERTEX
  5
F4F
  8
0
 10
160.40696602236929
 20
80.583310208430277
 30
0.0
  0
VERTEX
  5
F50
  8
0
 10
160.4852947772896
 20
80.552080788788956
 30
0.0
  0
VERTEX
  5
F51
  8
0
 10
160.51444565251879
 20
80.540144464969444
 30
0.0
  0
SEQEND
  5
F52
  8
0
  0
LINE
  5
CC5
  8
0
 10
156.61444565251881
 20
80.540144464969444
 30
0.0
 11
157.2144456525188
 21
80.540144464969444
 31
0.0
  0
LINE
  5
CC6
  8
0
 10
160.51444565251879
 20
80.540144464969444
 30
0.0
 11
161.11444565251881
 21
80.540144464969444
 31
0.0
  0
LINE
  5
CC7
  8
0
 10
165.86444565251881
 20
85.321857940874054
 30
0.0
 11
165.8644456525187
 21
92.454296863149196
 31
0.0
  0
POLYLINE
  5
CC8
  8
0
 66
     1
 10
0.0
 20
0.0
 30
0.0
 70
   128
  0
VERTEX
  5
F53
  8
0
 10
165.57632179196511
 20
84.176508101333084
 30
0.0
  0
VERTEX
  5
F54
  8
0
 10
165.79876209101349
 20
84.830893470992208
 30
0.0
  0
VERTEX
  5
F55
  8
0
 10
165.8530850076155
 20
85.131901404489653
 30
0.0
  0
VERTEX
  5
F56
  8
0
 10
165.85940344593331
 20
85.321857940874054
 30
0.0
  0
SEQEND
  5
F57
  8
0
  0
LINE
  5
CC9
  8
0
 10
165.86444565251881
 20
83.040144464969444
 30
0.0
 11
165.86444565251881
 21
85.321857940874054
 31
0.0
  0
LINE
  5
CCA
  8
0
 10
164.8644456525189
 20
80.540144464969444
 30
0.0
 11
164.86444565251881
 21
83.567135337238184
 31
0.0
  0
LINE
  5
CCB
  8
0
 10
163.86444565251881
 20
80.540144464969444
 30
0.0
 11
164.8644456525189
 21
80.540144464969444
 31
0.0
  0
LINE
  5
CCC
  8
0
 10
164.8644456525189
 20
83.040144464969444
 30
0.0
 11
165.86444565251881
 21
83.040144464969444
 31
0.0
  0
TEXT
  5
D9B
  8
0
 62
     3
 10
0.0
 20
0.0
 30
0.0
 40
10.0
  1
QLCA-04
  7
STANDARD1
  0
ENDSEC
  0
EOF
