  0
SECTION
  2
HEADER
  9
$ACADVER
  1
AC1009
  9
$INSBASE
 10
0.0
 20
0.0
 30
0.0
  9
$EXTMIN
 10
0.0
 20
-123.4371369560655
 30
0.0
  9
$EXTMAX
 10
413.80437348160638
 20
248.01974410317729
 30
0.0
  9
$LIMMIN
 10
0.0
 20
0.0
  9
$LIMMAX
 10
187.5
 20
135.0
  9
$ORTHOMODE
 70
     1
  9
$REGENMODE
 70
     1
  9
$FILLMODE
 70
     1
  9
$QTEXTMODE
 70
     0
  9
$MIRRTEXT
 70
     0
  9
$DRAGMODE
 70
     2
  9
$LTSCALE
 40
5.0
  9
$OSMODE
 70
    37
  9
$ATTMODE
 70
     1
  9
$TEXTSIZE
 40
0.2
  9
$TRACEWID
 40
0.05
  9
$TEXTSTYLE
  7
STANDARD
  9
$CLAYER
  8
0
  9
$CELTYPE
  6
BYLAYER
  9
$CECOLOR
 62
   256
  9
$DIMSCALE
 40
1.0
  9
$DIMASZ
 40
3.0
  9
$DIMEXO
 40
2.0
  9
$DIMDLI
 40
0.3799999999999999
  9
$DIMRND
 40
0.0
  9
$DIMDLE
 40
0.0
  9
$DIMEXE
 40
2.0
  9
$DIMTP
 40
0.0
  9
$DIMTM
 40
0.0
  9
$DIMTXT
 40
3.2000000000000002
  9
$DIMCEN
 40
0.0
  9
$DIMTSZ
 40
0.0
  9
$DIMTOL
 70
     0
  9
$DIMLIM
 70
     0
  9
$DIMTIH
 70
     0
  9
$DIMTOH
 70
     0
  9
$DIMSE1
 70
     0
  9
$DIMSE2
 70
     0
  9
$DIMTAD
 70
     1
  9
$DIMZIN
 70
     8
  9
$DIMBLK
  1

  9
$DIMASO
 70
     0
  9
$DIMSHO
 70
     0
  9
$DIMPOST
  1

  9
$DIMAPOST
  1

  9
$DIMALT
 70
     0
  9
$DIMALTD
 70
     2
  9
$DIMALTF
 40
25.399999999999999
  9
$DIMLFAC
 40
1.0
  9
$DIMTOFL
 70
     0
  9
$DIMTVP
 40
1.6000000000000001
  9
$DIMTIX
 70
     1
  9
$DIMSOXD
 70
     0
  9
$DIMSAH
 70
     0
  9
$DIMBLK1
  1

  9
$DIMBLK2
  1

  9
$DIMSTYLE
  2
STANDARD
  9
$DIMCLRD
 70
     0
  9
$DIMCLRE
 70
     0
  9
$DIMCLRT
 70
     0
  9
$DIMTFAC
 40
1.0
  9
$DIMGAP
 40
1.0
  9
$LUNITS
 70
     2
  9
$LUPREC
 70
     1
  9
$SKETCHINC
 40
0.1
  9
$FILLETRAD
 40
0.4
  9
$AUNITS
 70
     0
  9
$AUPREC
 70
     1
  9
$MENU
  1
E:\r13\win\SUPPORT\ACAD
  9
$ELEVATION
 40
0.0
  9
$PELEVATION
 40
0.0
  9
$THICKNESS
 40
0.0
  9
$LIMCHECK
 70
     0
  9
$BLIPMODE
 70
     0
  9
$CHAMFERA
 40
0.0
  9
$CHAMFERB
 40
0.0
  9
$SKPOLY
 70
     0
  9
$TDCREATE
 40
2451824.7531229062
  9
$TDUPDATE
 40
2459191.6724147568
  9
$TDINDWG
 40
1.3351551505000001
  9
$TDUSRTIMER
 40
1.3351549653000001
  9
$USRTIMER
 70
     1
  9
$ANGBASE
 50
0.0
  9
$ANGDIR
 70
     0
  9
$PDMODE
 70
     0
  9
$PDSIZE
 40
0.0
  9
$PLINEWID
 40
0.0
  9
$COORDS
 70
     1
  9
$SPLFRAME
 70
     0
  9
$SPLINETYPE
 70
     6
  9
$SPLINESEGS
 70
     8
  9
$ATTDIA
 70
     0
  9
$ATTREQ
 70
     1
  9
$HANDLING
 70
     1
  9
$HANDSEED
  5
110B7
  9
$SURFTAB1
 70
     6
  9
$SURFTAB2
 70
     6
  9
$SURFTYPE
 70
     6
  9
$SURFU
 70
     6
  9
$SURFV
 70
     6
  9
$UCSNAME
  2

  9
$UCSORG
 10
0.0
 20
0.0
 30
0.0
  9
$UCSXDIR
 10
1.0
 20
0.0
 30
0.0
  9
$UCSYDIR
 10
0.0
 20
1.0
 30
0.0
  9
$PUCSNAME
  2

  9
$PUCSORG
 10
0.0
 20
0.0
 30
0.0
  9
$PUCSXDIR
 10
1.0
 20
0.0
 30
0.0
  9
$PUCSYDIR
 10
0.0
 20
1.0
 30
0.0
  9
$USERI1
 70
     0
  9
$USERI2
 70
     1
  9
$USERI3
 70
     0
  9
$USERI4
 70
     0
  9
$USERI5
 70
     0
  9
$USERR1
 40
0.0
  9
$USERR2
 40
0.0
  9
$USERR3
 40
0.0
  9
$USERR4
 40
0.0
  9
$USERR5
 40
0.0
  9
$WORLDVIEW
 70
     1
  9
$SHADEDGE
 70
     3
  9
$SHADEDIF
 70
    70
  9
$TILEMODE
 70
     1
  9
$MAXACTVP
 70
    16
  9
$PLIMCHECK
 70
     0
  9
$PEXTMIN
 10
1.0000000000000000E+020
 20
1.0000000000000000E+020
 30
1.0000000000000000E+020
  9
$PEXTMAX
 10
-1.0000000000000000E+020
 20
-1.0000000000000000E+020
 30
-1.0000000000000000E+020
  9
$PLIMMIN
 10
0.0
 20
0.0
  9
$PLIMMAX
 10
12.0
 20
9.0
  9
$UNITMODE
 70
     0
  9
$VISRETAIN
 70
     0
  9
$PLINEGEN
 70
     0
  9
$PSLTSCALE
 70
     0
  0
ENDSEC
  0
SECTION
  2
TABLES
  0
TABLE
  2
VPORT
 70
     1
  0
VPORT
  2
*ACTIVE
 70
     0
 10
0.0
 20
0.0
 11
1.0
 21
1.0
 12
362.34662576687123
 22
150.0
 13
0.0
 23
0.0
 14
5.0
 24
5.0
 15
5.0
 25
5.0
 16
0.0
 26
0.0
 36
1.0
 17
0.0
 27
0.0
 37
0.0
 40
300.0
 41
2.415644171779141
 42
50.0
 43
0.0
 44
0.0
 50
0.0
 51
0.0
 71
     0
 72
   500
 73
     1
 74
     0
 75
     0
 76
     0
 77
     0
 78
     0
  0
ENDTAB
  0
TABLE
  2
LTYPE
 70
     5
  0
LTYPE
  2
CONTINUOUS
 70
     0
  3
Solid Line
 72
    65
 73
     0
 40
0.0
  0
LTYPE
  2
CENTER
 70
     0
  3
____ _ ____ _ ____ _ ____ _ ____ _ ____ _ ____
 72
    65
 73
     4
 40
2.0
 49
1.25
 49
-0.25
 49
0.25
 49
-0.25
  0
LTYPE
  2
PHANTOM2
 70
     0
  3
___ _ _ ___ _ _ ___ _ _ ___ _ _
 72
    65
 73
     6
 40
1.25
 49
0.625
 49
-0.125
 49
0.125
 49
-0.125
 49
0.125
 49
-0.125
  0
LTYPE
  2
HIDDEN
 70
     0
  3
__ __ __ __ __ __ __ __ __ __ __ __ __ __ __ __
 72
    65
 73
     2
 40
0.375
 49
0.25
 49
-0.125
  0
LTYPE
  2
PHANTOM
 70
     0
  3
_____ _ _ _____ _ _ _____ _ _ _____ _ _ ____
 72
    65
 73
     6
 40
2.5
 49
1.25
 49
-0.25
 49
0.25
 49
-0.25
 49
0.25
 49
-0.25
  0
ENDTAB
  0
TABLE
  2
LAYER
 70
     6
  0
LAYER
  2
0
 70
     0
 62
     7
  6
CONTINUOUS
  0
LAYER
  2
1
 70
     0
 62
     1
  6
CENTER
  0
LAYER
  2
2
 70
     0
 62
     2
  6
HIDDEN
  0
LAYER
  2
5
 70
     0
 62
     3
  6
PHANTOM
  0
LAYER
  2
3
 70
     0
 62
     3
  6
CONTINUOUS
  0
LAYER
  2
DEFPOINTS
 70
     0
 62
     7
  6
CONTINUOUS
  0
ENDTAB
  0
TABLE
  2
STYLE
 70
     2
  0
STYLE
  2
STANDARD
 70
     0
 40
0.0
 41
1.0
 50
0.0
 71
     0
 42
0.2
  3
TXT
  4
BIGFONT
  0
STYLE
  2
STANDARD1
 70
     0
 40
0.0
 41
1.0
 50
0.0
 71
     0
 42
3.0
  3
txt
  4

  0
ENDTAB
  0
TABLE
  2
VIEW
 70
     0
  0
ENDTAB
  0
TABLE
  2
UCS
 70
     0
  0
ENDTAB
  0
TABLE
  2
APPID
 70
   131
  0
APPID
  2
ACAD
 70
     0
  0
APPID
  2
ACAD_MLEADERVER
 70
     0
  0
APPID
  2
ACAD_EXEMPT_FROM_CAD_STANDARDS
 70
     0
  0
APPID
  2
ACAD_DSTYLE_DIMJAG
 70
     0
  0
APPID
  2
ACAD_DSTYLE_DIMTALN
 70
     0
  0
APPID
  2
ACAD_NAV_VCDISPLAY
 70
     0
  0
APPID
  2
ACAD_PSEXT
 70
     0
  0
APPID
  2
ACADANNOTATIVE
 70
     0
  0
APPID
  2
_FTCNV
 70
     0
  0
APPID
  2
GENIUS_GENODEF_13
 70
     0
  0
APPID
  2
GENIUS_GENOENT_13
 70
     0
  0
APPID
  2
GENIUS_GENOBJ-N-CEN_13
 70
     0
  0
APPID
  2
GENIUS_GENOLIS_13
 70
     0
  0
APPID
  2
GENIUS_GENOREF_13
 70
     0
  0
APPID
  2
GENIUS_GENOBJ-N-CRS_13
 70
     0
  0
APPID
  2
GENIUS_GENOBJ-N-FIL_13
 70
     0
  0
APPID
  2
GENIUS_GENOBJ-N-REC_13
 70
     0
  0
APPID
  2
GENIUS_GENFIL_13
 70
     0
  0
APPID
  2
GENIUS_GENOBJ-N-CHA_13
 70
     0
  0
APPID
  2
ASM_BASE
 70
     0
  0
APPID
  2
_PHO
 70
     0
  0
APPID
  2
_CLP
 70
     0
  0
APPID
  2
MOJIGUMI_PARTS
 70
     0
  0
APPID
  2
_DBL
 70
     0
  0
APPID
  2
_PWH
 70
     0
  0
APPID
  2
_G9P
 70
     0
  0
APPID
  2
AME_SOL
 70
     0
  0
APPID
  2
HAKO_DEF
 70
     0
  0
APPID
  2
HAKO_TXT
 70
     0
  0
APPID
  2
HAKO_OVR
 70
     0
  0
APPID
  2
ASM_EXPLO_VER_2_00
 70
     0
  0
APPID
  2
ASM_CADM_VER_12_00
 70
     0
  0
APPID
  2
ASM_BASEFORO
 70
     0
  0
APPID
  2
ASM_BASETRAVI
 70
     0
  0
APPID
  2
ASM_BASETRAVI1
 70
     0
  0
APPID
  2
ASM_GRUPPI
 70
     0
  0
APPID
  2
ASM_CADM_ALBERO
 70
     0
  0
APPID
  2
ASM_GOLE
 70
     0
  0
APPID
  2
GENIUS_GENCFG_13
 70
     0
  0
APPID
  2
GENIUS_GENCFG0_13
 70
     0
  0
APPID
  2
GENIUS_GENCFG1_13
 70
     0
  0
APPID
  2
GENIUS_GENCFG2_13
 70
     0
  0
APPID
  2
GENIUS_GENCFG3_13
 70
     0
  0
APPID
  2
GENIUS_GENCFG4_13
 70
     0
  0
APPID
  2
GENIUS_GEVCFG0_13
 70
     0
  0
APPID
  2
GENIUS_GENHATCH_13
 70
     0
  0
APPID
  2
GENIUS_GEFCFG0_13
 70
     0
  0
APPID
  2
GENIUS_GENOBJ-N-HTC_13
 70
     0
  0
APPID
  2
DCO15
 70
     0
  0
APPID
  2
AVE_RENDER
 70
     0
  0
APPID
  2
AVE_ENTITY_MATERIAL
 70
     0
  0
APPID
  2
AVE_FINISH
 70
     0
  0
APPID
  2
AVE_MATERIAL
 70
     0
  0
APPID
  2
AVE_GLOBAL
 70
     0
  0
APPID
  2
_NUM
 70
     0
  0
APPID
  2
HAKO_FNM
 70
     0
  0
APPID
  2
_CALL_MAC$
 70
     0
  0
APPID
  2
ACA_CADIMENU
 70
     0
  0
APPID
  2
AUTOCAD_POSTSCRIPT_FIGURE
 70
     0
  0
APPID
  2
GEV_VCCNULL_SWITCH_OFF
 70
     0
  0
APPID
  2
GENIUS_GENDTOL_13
 70
     0
  0
APPID
  2
GENIUS_GEFWELD_13
 70
     0
  0
APPID
  2
GENIUS_GENOBJ-F-WELS_13
 70
     0
  0
APPID
  2
GEVID961514679
 70
     0
  0
APPID
  2
GEVDC
 70
     0
  0
APPID
  2
GEVPT
 70
     0
  0
APPID
  2
GEVIT
 70
     0
  0
APPID
  2
VCC
 70
     0
  0
APPID
  2
GENBH
 70
     0
  0
APPID
  2
GEVMK
 70
     0
  0
APPID
  2
GENIUS_GENBH_13
 70
     0
  0
APPID
  2
GENIUS_GENOBJ-NBEHI-BHF_13
 70
     0
  0
APPID
  2
GENIUS_GENOBJ-NBEHI-BHB_13
 70
     0
  0
APPID
  2
GENIUS_GENOBJ-F-DESC_13
 70
     0
  0
APPID
  2
GENIUS_GEFDESC_14
 70
     0
  0
APPID
  2
GENIUS_GENOBJ-F-PART_13
 70
     0
  0
APPID
  2
GENIUS_GEFSTDP_13
 70
     0
  0
APPID
  2
GENIUS_GEFPARTINS_13
 70
     0
  0
APPID
  2
GEVID961514680
 70
     0
  0
APPID
  2
GENIUS_GENTRA_14
 70
     0
  0
APPID
  2
GENIUS_GENINF13_13
 70
     0
  0
APPID
  2
GENIUS_GENOBJ-N-INFOPT_13
 70
     0
  0
APPID
  2
GENIUS_GENOBJ-N-RSSYM_13
 70
     0
  0
APPID
  2
GENIUS_GENSYMENT_13
 70
     0
  0
APPID
  2
GENIUS_GENSCSYM_13
 70
     0
  0
APPID
  2
GENIUS_GEFINFNAM_13
 70
     0
  0
APPID
  2
GENIUS_GENREC_14
 70
     0
  0
APPID
  2
GEVID962097543
 70
     0
  0
APPID
  2
GEVID962097544
 70
     0
  0
APPID
  2
GEVID962097545
 70
     0
  0
APPID
  2
GENIUS_DUMCFG0_13
 70
     0
  0
APPID
  2
GEVID962352965
 70
     0
  0
APPID
  2
GEVID962352966
 70
     0
  0
APPID
  2
GEVID962352968
 70
     0
  0
APPID
  2
GEVRADREF
 70
     0
  0
APPID
  2
GEVID963230099
 70
     0
  0
APPID
  2
GENIUS_GENOBJ-F-FEAT_13
 70
     0
  0
APPID
  2
GENIUS_GEFFEAT_14
 70
     0
  0
APPID
  2
GEVID963230100
 70
     0
  0
APPID
  2
GEVID963230101
 70
     0
  0
APPID
  2
GENIUS_GENHINW_13
 70
     0
  0
APPID
  2
GENIUS_FIRSTVISTXT_14
 70
     0
  0
APPID
  2
GENIUS_GENOBJ-N-LEADER_13
 70
     0
  0
APPID
  2
GEVID971698136
 70
     0
  0
APPID
  2
GEVID972029070
 70
     0
  0
APPID
  2
MCAD_NO_VIS
 70
     0
  0
APPID
  2
ACAD_TEMP_GRAPHIC
 70
     0
  0
APPID
  2
ACATTRIBSERVICES
 70
     0
  0
APPID
  2
GENIUS_GENDIMSH_14
 70
     0
  0
APPID
  2
CONTENTTABDATA
 70
     0
  0
APPID
  2
CONTENTCURRENTTAB
 70
     0
  0
APPID
  2
GENIUS_GENBLKED_14
 70
     0
  0
APPID
  2
GENIUS_GENOBJ_13
 70
     0
  0
APPID
  2
GENIUS_GENOBJ-N-TIT_13
 70
     0
  0
APPID
  2
GENIUS_GENTITLE_13
 70
     0
  0
APPID
  2
GENIUS_GENZVEED_13
 70
     0
  0
APPID
  2
GENIUS_GEFINERT_13
 70
     0
  0
APPID
  2
GENIUS_GENOBJ-F-INER_13
 70
     0
  0
APPID
  2
GENIUS_GENOBJ-N-ZOO_13
 70
     0
  0
APPID
  2
GENIUS_GENZOO_13
 70
     0
  0
APPID
  2
GENIUS_GENOBJ-F-TOL_13
 70
     0
  0
APPID
  2
GENIUS_GENOBJ-N-REV_13
 70
     0
  0
APPID
  2
GENIUS_GENREC_13
 70
     0
  0
APPID
  2
_KTH
 70
     0
  0
APPID
  2
GENIUS_GENOBJ-N-SEC_13
 70
     0
  0
APPID
  2
ACAD_DSTYLE_DIMBREAK
 70
     0
  0
APPID
  2
ACAECLAYERSTANDARD
 70
     0
  0
APPID
  2
ACCMTRANSPARENCY
 70
     0
  0
APPID
  2
ACAD_DSTYLE_DIM_LINETYPE
 70
     0
  0
APPID
  2
GRADIENTCOLOR1ACI
 70
     0
  0
APPID
  2
GRADIENTCOLOR2ACI
 70
     0
  0
ENDTAB
  0
TABLE
  2
DIMSTYLE
 70
     1
  0
DIMSTYLE
  2
STANDARD
 70
     0
  3

  4

  5

  6

  7

 40
1.0
 41
0.18
 42
0.0625
 43
0.38
 44
0.18
 45
0.0
 46
0.0
 47
0.0
 48
0.0
140
0.18
141
0.09
142
0.0
143
25.399999999999999
144
1.0
145
0.0
146
1.0
147
0.09
 71
     0
 72
     0
 73
     1
 74
     1
 75
     0
 76
     0
 77
     0
 78
     0
170
     0
171
     2
172
     0
173
     0
174
     0
175
     0
176
     0
177
     0
178
     0
  0
ENDTAB
  0
ENDSEC
  0
SECTION
  2
BLOCKS
  0
BLOCK
  8
0
  2
$MODEL_SPACE
 70
     0
 10
0.0
 20
0.0
 30
0.0
  3
$MODEL_SPACE
  1

  0
ENDBLK
  5
9
  8
0
  0
BLOCK
 67
     1
  8
0
  2
$PAPER_SPACE
 70
     0
 10
0.0
 20
0.0
 30
0.0
  3
$PAPER_SPACE
  1

  0
ENDBLK
  5
E
 67
     1
  8
0
  0
ENDSEC
  0
SECTION
  2
ENTITIES
  0
LINE
  5
105C1
  8
0
 10
134.0000001043081
 20
164.01552101157949
 30
0.0
 11
135.85640632361171
 21
162.67577623509209
 31
0.0
  0
LINE
  5
105C2
  8
0
 10
159.85640653222799
 20
162.67577623509209
 30
0.0
 11
161.7128127515316
 21
164.01552101157949
 31
0.0
  0
LINE
  5
105C3
  8
0
 10
135.85640632361171
 20
172.6757760115747
 30
0.0
 11
134.0000001043081
 21
171.3360293724422
 31
0.0
  0
LINE
  5
105C4
  8
0
 10
161.7128127515316
 20
171.3360293724422
 30
0.0
 11
159.85640653222799
 21
172.6757760115747
 31
0.0
  0
LINE
  5
105C5
  8
0
 10
144.8564064018428
 20
140.70411650024701
 30
0.0
 11
144.8564064018428
 21
139.2041171857004
 31
0.0
  0
LINE
  5
105C6
  8
0
 10
150.8564064539969
 20
139.2041171857004
 30
0.0
 11
150.8564064539969
 21
140.70411650024701
 31
0.0
  0
LINE
  5
105C7
  8
0
 10
145.35640648379919
 20
139.2041171857004
 30
0.0
 11
145.35640648379919
 21
127.7041162320261
 31
0.0
  0
LINE
  5
105C8
  8
0
 10
150.35640637204051
 20
127.7041162320261
 30
0.0
 11
150.35640637204051
 21
139.2041171857004
 31
0.0
  0
LINE
  5
105C9
  8
0
 10
146.4564064778387
 20
127.7041162320261
 30
0.0
 11
146.4564064778387
 21
117.3280204530765
 31
0.0
  0
LINE
  5
105CA
  8
0
 10
149.25640637800089
 20
117.7128138524249
 30
0.0
 11
149.25640637800089
 21
127.7041162320261
 31
0.0
  0
LINE
  5
105CB
  8
0
 10
139.8564060479402
 20
160.769543326724
 30
0.0
 11
140.856406211853
 21
158.806931874979
 31
0.0
  0
LINE
  5
105CC
  8
0
 10
154.8564066439867
 20
158.806931874979
 30
0.0
 11
155.85640680789939
 21
160.769543326724
 31
0.0
  0
LINE
  5
105CD
  8
0
 10
139.8564060479402
 20
173.306932389069
 30
0.0
 11
139.8564060479402
 21
172.6757760115747
 31
0.0
  0
LINE
  5
105CE
  8
0
 10
139.8564060479402
 20
162.67577623509209
 30
0.0
 11
139.8564060479402
 21
160.769543326724
 31
0.0
  0
LINE
  5
105CF
  8
0
 10
155.85640680789939
 20
160.769543326724
 30
0.0
 11
155.85640680789939
 21
162.67577623509209
 31
0.0
  0
LINE
  5
105D0
  8
0
 10
155.85640680789939
 20
172.6757760115747
 30
0.0
 11
155.85640680789939
 21
173.306932389069
 31
0.0
  0
LINE
  5
105D1
  8
0
 10
155.85640680789939
 20
173.306932389069
 30
0.0
 11
154.8564066439867
 21
174.30693255298181
 31
0.0
  0
LINE
  5
105D2
  8
0
 10
140.856406211853
 20
174.30693255298181
 30
0.0
 11
139.8564060479402
 21
173.306932389069
 31
0.0
  0
LINE
  5
105D3
  8
0
 10
140.856406211853
 20
147.3069327839498
 30
0.0
 11
141.8564063757658
 21
146.30693075739191
 31
0.0
  0
LINE
  5
105D4
  8
0
 10
153.8564064800739
 20
146.30693075739191
 30
0.0
 11
154.8564066439867
 21
147.3069327839498
 31
0.0
  0
LINE
  5
105D5
  8
0
 10
140.856406211853
 20
151.7117234834318
 30
0.0
 11
140.856406211853
 21
147.3069327839498
 31
0.0
  0
LINE
  5
105D6
  8
0
 10
140.856406211853
 20
158.806931874979
 30
0.0
 11
140.856406211853
 21
158.50149159811781
 31
0.0
  0
LINE
  5
105D7
  8
0
 10
154.8564066439867
 20
158.50149159811781
 30
0.0
 11
154.8564066439867
 21
158.806931874979
 31
0.0
  0
LINE
  5
105D8
  8
0
 10
154.8564066439867
 20
147.3069327839498
 30
0.0
 11
154.8564066439867
 21
151.7117234834318
 31
0.0
  0
LINE
  5
105D9
  8
0
 10
137.85640665143731
 20
174.80693263493819
 30
0.0
 11
138.35640673339361
 21
174.30693255298181
 31
0.0
  0
LINE
  5
105DA
  8
0
 10
157.356406122446
 20
174.30693255298181
 30
0.0
 11
157.85640620440239
 21
174.80693263493819
 31
0.0
  0
LINE
  5
105DB
  8
0
 10
157.85640620440239
 20
174.80693263493819
 30
0.0
 11
157.85640620440239
 21
175.306931785572
 31
0.0
  0
LINE
  5
105DC
  8
0
 10
137.85640665143731
 20
175.306931785572
 30
0.0
 11
137.85640665143731
 21
174.80693263493819
 31
0.0
  0
ARC
  5
105DD
  8
0
 10
157.82309070024559
 20
168.92461609236389
 30
0.0
 40
6.2633179823831231
 50
273.89650516733872
 51
308.39154932262829
  0
ARC
  5
105DE
  8
0
 10
158.59090749540539
 20
168.7089109084186
 30
0.0
 40
6.0428314944678521
 50
230.95825170054411
 51
266.75368862715692
  0
LINE
  5
105DF
  8
0
 10
154.7846095897257
 20
171.3360293724422
 30
0.0
 11
154.7846095897257
 21
164.01552101157949
 31
0.0
  0
ARC
  5
105E0
  8
0
 10
158.64263714241591
 20
166.50889366343239
 30
0.0
 40
6.1794510881236366
 50
93.654956314297053
 51
128.6331569567086
  0
ARC
  5
105E1
  8
0
 10
157.9065163658158
 20
166.6426516745905
 30
0.0
 40
6.0428210622692751
 50
50.958190037340081
 51
86.753701874004037
  0
LINE
  5
105E2
  8
0
 10
161.7128127515316
 20
171.3360293724422
 30
0.0
 11
161.7128127515316
 21
164.01552101157949
 31
0.0
  0
ARC
  5
105E3
  8
0
 10
147.4678095354345
 20
183.26905359812329
 30
0.0
 40
20.596943464883012
 50
271.0810479235538
 51
290.80798111615002
  0
ARC
  5
105E5
  8
0
 10
137.070180001571
 20
168.84265420677889
 30
0.0
 40
6.1794464472112391
 50
273.65491922228989
 51
308.63314045001653
  0
ARC
  5
105E6
  8
0
 10
137.80629802735871
 20
168.70891107227251
 30
0.0
 40
6.0428316326728053
 50
230.95825255120729
 51
266.75369295883172
  0
LINE
  5
105E7
  8
0
 10
134.0000001043081
 20
171.3360293724422
 30
0.0
 11
134.0000001043081
 21
164.01552101157949
 31
0.0
  0
ARC
  5
105E8
  8
0
 10
137.88972023686881
 20
166.4269479405317
 30
0.0
 40
6.2633060930131599
 50
93.896494982454911
 51
128.39161310620551
  0
ARC
  5
105E9
  8
0
 10
137.12190689776909
 20
166.64265183844319
 30
0.0
 40
6.042820924065305
 50
50.958189186669372
 51
86.75369754232274
  0
LINE
  5
105EA
  8
0
 10
140.928203266114
 20
171.3360293724422
 30
0.0
 11
140.928203266114
 21
164.01552101157949
 31
0.0
  0
ARC
  5
105EB
  8
0
 10
148.19397916328489
 20
183.00519309805341
 30
0.0
 40
20.332219390408831
 50
249.06228775208609
 51
269.04868320821521
  0
ARC
  5
105EC
  8
0
 10
148.24500996580119
 20
152.0824910514682
 30
0.0
 40
20.596951185983901
 50
91.081066007444974
 51
110.8079927296487
  0
ARC
  5
105ED
  8
0
 10
147.5188372357714
 20
152.3464038728481
 30
0.0
 40
20.33217461351148
 50
69.062250163826391
 51
89.048691099074901
  0
LINE
  5
105F2
  8
0
 10
159.85640653222799
 20
162.67577623509209
 30
0.0
 11
135.85640632361151
 21
162.67577623509209
 31
0.0
  0
LINE
  5
105F4
  8
0
 10
159.85640653222799
 20
172.6757760115747
 30
0.0
 11
135.85640632361171
 21
172.6757760115747
 31
0.0
  0
LINE
  5
105F5
  8
0
 10
145.54700537398449
 20
146.30693075739191
 30
0.0
 11
145.54700537398449
 21
143.10693246804519
 31
0.0
  0
LINE
  5
105F6
  8
0
 10
150.1658074818551
 20
146.30693075739191
 30
0.0
 11
150.1658074818551
 21
143.10693246804519
 31
0.0
  0
LINE
  5
105F8
  8
0
 10
143.23760432004929
 20
146.30693075739191
 30
0.0
 11
143.23760432004929
 21
143.10693246804519
 31
0.0
  0
LINE
  5
105FA
  8
0
 10
152.47520853579039
 20
146.30693075739191
 30
0.0
 11
152.47520853579039
 21
143.10693246804519
 31
0.0
  0
LINE
  5
105FB
  8
0
 10
143.23760432004929
 20
143.10693246804519
 30
0.0
 11
152.47520853579039
 21
143.10693246804519
 31
0.0
  0
LINE
  5
105FC
  8
0
 10
145.35640648379919
 20
143.10693246804519
 30
0.0
 11
145.35640648379919
 21
140.70411650024701
 31
0.0
  0
LINE
  5
105FD
  8
0
 10
145.35640648379919
 20
140.70411650024701
 30
0.0
 11
144.8564064018428
 21
140.70411650024701
 31
0.0
  0
LINE
  5
105FE
  8
0
 10
150.8564064539969
 20
140.70411650024701
 30
0.0
 11
150.35640637204051
 21
140.70411650024701
 31
0.0
  0
LINE
  5
105FF
  8
0
 10
150.35640637204051
 20
140.70411650024701
 30
0.0
 11
150.35640637204051
 21
143.10693246804519
 31
0.0
  0
LINE
  5
10600
  8
0
 10
144.8564064018428
 20
139.2041171857004
 30
0.0
 11
150.8564064539969
 21
139.2041171857004
 31
0.0
  0
LINE
  5
10601
  8
0
 10
145.35640648379919
 20
127.7041162320261
 30
0.0
 11
150.35640637204051
 21
127.7041162320261
 31
0.0
  0
LINE
  5
10604
  8
0
 10
139.8564060479402
 20
160.769543326724
 30
0.0
 11
155.85640680789939
 21
160.769543326724
 31
0.0
  0
LINE
  5
10606
  8
0
 10
140.856406211853
 20
158.806931874979
 30
0.0
 11
154.8564066439867
 21
158.806931874979
 31
0.0
  0
LINE
  5
10607
  8
0
 10
155.8564068078997
 20
173.30693238906889
 30
0.0
 11
139.8564060479402
 21
173.306932389069
 31
0.0
  0
LINE
  5
10609
  8
0
 10
140.856406211853
 20
147.3069327839498
 30
0.0
 11
154.8564066439867
 21
147.3069327839498
 31
0.0
  0
LINE
  5
1060A
  8
0
 10
153.8564064800739
 20
146.30693075739191
 30
0.0
 11
141.8564063757658
 21
146.30693075739191
 31
0.0
  0
ARC
  5
1060B
  8
0
 10
161.26968219361191
 20
155.1066075407748
 30
0.0
 40
7.256400005389831
 50
152.10537701611139
 51
207.8946229838885
  0
LINE
  5
1060D
  8
0
 10
157.356406122446
 20
174.30693255298181
 30
0.0
 11
138.35640673339361
 21
174.30693255298181
 31
0.0
  0
LINE
  5
1060E
  8
0
 10
137.85640665143731
 20
174.80693263493819
 30
0.0
 11
157.85640620440239
 21
174.80693263493819
 31
0.0
  0
LINE
  5
1060F
  8
0
 10
137.9348389133811
 20
175.306931785572
 30
0.0
 11
137.85640665143731
 21
175.306931785572
 31
0.0
  0
LINE
  5
10610
  8
0
 10
137.9348389133811
 20
176.80693203144119
 30
0.0
 11
137.9348389133811
 21
175.306931785572
 31
0.0
  0
LINE
  5
10611
  8
0
 10
157.7779739424586
 20
176.80693203144119
 30
0.0
 11
137.9348389133811
 21
176.80693203144119
 31
0.0
  0
LINE
  5
10612
  8
0
 10
157.7779739424586
 20
175.306931785572
 30
0.0
 11
157.7779739424586
 21
176.80693203144119
 31
0.0
  0
LINE
  5
10613
  8
0
 10
157.85640620440239
 20
175.306931785572
 30
0.0
 11
157.7779739424586
 21
175.306931785572
 31
0.0
  0
LINE
  5
10614
  8
0
 10
138.43900200724599
 20
177.30693211339761
 30
0.0
 11
157.27381084859371
 21
177.30693211339761
 31
0.0
  0
LINE
  5
10615
  8
0
 10
157.27381084859371
 20
177.30693211339761
 30
0.0
 11
157.7779739424586
 21
176.80693203144119
 31
0.0
  0
LINE
  5
10616
  8
0
 10
137.9348389133811
 20
176.80693203144119
 30
0.0
 11
138.43900200724599
 21
177.30693211339761
 31
0.0
  0
LINE
  5
1063A
  8
3
 10
140.60640663653609
 20
174.0569320463423
 30
0.0
 11
140.60640663653609
 21
172.6757760115747
 31
0.0
  0
LINE
  5
1063B
  8
3
 10
140.60640663653609
 20
162.67577623509209
 30
0.0
 11
140.60640663653609
 21
159.29758427225391
 31
0.0
  0
LINE
  5
1063C
  8
3
 10
155.10640621930361
 20
159.29758427225391
 30
0.0
 11
155.10640621930361
 21
162.67577623509209
 31
0.0
  0
LINE
  5
1063D
  8
3
 10
155.10640621930361
 20
172.6757760115747
 30
0.0
 11
155.10640621930361
 21
174.0569320463423
 31
0.0
  0
LINE
  5
10645
  8
0
 10
78.999999973922954
 20
156.6980701827292
 30
0.0
 11
78.999999973922954
 21
153.50712248616259
 31
0.0
  0
LINE
  5
10646
  8
0
 10
78.999999973922954
 20
143.10693153672261
 30
0.0
 11
78.999999973922954
 21
139.20411625437779
 31
0.0
  0
LINE
  5
10647
  8
0
 10
85.000000026077046
 20
139.20411625437779
 30
0.0
 11
85.000000026077046
 21
143.10693153672261
 31
0.0
  0
LINE
  5
10648
  8
0
 10
85.000000026077046
 20
153.52064715259121
 30
0.0
 11
85.000000026077046
 21
156.69354954295201
 31
0.0
  0
LINE
  5
10649
  8
0
 10
79.500000055879354
 20
139.20411625437779
 30
0.0
 11
79.500000055879354
 21
127.70411530070351
 31
0.0
  0
LINE
  5
1064A
  8
0
 10
84.499999944120646
 20
127.70411530070351
 30
0.0
 11
84.499999944120646
 21
139.20411625437779
 31
0.0
  0
LINE
  5
1064B
  8
0
 10
80.600000049918904
 20
127.70411530070351
 30
0.0
 11
80.600000049918904
 21
117.3280195217539
 31
0.0
  0
LINE
  5
1064C
  8
0
 10
83.399999950081124
 20
117.7128129211023
 30
0.0
 11
83.399999950081124
 21
127.70411530070351
 31
0.0
  0
LINE
  5
1064D
  8
0
 10
90.000000379979625
 20
173.30693145774649
 30
0.0
 11
89.000000216066837
 21
174.3069316216592
 31
0.0
  0
LINE
  5
1064E
  8
0
 10
74.999999783933163
 20
174.3069316216592
 30
0.0
 11
73.99999962002039
 21
173.30693145774649
 31
0.0
  0
LINE
  5
1064F
  8
0
 10
73.99999962002039
 20
173.30693145774649
 30
0.0
 11
73.99999962002039
 21
172.67577508025209
 31
0.0
  0
LINE
  5
10650
  8
0
 10
73.99999962002039
 20
162.67577530376951
 30
0.0
 11
73.99999962002039
 21
160.7695423954014
 31
0.0
  0
LINE
  5
10651
  8
0
 10
90.000000379979625
 20
160.7695423954014
 30
0.0
 11
90.000000379979625
 21
162.67577530376951
 31
0.0
  0
LINE
  5
10652
  8
0
 10
90.000000379979625
 20
172.67577508025209
 30
0.0
 11
90.000000379979625
 21
173.30693145774649
 31
0.0
  0
LINE
  5
10653
  8
0
 10
73.99999962002039
 20
160.7695423954014
 30
0.0
 11
74.999999783933163
 21
158.8069309436564
 31
0.0
  0
LINE
  5
10654
  8
0
 10
89.000000216066837
 20
158.8069309436564
 30
0.0
 11
90.000000379979625
 21
160.7695423954014
 31
0.0
  0
LINE
  5
10655
  8
0
 10
74.999999783933163
 20
158.8069309436564
 30
0.0
 11
74.999999783933163
 21
147.3069318526272
 31
0.0
  0
LINE
  5
10656
  8
0
 10
89.000000216066837
 20
147.3069318526272
 30
0.0
 11
89.000000216066837
 21
158.8069309436564
 31
0.0
  0
LINE
  5
10657
  8
0
 10
74.999999783933163
 20
147.3069318526272
 30
0.0
 11
75.999999947845936
 21
146.30692982606931
 31
0.0
  0
LINE
  5
10658
  8
0
 10
88.000000052154064
 20
146.30692982606931
 30
0.0
 11
89.000000216066837
 21
147.3069318526272
 31
0.0
  0
LINE
  5
10659
  8
0
 10
72.000000223517404
 20
174.80693170361559
 30
0.0
 11
72.500000305473804
 21
174.3069316216592
 31
0.0
  0
LINE
  5
1065A
  8
0
 10
91.499999694526196
 20
174.3069316216592
 30
0.0
 11
91.999999776482596
 21
174.80693170361559
 31
0.0
  0
LINE
  5
1065B
  8
0
 10
91.999999776482596
 20
174.80693170361559
 30
0.0
 11
91.999999776482596
 21
176.80693110011859
 31
0.0
  0
LINE
  5
1065C
  8
0
 10
72.000000223517404
 20
176.80693110011859
 30
0.0
 11
72.000000223517404
 21
174.80693170361559
 31
0.0
  0
LINE
  5
1065D
  8
0
 10
72.500000305473804
 20
177.306931182075
 30
0.0
 11
72.000000223517404
 21
176.80693110011859
 31
0.0
  0
LINE
  5
1065E
  8
0
 10
91.999999776482596
 20
176.80693110011859
 30
0.0
 11
91.499999694526196
 21
177.306931182075
 31
0.0
  0
ARC
  5
1065F
  8
0
 10
75.596611979222416
 20
178.58760161046311
 30
0.0
 40
15.916938721614059
 50
271.45222038924783
 51
293.72205559110211
  0
ARC
  5
10660
  8
0
 10
76.325719980558119
 20
178.2397684800803
 30
0.0
 40
15.56740110397228
 50
246.02462324458659
 51
268.8011007750668
  0
ARC
  5
10662
  8
0
 10
76.403390956544172
 20
156.7639554182237
 30
0.0
 40
15.91693215612886
 50
91.452231935184955
 51
113.7220779296221
  0
ARC
  5
10663
  8
0
 10
75.757413622655349
 20
157.48411255932021
 30
0.0
 40
15.19359925347036
 50
65.740533483134882
 51
89.085156652060348
  0
LINE
  5
10664
  8
0
 10
82.000000000000114
 20
171.33602844111959
 30
0.0
 11
82.000000000000114
 21
164.01552008025689
 31
0.0
  0
ARC
  5
10665
  8
0
 10
88.406049181998014
 20
156.75205113233289
 30
0.0
 40
15.92890015868592
 50
91.460704853644202
 51
113.7136050111631
  0
ARC
  5
10667
  8
0
 10
88.325719871731508
 20
178.23976752556379
 30
0.0
 40
15.56740014520534
 50
246.02462253381881
 51
268.80110148583628
  0
ARC
  5
10669
  8
0
 10
87.625046966496484
 20
178.4602569831338
 30
0.0
 40
15.788934470148179
 50
271.36077891493352
 51
293.8134970654209
  0
ARC
  5
1066A
  8
0
 10
87.674283042872275
 20
157.11181522017131
 30
0.0
 40
15.567367731775979
 50
66.024580800420495
 51
88.801109334765556
  0
LINE
  5
1066E
  8
0
 10
69.999999895691872
 20
162.67577530376971
 30
0.0
 11
69.999999895691872
 21
172.67577508025209
 31
0.0
  0
LINE
  5
10671
  8
0
 10
94.000000104308128
 20
162.67577530376951
 30
0.0
 11
69.999999895691872
 21
162.67577530376971
 31
0.0
  0
LINE
  5
10672
  8
0
 10
94.000000104308128
 20
172.67577508025209
 30
0.0
 11
94.000000104308128
 21
162.67577530376951
 31
0.0
  0
LINE
  5
10673
  8
0
 10
94.000000104308128
 20
172.67577508025209
 30
0.0
 11
69.999999895691872
 21
172.67577508025209
 31
0.0
  0
LINE
  5
10674
  8
0
 10
77.999999810010195
 20
146.30692982606931
 30
0.0
 11
77.999999810010195
 21
143.10693153672261
 31
0.0
  0
LINE
  5
10675
  8
0
 10
82.0
 20
146.30692982606931
 30
0.0
 11
82.0
 21
143.10693153672261
 31
0.0
  0
LINE
  5
10677
  8
0
 10
86.000000189989805
 20
146.30692982606931
 30
0.0
 11
86.000000189989805
 21
143.10693153672261
 31
0.0
  0
LINE
  5
10678
  8
0
 10
77.999999810010195
 20
143.1069315367227
 30
0.0
 11
86.000000189989805
 21
143.10693153672261
 31
0.0
  0
LINE
  5
10679
  8
0
 10
78.999999973922954
 20
139.20411625437779
 30
0.0
 11
85.000000026077046
 21
139.20411625437779
 31
0.0
  0
LINE
  5
1067A
  8
0
 10
83.658312394283726
 20
143.10693153672261
 30
0.0
 11
83.658312394283726
 21
140.70411556892441
 31
0.0
  0
LINE
  5
1067B
  8
0
 10
80.341687605716288
 20
140.70411556892441
 30
0.0
 11
80.341687605716288
 21
143.10693153672261
 31
0.0
  0
LINE
  5
1067C
  8
0
 10
83.658312394283726
 20
140.70411556892441
 30
0.0
 11
80.341687605716288
 21
140.70411556892441
 31
0.0
  0
LINE
  5
1067D
  8
0
 10
79.500000055879354
 20
127.70411530070351
 30
0.0
 11
84.499999944120646
 21
127.70411530070351
 31
0.0
  0
LINE
  5
1067F
  8
0
 10
90.000000379979625
 20
173.30693145774649
 30
0.0
 11
73.99999962002039
 21
173.30693145774649
 31
0.0
  0
LINE
  5
10680
  8
0
 10
73.99999962002039
 20
160.7695423954014
 30
0.0
 11
90.000000379979625
 21
160.7695423954014
 31
0.0
  0
LINE
  5
10681
  8
0
 10
74.999999783933163
 20
158.8069309436564
 30
0.0
 11
89.000000216066837
 21
158.8069309436564
 31
0.0
  0
LINE
  5
10682
  8
0
 10
74.999999783933163
 20
147.3069318526272
 30
0.0
 11
89.000000216066837
 21
147.3069318526272
 31
0.0
  0
CIRCLE
  5
10683
  8
0
 10
81.99999951691143
 20
155.1069314801093
 30
0.0
 40
3.3999995619874031
  0
LINE
  5
10684
  8
0
 10
88.000000052154064
 20
146.30692982606931
 30
0.0
 11
75.999999947845936
 21
146.30692982606931
 31
0.0
  0
LINE
  5
10685
  8
0
 10
91.499999694526196
 20
174.3069316216592
 30
0.0
 11
72.500000305473804
 21
174.3069316216592
 31
0.0
  0
LINE
  5
10686
  8
0
 10
72.000000223517404
 20
174.80693170361559
 30
0.0
 11
91.999999776482596
 21
174.80693170361559
 31
0.0
  0
LINE
  5
10687
  8
0
 10
80.750000027939677
 20
176.80693110011859
 30
0.0
 11
72.000000223517404
 21
176.80693110011859
 31
0.0
  0
LINE
  5
10688
  8
0
 10
80.750000027939677
 20
175.3069308542494
 30
0.0
 11
80.750000027939677
 21
177.306931182075
 31
0.0
  0
LINE
  5
10689
  8
0
 10
83.249999972060337
 20
175.3069308542494
 30
0.0
 11
80.750000027939677
 21
175.3069308542494
 31
0.0
  0
LINE
  5
1068A
  8
0
 10
83.249999972060337
 20
177.306931182075
 30
0.0
 11
83.249999972060337
 21
175.3069308542494
 31
0.0
  0
LINE
  5
1068B
  8
0
 10
91.999999776482596
 20
176.80693110011859
 30
0.0
 11
83.249999972060337
 21
176.80693110011859
 31
0.0
  0
LINE
  5
1068C
  8
0
 10
72.500000305473804
 20
177.306931182075
 30
0.0
 11
80.750000027939677
 21
177.306931182075
 31
0.0
  0
LINE
  5
1068E
  8
0
 10
83.249999972060337
 20
177.306931182075
 30
0.0
 11
91.499999694526196
 21
177.306931182075
 31
0.0
  0
LINE
  5
106B7
  8
3
 10
74.75000020861637
 20
174.05693111501981
 30
0.0
 11
74.75000020861637
 21
172.67577508025209
 31
0.0
  0
LINE
  5
106B8
  8
3
 10
74.75000020861637
 20
162.67577530376951
 30
0.0
 11
74.75000020861637
 21
159.2975833409314
 31
0.0
  0
LINE
  5
106B9
  8
3
 10
89.249999791383956
 20
159.2975833409314
 30
0.0
 11
89.249999791383857
 21
162.67577530376951
 31
0.0
  0
LINE
  5
106BA
  8
3
 10
89.249999791383857
 20
172.67577508025209
 30
0.0
 11
89.249999791383857
 21
174.05693111501981
 31
0.0
  0
LINE
  5
10734
  8
0
 10
82.0
 20
245.01974410317729
 30
0.0
 11
94.000000000000227
 21
238.09154087290159
 31
0.0
  0
LINE
  5
10736
  8
0
 10
70.0
 20
238.09154087290159
 30
0.0
 11
82.000000000000213
 21
245.0197441031772
 31
0.0
  0
LINE
  5
10737
  8
0
 10
94.000000000000227
 20
238.09154087290179
 30
0.0
 11
94.000000000000227
 21
224.23513441235059
 31
0.0
  0
LINE
  5
1073A
  8
0
 10
70.0
 20
224.23513441235059
 30
0.0
 11
70.0
 21
238.09154087290159
 31
0.0
  0
LINE
  5
1073B
  8
0
 10
94.000000000000227
 20
224.23513441235059
 30
0.0
 11
82.000000000000213
 21
217.306931182075
 31
0.0
  0
LINE
  5
1073D
  8
0
 10
82.000000000000114
 20
217.306931182075
 30
0.0
 11
70.0
 21
224.23513441235059
 31
0.0
  0
CIRCLE
  5
1073F
  8
0
 10
82.000000000000114
 20
231.1633376426262
 30
0.0
 40
1.0
  0
CIRCLE
  5
10740
  8
0
 10
82.000000000000114
 20
231.1633376426262
 30
0.0
 40
2.150000000000019
  0
ARC
  5
10748
  8
0
 10
82.000000000000114
 20
231.1633376426262
 30
0.0
 40
9.4999999999999911
 50
277.56084317667307
 51
82.439156823326869
  0
LINE
  5
1074C
  8
0
 10
83.250000000000114
 20
241.08490505911831
 30
0.0
 11
83.250000000000114
 21
234.00014923312699
 31
0.0
  0
LINE
  5
1074D
  8
0
 10
83.250000000000114
 20
228.32652605212539
 30
0.0
 11
83.250000000000114
 21
221.24177022613401
 31
0.0
  0
ARC
  5
1074E
  8
0
 10
82.000000000000114
 20
231.1633376426262
 30
0.0
 40
9.4999999999999911
 50
97.560843176673146
 51
262.43915682332693
  0
LINE
  5
10752
  8
0
 10
80.750000000000114
 20
228.32652605212539
 30
0.0
 11
80.750000000000114
 21
221.24177022613401
 31
0.0
  0
LINE
  5
10753
  8
0
 10
80.750000000000114
 20
241.08490505911831
 30
0.0
 11
80.750000000000114
 21
234.00014923312699
 31
0.0
  0
LINE
  5
1075E
  8
0
 10
82.0
 20
50.0
 30
0.0
 11
70.0
 21
56.928203230275578
 31
0.0
  0
LINE
  5
10760
  8
0
 10
94.000000000000114
 20
56.928203230275578
 30
0.0
 11
82.0
 21
50.0
 31
0.0
  0
LINE
  5
10763
  8
0
 10
70.0
 20
56.928203230275578
 30
0.0
 11
70.0
 21
70.784609690826642
 31
0.0
  0
LINE
  5
10764
  8
0
 10
94.000000000000114
 20
70.784609690826755
 30
0.0
 11
94.000000000000114
 21
56.928203230275578
 31
0.0
  0
LINE
  5
10766
  8
0
 10
70.0
 20
70.784609690826642
 30
0.0
 11
82.0
 21
77.712812921102227
 31
0.0
  0
LINE
  5
10768
  8
0
 10
82.0
 20
77.712812921102341
 30
0.0
 11
94.000000000000114
 21
70.784609690826642
 31
0.0
  0
LINE
  5
1076A
  8
0
 10
78.0
 20
61.547005383792559
 30
0.0
 11
78.0
 21
66.165807537309533
 31
0.0
  0
LINE
  5
1076B
  8
0
 10
78.0
 20
66.165807537309533
 30
0.0
 11
82.0
 21
68.475208614068151
 31
0.0
  0
LINE
  5
1076C
  8
0
 10
82.0
 20
68.475208614068151
 30
0.0
 11
86.0
 21
66.165807537309661
 31
0.0
  0
LINE
  5
1076D
  8
0
 10
86.0
 20
66.165807537309661
 30
0.0
 11
86.0
 21
61.547005383792559
 31
0.0
  0
LINE
  5
1076E
  8
0
 10
86.0
 20
61.547005383792559
 30
0.0
 11
82.0
 21
59.237604307034069
 31
0.0
  0
LINE
  5
1076F
  8
0
 10
82.0
 20
59.237604307034069
 30
0.0
 11
78.0
 21
61.547005383792559
 31
0.0
  0
CIRCLE
  5
10770
  8
0
 10
82.0
 20
63.85640646055105
 30
0.0
 40
1.400000000000019
  0
CIRCLE
  5
10771
  8
0
 10
82.0
 20
63.85640646055105
 30
0.0
 40
2.5000000000000142
  0
CIRCLE
  5
10772
  8
0
 10
82.0
 20
63.85640646055105
 30
0.0
 40
3.0000000000000142
  0
CIRCLE
  5
10773
  8
0
 10
82.0
 20
63.85640646055105
 30
0.0
 40
7.0000000000000142
  0
CIRCLE
  5
10774
  8
0
 10
82.0
 20
63.85640646055105
 30
0.0
 40
6.0000000000000142
  0
CIRCLE
  5
10775
  8
0
 10
82.0
 20
63.85640646055105
 30
0.0
 40
8.0000000000000142
  0
CIRCLE
  5
10835
  8
0
 10
82.000000000000114
 20
231.1633376426262
 30
0.0
 40
12.0
  0
CIRCLE
  5
10836
  8
0
 10
82.000000000000114
 20
231.1633376426262
 30
0.0
 40
10.0
  0
CIRCLE
  5
10838
  8
0
 10
82.000000000000114
 20
231.1633376426262
 30
0.0
 40
3.1000000000000001
  0
LINE
  5
10840
  8
3
 10
81.935535405949395
 20
143.10693153672261
 30
0.0
 11
80.341687605716288
 21
140.70411556892441
 31
0.0
  0
LINE
  5
10841
  8
3
 10
83.658312394283726
 20
140.70411556892441
 30
0.0
 11
82.064464594050847
 21
143.10693153672261
 31
0.0
  0
POLYLINE
  5
10B37
  8
3
 66
     1
 10
0.0
 20
0.0
 30
0.0
  0
VERTEX
  5
10B39
  8
3
 10
146.4564064778387
 20
117.3280204530765
 30
0.0
 42
-0.1477739843887826
  0
VERTEX
  5
10B3A
  8
3
 10
146.93399282550769
 20
117.8120239768613
 30
0.0
 42
-0.1536795722212451
  0
VERTEX
  5
10B3B
  8
3
 10
147.47185963364129
 20
117.91751708716779
 30
0.0
 42
-0.1847247553159499
  0
VERTEX
  5
10B3C
  8
3
 10
147.88516161924849
 20
117.70411459289831
 30
0.0
 42
0.1729818233278114
  0
VERTEX
  5
10B3D
  8
3
 10
148.31944945212089
 20
117.46720699924769
 30
0.0
 42
0.1305645647028073
  0
VERTEX
  5
10B3E
  8
3
 10
148.92177202460539
 20
117.5293726615519
 30
0.0
 42
0.0695828883349214
  0
VERTEX
  5
10B3F
  8
3
 10
149.25640637800089
 20
117.7128138524249
 30
0.0
  0
SEQEND
  5
10B38
  8
3
  0
POLYLINE
  5
10B40
  8
3
 66
     1
 10
0.0
 20
0.0
 30
0.0
  0
VERTEX
  5
10B41
  8
3
 10
80.600000049918904
 20
117.3280195217539
 30
0.0
 42
-0.1477739843887826
  0
VERTEX
  5
10B42
  8
3
 10
81.077586397587879
 20
117.81202304553869
 30
0.0
 42
-0.1536795722212451
  0
VERTEX
  5
10B43
  8
3
 10
81.615453205721451
 20
117.91751615584521
 30
0.0
 42
-0.1847247553159499
  0
VERTEX
  5
10B44
  8
3
 10
82.028755191328628
 20
117.7041136615758
 30
0.0
 42
0.1729818233278114
  0
VERTEX
  5
10B45
  8
3
 10
82.463043024201056
 20
117.4672060679252
 30
0.0
 42
0.1305645647028073
  0
VERTEX
  5
10B46
  8
3
 10
83.065365596685524
 20
117.5293717302294
 30
0.0
 42
0.0695828883349214
  0
VERTEX
  5
10B47
  8
3
 10
83.399999950081124
 20
117.7128129211023
 30
0.0
  0
SEQEND
  5
10B48
  8
3
  0
ARC
  5
10B50
  8
0
 10
134.44313066222799
 20
155.1066075407748
 30
0.0
 40
7.256400005389831
 50
332.10537701611139
 51
27.894622983888521
  0
CIRCLE
  5
10B5F
  8
0
 10
82.0
 20
63.85640646055105
 30
0.0
 40
12.0
  0
CIRCLE
  5
10B68
  8
3
 10
82.0
 20
63.85640646055105
 30
0.0
 40
7.2500670535541376
  0
LINE
  5
10B69
  8
1
 10
82.0
 20
46.999999999999879
 30
0.0
 11
82.0
 21
80.712812921102227
 31
0.0
  0
LINE
  5
10B6A
  8
1
 10
147.85640642791981
 20
114.70411459289831
 30
0.0
 11
147.85640642791981
 21
180.30693211339761
 31
0.0
  0
LINE
  5
10B6B
  8
1
 10
98.85640646055117
 20
63.85640646055105
 30
0.0
 11
65.143593539448815
 21
63.85640646055105
 31
0.0
  0
LINE
  5
10B6C
  8
1
 10
65.143593539449057
 20
231.1633376426262
 30
0.0
 11
98.856406460551398
 21
231.1633376426262
 31
0.0
  0
LINE
  5
10B75
  8
1
 10
82.000000000000213
 20
214.306931182075
 30
0.0
 11
82.000000000000213
 21
248.01974410317729
 31
0.0
  0
LINE
  5
10B76
  8
1
 10
82.000000000000114
 20
114.7041136615758
 30
0.0
 11
82.000000000000114
 21
180.306931182075
 31
0.0
  0
LINE
  5
10B95
  8
0
 10
219.51637348160631
 20
-35.426666666666577
 30
0.0
 11
258.51637348160631
 21
-35.426666666666577
 31
0.0
  0
LINE
  5
10B96
  8
0
 10
229.01637348160651
 20
-38.926666666666577
 30
0.0
 11
249.01637348160651
 21
-38.926666666666577
 31
0.0
  0
LINE
  5
10B97
  8
1
 10
239.01637348160651
 20
-32.426666666666577
 30
0.0
 11
239.01637348160651
 21
-44.42666666666657
 31
0.0
  0
LINE
  5
10B98
  8
0
 10
249.01637348160651
 20
-35.926666666666577
 30
0.0
 11
249.01637348160651
 21
-38.926666666666577
 31
0.0
  0
LINE
  5
10B99
  8
0
 10
229.01637348160651
 20
-35.926666666666577
 30
0.0
 11
229.01637348160651
 21
-38.926666666666577
 31
0.0
  0
LINE
  5
10B9A
  8
0
 10
230.51637348160651
 20
-40.926666666666577
 30
0.0
 11
230.51637348160651
 21
-38.926666666666577
 31
0.0
  0
LINE
  5
10B9B
  8
0
 10
247.51637348160651
 20
-40.926666666666719
 30
0.0
 11
247.51637348160651
 21
-38.926666666666577
 31
0.0
  0
LINE
  5
10B9C
  8
0
 10
219.51637348160631
 20
-41.426666666666577
 30
0.0
 11
258.51637348160631
 21
-41.426666666666577
 31
0.0
  0
LINE
  5
10BA3
  8
0
 10
229.01637348160651
 20
-35.926666666666577
 30
0.0
 11
228.51637348160651
 21
-35.426666666666577
 31
0.0
  0
LINE
  5
10BA4
  8
0
 10
249.01637348160651
 20
-35.926666666666783
 30
0.0
 11
249.51637348160619
 21
-35.426666666666783
 31
0.0
  0
LINE
  5
10BA5
  8
0
 10
229.01637348160651
 20
-35.926666666666577
 30
0.0
 11
249.01637348160651
 21
-35.926666666666577
 31
0.0
  0
LINE
  5
10BA6
  8
0
 10
230.51637348160651
 20
-40.926666666666577
 30
0.0
 11
230.01637348160651
 21
-41.426666666666577
 31
0.0
  0
LINE
  5
10BA7
  8
0
 10
247.51637348160619
 20
-40.926666666666577
 30
0.0
 11
248.01637348160651
 21
-41.426666666666577
 31
0.0
  0
LINE
  5
10BA8
  8
0
 10
230.51637348160651
 20
-40.926666666666719
 30
0.0
 11
247.51637348160651
 21
-40.926666666666719
 31
0.0
  0
TEXT
  5
10BAD
  8
0
 62
     3
 10
177.9497068149397
 20
-107.92666666666651
 30
0.0
 40
3.2000000000000002
  1
組付け状態
 72
     1
 11
187.01637348160631
 21
-107.92666666666651
 31
0.0
  0
POLYLINE
  5
10BAE
  8
5
 66
     1
 10
0.0
 20
0.0
 30
0.0
 70
     1
  0
VERTEX
  5
110B1
  8
5
 10
143.80437348160629
 20
-10.0
 30
0.0
  0
VERTEX
  5
110B2
  8
5
 10
413.80437348160638
 20
-10.0
 30
0.0
  0
VERTEX
  5
110B3
  8
5
 10
413.80437348160638
 20
-123.4371369560655
 30
0.0
  0
VERTEX
  5
110B4
  8
5
 10
143.80437348160629
 20
-123.4371369560655
 30
0.0
  0
SEQEND
  5
110B5
  8
5
  0
TEXT
  5
10BAF
  8
0
 62
     3
 10
231.76304014827309
 20
-107.92666666666651
 30
0.0
 40
3.2000000000000002
  1
取付け穴
 72
     1
 11
239.01637348160651
 21
-107.92666666666651
 31
0.0
  0
TEXT
  5
10BB3
  8
0
 62
     3
 10
0.0
 20
0.0
 30
0.0
 40
10.0
  1
QCWE0625-M16-S
  7
STANDARD1
  0
TEXT
  5
10BB6
  8
0
 62
     3
 10
165.8003734816063
 20
-114.92666666666651
 30
0.0
 40
3.2000000000000002
  1
Installed condition
 41
0.85
 72
     1
 11
187.01637348160631
 21
-114.92666666666651
 31
0.0
  0
TEXT
  5
10BB7
  8
0
 62
     3
 10
220.29370681493981
 20
-114.92666666666651
 30
0.0
 40
3.2000000000000002
  1
Installation hole
 41
0.85
 72
     1
 11
239.01637348160651
 21
-114.92666666666651
 31
0.0
  0
TEXT
  5
10C06
  8
0
 62
     3
 10
186.68304014827311
 20
-20.000000000000011
 30
0.0
 40
3.2000000000000002
  1
6mm～10mmのベースの場合
 72
     1
 11
212.01637348160651
 21
-20.426666666666669
 31
0.0
 73
     1
  0
TEXT
  5
10C07
  8
0
 62
     3
 10
149.45637348160651
 20
-27.000000000000011
 30
0.0
 40
3.2000000000000002
  1
For installation on plate of over 6 to 10 mm thickness.
 41
0.85
 72
     1
 11
212.01637348160651
 21
-27.426666666666669
 31
0.0
 73
     1
  0
TEXT
  5
10C08
  8
0
 62
     3
 10
323.19770681493981
 20
-20.0
 30
0.0
 40
3.2000000000000002
  1
10mmを超えるベースへの取付け
 72
     1
 11
351.30437348160649
 21
-20.0
 31
0.0
  0
TEXT
  5
10C09
  8
0
 62
     3
 10
294.45637348160648
 20
-27.000000000000011
 30
0.0
 40
3.2000000000000002
  1
For installation on plate of over 10 mm thickness.
 41
0.85
 72
     1
 11
351.30437348160649
 21
-27.000000000000011
 31
0.0
  0
LINE
  5
10C7C
  8
0
 10
173.15996715799409
 20
-50.086921666661809
 30
0.0
 11
175.01637337729781
 21
-51.426666443149159
 31
0.0
  0
LINE
  5
10C7D
  8
0
 10
199.0163735859141
 20
-51.426666443149159
 30
0.0
 11
200.87277980521779
 21
-50.086921666661809
 31
0.0
  0
LINE
  5
10C7E
  8
0
 10
175.01637337729781
 20
-41.426666666666577
 30
0.0
 11
173.15996715799409
 21
-42.766413305799077
 31
0.0
  0
LINE
  5
10C7F
  8
0
 10
200.87277980521779
 20
-42.766413305799077
 30
0.0
 11
199.0163735859141
 21
-41.426666666666577
 31
0.0
  0
LINE
  5
10C80
  8
0
 10
184.01637345552939
 20
-72.529482719401429
 30
0.0
 11
184.01637345552939
 21
-74.029482033948014
 31
0.0
  0
LINE
  5
10C81
  8
0
 10
190.01637350768351
 20
-74.029482033948014
 30
0.0
 11
190.01637350768351
 21
-72.529482719401429
 31
0.0
  0
LINE
  5
10C82
  8
0
 10
184.5163735374858
 20
-74.029482033948014
 30
0.0
 11
184.5163735374858
 21
-85.52948298762233
 31
0.0
  0
LINE
  5
10C83
  8
0
 10
189.5163734257271
 20
-85.52948298762233
 30
0.0
 11
189.5163734257271
 21
-74.029482033948014
 31
0.0
  0
LINE
  5
10C84
  8
0
 10
185.6163735315254
 20
-85.52948298762233
 30
0.0
 11
185.6163735315254
 21
-95.905578766571878
 31
0.0
  0
LINE
  5
10C85
  8
0
 10
188.41637343168759
 20
-95.520785367223496
 30
0.0
 11
188.41637343168759
 21
-85.52948298762233
 31
0.0
  0
LINE
  5
10C86
  8
0
 10
179.0163731016269
 20
-52.464055892924378
 30
0.0
 11
180.01637326553961
 21
-54.426667344669411
 31
0.0
  0
LINE
  5
10C87
  8
0
 10
194.01637369767329
 20
-54.426667344669411
 30
0.0
 11
195.01637386158609
 21
-52.464055892924378
 31
0.0
  0
LINE
  5
10C88
  8
0
 10
179.0163731016269
 20
-39.92666683057935
 30
0.0
 11
179.0163731016269
 21
-41.426666666666577
 31
0.0
  0
LINE
  5
10C89
  8
0
 10
179.0163731016269
 20
-51.426666443149159
 30
0.0
 11
179.0163731016269
 21
-52.464055892924378
 31
0.0
  0
LINE
  5
10C8A
  8
0
 10
195.01637386158609
 20
-52.464055892924378
 30
0.0
 11
195.01637386158609
 21
-51.426666443149159
 31
0.0
  0
LINE
  5
10C8B
  8
0
 10
195.01637386158609
 20
-41.426666666666577
 30
0.0
 11
195.01637386158609
 21
-39.92666683057935
 31
0.0
  0
LINE
  5
10C8C
  8
0
 10
195.01637386158609
 20
-39.92666683057935
 30
0.0
 11
194.01637369767329
 21
-38.926666666666577
 31
0.0
  0
LINE
  5
10C8D
  8
0
 10
180.01637326553961
 20
-38.926666666666577
 30
0.0
 11
179.0163731016269
 21
-39.92666683057935
 31
0.0
  0
LINE
  5
10C8E
  8
0
 10
180.01637326553961
 20
-65.926666435698579
 30
0.0
 11
181.01637342945239
 21
-66.926668462256501
 31
0.0
  0
LINE
  5
10C8F
  8
0
 10
193.01637353376049
 20
-66.926668462256501
 30
0.0
 11
194.01637369767329
 21
-65.926666435698579
 31
0.0
  0
LINE
  5
10C90
  8
0
 10
180.01637326553961
 20
-61.521875736216607
 30
0.0
 11
180.01637326553961
 21
-65.926666435698579
 31
0.0
  0
LINE
  5
10C91
  8
0
 10
180.01637326553961
 20
-54.426667344669411
 30
0.0
 11
180.01637326553961
 21
-54.732107621530602
 31
0.0
  0
LINE
  5
10C92
  8
0
 10
194.01637369767329
 20
-54.732107621530602
 30
0.0
 11
194.01637369767329
 21
-54.426667344669411
 31
0.0
  0
LINE
  5
10C93
  8
0
 10
194.01637369767329
 20
-65.926666435698579
 30
0.0
 11
194.01637369767329
 21
-61.521875736216607
 31
0.0
  0
LINE
  5
10C94
  8
0
 10
177.0163737051239
 20
-38.42666658471019
 30
0.0
 11
177.51637378708031
 21
-38.926666666666577
 31
0.0
  0
LINE
  5
10C95
  8
0
 10
196.5163731761327
 20
-38.926666666666577
 30
0.0
 11
197.01637325808909
 21
-38.42666658471019
 31
0.0
  0
ARC
  5
10C98
  8
0
 10
196.98305775393169
 20
-45.177826585877327
 30
0.0
 40
6.2633179823831231
 50
273.89650516733872
 51
308.39154932262852
  0
ARC
  5
10C99
  8
0
 10
197.75087454909129
 20
-45.393531769822687
 30
0.0
 40
6.0428314944678521
 50
230.95825170054411
 51
266.75368862715692
  0
LINE
  5
10C9A
  8
0
 10
193.94457664341181
 20
-42.766413305799077
 30
0.0
 11
193.94457664341181
 21
-50.086921666661809
 31
0.0
  0
ARC
  5
10C9B
  8
0
 10
197.80260419610201
 20
-47.59354901480885
 30
0.0
 40
6.1794510881236366
 50
93.654956314297053
 51
128.63315695670869
  0
ARC
  5
10C9C
  8
0
 10
197.06648341950171
 20
-47.459791003650778
 30
0.0
 40
6.0428210622692751
 50
50.958190037340287
 51
86.753701874004037
  0
LINE
  5
10C9D
  8
0
 10
200.87277980521779
 20
-42.766413305799077
 30
0.0
 11
200.87277980521779
 21
-50.086921666661809
 31
0.0
  0
ARC
  5
10C9E
  8
0
 10
186.62777658912049
 20
-30.833389080117929
 30
0.0
 40
20.596943464883012
 50
271.0810479235538
 51
290.8079811161499
  0
ARC
  5
10C9F
  8
0
 10
176.23014705525699
 20
-45.259788471462407
 30
0.0
 40
6.1794464472112391
 50
273.65491922228989
 51
308.63314045001653
  0
ARC
  5
10CA0
  8
0
 10
176.9662650810447
 20
-45.393531605968811
 30
0.0
 40
6.0428316326728053
 50
230.9582525512071
 51
266.75369295883172
  0
LINE
  5
10CA1
  8
0
 10
173.15996715799409
 20
-42.766413305799077
 30
0.0
 11
173.15996715799409
 21
-50.086921666661809
 31
0.0
  0
ARC
  5
10CA2
  8
0
 10
177.0496872905548
 20
-47.675494737709599
 30
0.0
 40
6.2633060930131599
 50
93.896494982454911
 51
128.39161310620531
  0
ARC
  5
10CA3
  8
0
 10
176.2818739514552
 20
-47.459790839798032
 30
0.0
 40
6.042820924065305
 50
50.958189186669443
 51
86.75369754232274
  0
LINE
  5
10CA4
  8
0
 10
180.08817031980001
 20
-42.766413305799077
 30
0.0
 11
180.08817031980001
 21
-50.086921666661809
 31
0.0
  0
ARC
  5
10CA5
  8
0
 10
187.35394621697091
 20
-31.097249580187931
 30
0.0
 40
20.332219390408831
 50
249.06228775208609
 51
269.04868320821521
  0
ARC
  5
10CA6
  8
0
 10
187.40497701948729
 20
-62.0199516267731
 30
0.0
 40
20.596951185983901
 50
91.081066007444974
 51
110.8079927296486
  0
ARC
  5
10CA7
  8
0
 10
186.6788042894575
 20
-61.756038805393203
 30
0.0
 40
20.33217461351148
 50
69.062250163826477
 51
89.048691099074901
  0
LINE
  5
10CA8
  8
0
 10
199.0163735859141
 20
-51.426666443149159
 30
0.0
 11
175.0163733772975
 21
-51.426666443149159
 31
0.0
  0
LINE
  5
10CAA
  8
0
 10
184.70697242767119
 20
-66.926668462256501
 30
0.0
 11
184.70697242767119
 21
-70.126666751603196
 31
0.0
  0
LINE
  5
10CAB
  8
0
 10
189.3257745355418
 20
-66.926668462256501
 30
0.0
 11
189.3257745355418
 21
-70.126666751603196
 31
0.0
  0
LINE
  5
10CAC
  8
0
 10
182.3975713737359
 20
-66.926668462256501
 30
0.0
 11
182.3975713737359
 21
-70.126666751603196
 31
0.0
  0
LINE
  5
10CAD
  8
0
 10
191.63517558947709
 20
-66.926668462256501
 30
0.0
 11
191.63517558947709
 21
-70.126666751603196
 31
0.0
  0
LINE
  5
10CAE
  8
0
 10
182.3975713737359
 20
-70.126666751603196
 30
0.0
 11
191.63517558947709
 21
-70.126666751603196
 31
0.0
  0
LINE
  5
10CAF
  8
0
 10
184.5163735374858
 20
-70.126666751603196
 30
0.0
 11
184.5163735374858
 21
-72.529482719401429
 31
0.0
  0
LINE
  5
10CB0
  8
0
 10
184.5163735374858
 20
-72.529482719401429
 30
0.0
 11
184.01637345552939
 21
-72.529482719401429
 31
0.0
  0
LINE
  5
10CB1
  8
0
 10
190.01637350768351
 20
-72.529482719401429
 30
0.0
 11
189.5163734257271
 21
-72.529482719401429
 31
0.0
  0
LINE
  5
10CB2
  8
0
 10
189.5163734257271
 20
-72.529482719401429
 30
0.0
 11
189.5163734257271
 21
-70.126666751603196
 31
0.0
  0
LINE
  5
10CB3
  8
0
 10
184.01637345552939
 20
-74.029482033948014
 30
0.0
 11
190.01637350768351
 21
-74.029482033948014
 31
0.0
  0
LINE
  5
10CB4
  8
0
 10
184.5163735374858
 20
-85.52948298762233
 30
0.0
 11
189.5163734257271
 21
-85.52948298762233
 31
0.0
  0
LINE
  5
10CB5
  8
0
 10
179.0163731016269
 20
-52.464055892924378
 30
0.0
 11
195.01637386158609
 21
-52.464055892924378
 31
0.0
  0
LINE
  5
10CB6
  8
0
 10
180.01637326553961
 20
-54.426667344669411
 30
0.0
 11
194.01637369767329
 21
-54.426667344669411
 31
0.0
  0
LINE
  5
10CB7
  8
0
 10
195.01637386158629
 20
-39.926666830579457
 30
0.0
 11
179.0163731016269
 21
-39.92666683057935
 31
0.0
  0
LINE
  5
10CB8
  8
0
 10
180.01637326553961
 20
-65.926666435698579
 30
0.0
 11
194.01637369767329
 21
-65.926666435698579
 31
0.0
  0
LINE
  5
10CB9
  8
0
 10
193.01637353376049
 20
-66.926668462256501
 30
0.0
 11
181.01637342945239
 21
-66.926668462256501
 31
0.0
  0
ARC
  5
10CBA
  8
0
 10
200.42964924729861
 20
-58.126991678873608
 30
0.0
 40
7.256400005389831
 50
152.10537701611179
 51
207.89462298388801
  0
LINE
  5
10CBC
  8
0
 10
177.0163737051239
 20
-38.42666658471019
 30
0.0
 11
197.01637325808909
 21
-38.42666658471019
 31
0.0
  0
LINE
  5
10CBD
  8
0
 10
177.09480596706771
 20
-37.926667434076379
 30
0.0
 11
177.0163737051239
 21
-37.926667434076379
 31
0.0
  0
LINE
  5
10CBE
  8
0
 10
177.09480596706771
 20
-36.426667188207219
 30
0.0
 11
177.09480596706771
 21
-37.926667434076379
 31
0.0
  0
LINE
  5
10CBF
  8
0
 10
196.93794099614519
 20
-36.426667188207219
 30
0.0
 11
177.09480596706771
 21
-36.426667188207219
 31
0.0
  0
LINE
  5
10CC0
  8
0
 10
196.93794099614519
 20
-37.926667434076379
 30
0.0
 11
196.93794099614519
 21
-36.426667188207219
 31
0.0
  0
LINE
  5
10CC1
  8
0
 10
197.01637325808909
 20
-37.926667434076379
 30
0.0
 11
196.93794099614519
 21
-37.926667434076379
 31
0.0
  0
LINE
  5
10CC3
  8
0
 10
196.4337779022803
 20
-35.926667106250839
 30
0.0
 11
196.93794099614519
 21
-36.426667188207219
 31
0.0
  0
LINE
  5
10CC4
  8
0
 10
177.09480596706771
 20
-36.426667188207219
 30
0.0
 11
177.5989690609326
 21
-35.926667106250839
 31
0.0
  0
LINE
  5
10CC5
  8
3
 10
179.76637369022271
 20
-39.176667173306058
 30
0.0
 11
179.76637369022259
 21
-41.426666666666577
 31
0.0
  0
LINE
  5
10CC6
  8
3
 10
179.76637369022279
 20
-51.426666443149159
 30
0.0
 11
179.76637369022271
 21
-53.93601494739444
 31
0.0
  0
LINE
  5
10CC7
  8
3
 10
194.26637327299019
 20
-53.93601494739444
 30
0.0
 11
194.26637327299019
 21
-51.426666443149159
 31
0.0
  0
LINE
  5
10CC8
  8
3
 10
194.26637327299019
 20
-41.426666666666577
 30
0.0
 11
194.26637327299019
 21
-39.176667173306058
 31
0.0
  0
POLYLINE
  5
10CC9
  8
3
 66
     1
 10
0.0
 20
0.0
 30
0.0
  0
VERTEX
  5
10CCA
  8
3
 10
185.6163735315254
 20
-95.905578766571878
 30
0.0
 42
-0.1477739843887826
  0
VERTEX
  5
10CCB
  8
3
 10
186.0939598791943
 20
-95.421575242787142
 30
0.0
 42
-0.1536795722212451
  0
VERTEX
  5
10CCC
  8
3
 10
186.6318266873279
 20
-95.316082132480645
 30
0.0
 42
-0.1847247553159499
  0
VERTEX
  5
10CCD
  8
3
 10
187.04512867293511
 20
-95.529484626750062
 30
0.0
 42
0.1729818233278114
  0
VERTEX
  5
10CCE
  8
3
 10
187.47941650580751
 20
-95.766392220400647
 30
0.0
 42
0.1305645647028073
  0
VERTEX
  5
10CCF
  8
3
 10
188.081739078292
 20
-95.704226558096437
 30
0.0
 42
0.0695828883349214
  0
VERTEX
  5
10CD0
  8
3
 10
188.41637343168759
 20
-95.520785367223496
 30
0.0
  0
SEQEND
  5
10CD1
  8
3
  0
ARC
  5
10CD2
  8
0
 10
173.6030977159146
 20
-58.126991678873608
 30
0.0
 40
7.256400005389831
 50
332.10537701611179
 51
27.89462298388818
  0
LINE
  5
10CD3
  8
1
 10
187.01637348160651
 20
-98.529484626750076
 30
0.0
 11
187.01637348160651
 21
-32.426666666666577
 31
0.0
  0
LINE
  5
10D31
  8
0
 10
167.51637348160619
 20
-35.426666666666577
 30
0.0
 11
206.51637348160631
 21
-35.426666666666577
 31
0.0
  0
LINE
  5
10D32
  8
0
 10
177.01637348160651
 20
-38.926666666666577
 30
0.0
 11
197.01637348160651
 21
-38.926666666666577
 31
0.0
  0
LINE
  5
10D34
  8
0
 10
197.01637348160651
 20
-35.926666666666577
 30
0.0
 11
197.01637348160651
 21
-38.926666666666577
 31
0.0
  0
LINE
  5
10D35
  8
0
 10
177.01637348160651
 20
-35.926666666666577
 30
0.0
 11
177.01637348160651
 21
-38.926666666666577
 31
0.0
  0
LINE
  5
10D36
  8
0
 10
178.51637348160639
 20
-40.926666666666577
 30
0.0
 11
178.51637348160639
 21
-38.926666666666577
 31
0.0
  0
LINE
  5
10D37
  8
0
 10
195.51637348160651
 20
-40.926666666666719
 30
0.0
 11
195.51637348160651
 21
-38.926666666666577
 31
0.0
  0
LINE
  5
10D38
  8
0
 10
167.51637348160619
 20
-41.426666666666577
 30
0.0
 11
206.51637348160631
 21
-41.426666666666577
 31
0.0
  0
LINE
  5
10D39
  8
0
 10
177.01637348160651
 20
-35.926666666666577
 30
0.0
 11
176.51637348160651
 21
-35.426666666666577
 31
0.0
  0
LINE
  5
10D3A
  8
0
 10
197.01637348160651
 20
-35.926666666666783
 30
0.0
 11
197.51637348160619
 21
-35.426666666666783
 31
0.0
  0
LINE
  5
10D3B
  8
0
 10
177.01637348160651
 20
-35.926666666666577
 30
0.0
 11
197.01637348160651
 21
-35.926666666666577
 31
0.0
  0
LINE
  5
10D3C
  8
0
 10
178.51637348160639
 20
-40.926666666666577
 30
0.0
 11
178.01637348160651
 21
-41.426666666666577
 31
0.0
  0
LINE
  5
10D3D
  8
0
 10
195.51637348160619
 20
-40.926666666666577
 30
0.0
 11
196.01637348160651
 21
-41.426666666666577
 31
0.0
  0
LINE
  5
10D3E
  8
0
 10
178.51637348160639
 20
-40.926666666666719
 30
0.0
 11
179.0163731016267
 21
-40.926666666666719
 31
0.0
  0
LINE
  5
10D4D
  8
0
 10
195.01637386158609
 20
-40.926666666666719
 30
0.0
 11
195.51637348160651
 21
-40.926666666666719
 31
0.0
  0
TEXT
  5
10D68
  8
0
 62
     3
 10
371.05104014827322
 20
-107.92666666666651
 30
0.0
 40
3.2000000000000002
  1
取付け穴
 72
     1
 11
378.30437348160649
 21
-107.92666666666651
 31
0.0
  0
TEXT
  5
10D69
  8
0
 62
     3
 10
359.58170681493982
 20
-114.92666666666651
 30
0.0
 40
3.2000000000000002
  1
Installation hole
 41
0.85
 72
     1
 11
378.30437348160649
 21
-114.92666666666651
 31
0.0
  0
TEXT
  5
10D6A
  8
0
 62
     3
 10
317.23770681493983
 20
-107.92666666666651
 30
0.0
 40
3.2000000000000002
  1
組付け状態
 72
     1
 11
326.30437348160649
 21
-107.92666666666651
 31
0.0
  0
TEXT
  5
10D6B
  8
0
 62
     3
 10
305.08837348160648
 20
-114.92666666666651
 30
0.0
 40
3.2000000000000002
  1
Installed condition
 41
0.85
 72
     1
 11
326.30437348160649
 21
-114.92666666666651
 31
0.0
  0
LINE
  5
10ED5
  8
0
 10
360.80437348160649
 20
-35.426666666666577
 30
0.0
 11
395.80437348160649
 21
-35.426666666666577
 31
0.0
  0
LINE
  5
10ED6
  8
0
 10
368.30437348160649
 20
-38.926666666666577
 30
0.0
 11
388.30437348160649
 21
-38.926666666666577
 31
0.0
  0
LINE
  5
10ED7
  8
0
 10
371.11637348160639
 20
-40.42666666666657
 30
0.0
 11
369.61637348160639
 21
-38.926666666666577
 31
0.0
  0
LINE
  5
10ED8
  8
1
 10
378.30437348160649
 20
-32.426666666666577
 30
0.0
 11
378.30437348160649
 21
-50.426666666666577
 31
0.0
  0
LINE
  5
10ED9
  8
0
 10
388.30437348160649
 20
-35.926666666666577
 30
0.0
 11
388.30437348160649
 21
-38.926666666666577
 31
0.0
  0
LINE
  5
10EDA
  8
0
 10
368.30437348160649
 20
-35.926666666666577
 30
0.0
 11
368.30437348160649
 21
-38.926666666666577
 31
0.0
  0
LINE
  5
10EDB
  8
3
 10
386.30437348160649
 20
-39.614666666666537
 30
0.0
 11
386.30437348160649
 21
-46.738666666666589
 31
0.0
  0
LINE
  5
10EDC
  8
0
 10
385.49237348160659
 20
-40.426666666666463
 30
0.0
 11
385.49237348160659
 21
-45.926666666666662
 31
0.0
  0
LINE
  5
10EDD
  8
0
 10
371.11637348160639
 20
-40.42666666666657
 30
0.0
 11
371.11637348160639
 21
-45.926666666666577
 31
0.0
  0
LINE
  5
10EDE
  8
3
 10
370.30437348160649
 20
-39.61466666666665
 30
0.0
 11
370.30437348160649
 21
-46.73866666666639
 31
0.0
  0
LINE
  5
10EDF
  8
0
 10
371.11637348160639
 20
-40.42666666666657
 30
0.0
 11
385.49237348160659
 21
-40.426666666666542
 31
0.0
  0
LINE
  5
10EE0
  8
0
 10
360.80437348160649
 20
-47.426666666666549
 30
0.0
 11
395.80437348160649
 21
-47.426666666666549
 31
0.0
  0
LINE
  5
10EE7
  8
0
 10
368.30437348160649
 20
-35.926666666666577
 30
0.0
 11
367.80437348160649
 21
-35.426666666666577
 31
0.0
  0
LINE
  5
10EE8
  8
0
 10
368.30437348160649
 20
-35.926666666666577
 30
0.0
 11
388.30437348160649
 21
-35.926666666666577
 31
0.0
  0
LINE
  5
10EE9
  8
0
 10
388.30437348160649
 20
-35.926666666666662
 30
0.0
 11
388.80437348160649
 21
-35.426666666666662
 31
0.0
  0
LINE
  5
10F2A
  8
0
 10
385.49237348160659
 20
-40.426666666666492
 30
0.0
 11
386.99237348160659
 21
-38.926666666666492
 31
0.0
  0
LINE
  5
10F2B
  8
0
 10
371.11637348160639
 20
-45.926666666666542
 30
0.0
 11
369.61637348160639
 21
-47.426666666666549
 31
0.0
  0
LINE
  5
10F2C
  8
0
 10
371.11637348160639
 20
-45.926666666666542
 30
0.0
 11
385.49237348160659
 21
-45.926666666666542
 31
0.0
  0
LINE
  5
10F2D
  8
0
 10
385.49237348160659
 20
-45.926666666666598
 30
0.0
 11
386.99237348160659
 21
-47.426666666666627
 31
0.0
  0
LINE
  5
10F4A
  8
0
 10
308.80437348160649
 20
-35.426666666666577
 30
0.0
 11
343.80437348160649
 21
-35.426666666666577
 31
0.0
  0
LINE
  5
10F4B
  8
0
 10
316.30437348160649
 20
-38.926666666666577
 30
0.0
 11
336.30437348160649
 21
-38.926666666666577
 31
0.0
  0
LINE
  5
10F4C
  8
0
 10
318.46037337357302
 20
-39.770666558633238
 30
0.0
 11
317.61637348160639
 21
-38.926666666666577
 31
0.0
  0
LINE
  5
10F4E
  8
0
 10
336.30437348160649
 20
-35.926666666666577
 30
0.0
 11
336.30437348160649
 21
-38.926666666666577
 31
0.0
  0
LINE
  5
10F4F
  8
0
 10
316.30437348160649
 20
-35.926666666666577
 30
0.0
 11
316.30437348160649
 21
-38.926666666666577
 31
0.0
  0
LINE
  5
10F50
  8
3
 10
334.30437348160649
 20
-39.614666666666537
 30
0.0
 11
334.30437348160632
 21
-39.926666830579457
 31
0.0
  0
LINE
  5
10F53
  8
3
 10
318.30437348160649
 20
-39.61466666666665
 30
0.0
 11
318.30437348160649
 21
-39.92666683057935
 31
0.0
  0
LINE
  5
10F55
  8
0
 10
308.80437348160649
 20
-47.426666666666549
 30
0.0
 11
318.30437310162688
 21
-47.426666666666563
 31
0.0
  0
LINE
  5
10F56
  8
0
 10
316.30437348160649
 20
-35.926666666666577
 30
0.0
 11
315.80437348160649
 21
-35.426666666666577
 31
0.0
  0
LINE
  5
10F57
  8
0
 10
316.30437348160649
 20
-35.926666666666577
 30
0.0
 11
336.30437348160649
 21
-35.926666666666577
 31
0.0
  0
LINE
  5
10F58
  8
0
 10
336.30437348160649
 20
-35.926666666666662
 30
0.0
 11
336.80437348160649
 21
-35.426666666666662
 31
0.0
  0
LINE
  5
10F59
  8
0
 10
334.14837358964002
 20
-39.770666558633081
 30
0.0
 11
334.99237348160659
 21
-38.926666666666492
 31
0.0
  0
LINE
  5
10F5A
  8
0
 10
318.30437310162688
 20
-46.738667046646171
 30
0.0
 11
317.61637348160639
 21
-47.426666666666549
 31
0.0
  0
LINE
  5
10F5C
  8
0
 10
334.30437386158633
 20
-46.738667046646462
 30
0.0
 11
334.99237348160659
 21
-47.426666666666627
 31
0.0
  0
LINE
  5
10F61
  8
0
 10
323.30437345552951
 20
-72.529482719401429
 30
0.0
 11
323.30437345552951
 21
-74.029482033948014
 31
0.0
  0
LINE
  5
10F62
  8
0
 10
329.30437350768352
 20
-74.029482033948014
 30
0.0
 11
329.30437350768352
 21
-72.529482719401429
 31
0.0
  0
LINE
  5
10F63
  8
0
 10
323.8043735374859
 20
-74.029482033948014
 30
0.0
 11
323.8043735374859
 21
-85.52948298762233
 31
0.0
  0
LINE
  5
10F64
  8
0
 10
328.80437342572708
 20
-85.52948298762233
 30
0.0
 11
328.80437342572708
 21
-74.029482033948014
 31
0.0
  0
LINE
  5
10F65
  8
0
 10
324.90437353152538
 20
-85.52948298762233
 30
0.0
 11
324.90437353152538
 21
-95.905578766571878
 31
0.0
  0
LINE
  5
10F66
  8
0
 10
327.7043734316876
 20
-95.520785367223496
 30
0.0
 11
327.7043734316876
 21
-85.52948298762233
 31
0.0
  0
LINE
  5
10F67
  8
0
 10
318.30437310162688
 20
-52.464055892924378
 30
0.0
 11
319.30437326553971
 21
-54.426667344669411
 31
0.0
  0
LINE
  5
10F68
  8
0
 10
333.30437369767333
 20
-54.426667344669411
 30
0.0
 11
334.3043738615861
 21
-52.464055892924378
 31
0.0
  0
LINE
  5
10F6A
  8
0
 10
318.30437310162688
 20
-39.926666830579308
 30
0.0
 11
318.30437310162688
 21
-52.464055892924378
 31
0.0
  0
LINE
  5
10F6B
  8
0
 10
334.3043738615861
 20
-52.464055892924378
 30
0.0
 11
334.30437386158633
 21
-39.926666830579549
 31
0.0
  0
LINE
  5
10F6D
  8
0
 10
334.3043738615861
 20
-39.92666683057935
 30
0.0
 11
333.30437369767333
 21
-38.926666666666577
 31
0.0
  0
LINE
  5
10F6E
  8
0
 10
319.30437326553971
 20
-38.926666666666577
 30
0.0
 11
318.30437310162688
 21
-39.92666683057935
 31
0.0
  0
LINE
  5
10F6F
  8
0
 10
319.30437326553971
 20
-65.926666435698579
 30
0.0
 11
320.30437342945243
 21
-66.926668462256501
 31
0.0
  0
LINE
  5
10F70
  8
0
 10
332.30437353376061
 20
-66.926668462256501
 30
0.0
 11
333.30437369767333
 21
-65.926666435698579
 31
0.0
  0
LINE
  5
10F71
  8
0
 10
319.30437326553971
 20
-61.521875736216607
 30
0.0
 11
319.30437326553971
 21
-65.926666435698579
 31
0.0
  0
LINE
  5
10F72
  8
0
 10
319.30437326553971
 20
-54.426667344669411
 30
0.0
 11
319.30437326553971
 21
-54.732107621530602
 31
0.0
  0
LINE
  5
10F73
  8
0
 10
333.30437369767333
 20
-54.732107621530602
 30
0.0
 11
333.30437369767333
 21
-54.426667344669411
 31
0.0
  0
LINE
  5
10F74
  8
0
 10
333.30437369767333
 20
-65.926666435698579
 30
0.0
 11
333.30437369767333
 21
-61.521875736216607
 31
0.0
  0
LINE
  5
10F75
  8
0
 10
316.30437370512391
 20
-38.42666658471019
 30
0.0
 11
316.80437378708029
 21
-38.926666666666577
 31
0.0
  0
LINE
  5
10F76
  8
0
 10
335.80437317613269
 20
-38.926666666666577
 30
0.0
 11
336.30437325808907
 21
-38.42666658471019
 31
0.0
  0
LINE
  5
10F8B
  8
0
 10
323.9949724276712
 20
-66.926668462256501
 30
0.0
 11
323.9949724276712
 21
-70.126666751603196
 31
0.0
  0
LINE
  5
10F8C
  8
0
 10
328.61377453554178
 20
-66.926668462256501
 30
0.0
 11
328.61377453554178
 21
-70.126666751603196
 31
0.0
  0
LINE
  5
10F8D
  8
0
 10
321.68557137373591
 20
-66.926668462256501
 30
0.0
 11
321.68557137373591
 21
-70.126666751603196
 31
0.0
  0
LINE
  5
10F8E
  8
0
 10
330.92317558947713
 20
-66.926668462256501
 30
0.0
 11
330.92317558947713
 21
-70.126666751603196
 31
0.0
  0
LINE
  5
10F8F
  8
0
 10
321.68557137373591
 20
-70.126666751603196
 30
0.0
 11
330.92317558947713
 21
-70.126666751603196
 31
0.0
  0
LINE
  5
10F90
  8
0
 10
323.8043735374859
 20
-70.126666751603196
 30
0.0
 11
323.8043735374859
 21
-72.529482719401429
 31
0.0
  0
LINE
  5
10F91
  8
0
 10
323.8043735374859
 20
-72.529482719401429
 30
0.0
 11
323.30437345552951
 21
-72.529482719401429
 31
0.0
  0
LINE
  5
10F92
  8
0
 10
329.30437350768352
 20
-72.529482719401429
 30
0.0
 11
328.80437342572708
 21
-72.529482719401429
 31
0.0
  0
LINE
  5
10F93
  8
0
 10
328.80437342572708
 20
-72.529482719401429
 30
0.0
 11
328.80437342572708
 21
-70.126666751603196
 31
0.0
  0
LINE
  5
10F94
  8
0
 10
323.30437345552951
 20
-74.029482033948014
 30
0.0
 11
329.30437350768352
 21
-74.029482033948014
 31
0.0
  0
LINE
  5
10F95
  8
0
 10
323.8043735374859
 20
-85.52948298762233
 30
0.0
 11
328.80437342572708
 21
-85.52948298762233
 31
0.0
  0
LINE
  5
10F96
  8
0
 10
318.30437310162688
 20
-52.464055892924378
 30
0.0
 11
334.3043738615861
 21
-52.464055892924378
 31
0.0
  0
LINE
  5
10F97
  8
0
 10
319.30437326553971
 20
-54.426667344669411
 30
0.0
 11
333.30437369767333
 21
-54.426667344669411
 31
0.0
  0
LINE
  5
10F98
  8
0
 10
334.30437386158633
 20
-39.926666830579457
 30
0.0
 11
318.30437310162688
 21
-39.92666683057935
 31
0.0
  0
LINE
  5
10F99
  8
0
 10
319.30437326553971
 20
-65.926666435698579
 30
0.0
 11
333.30437369767333
 21
-65.926666435698579
 31
0.0
  0
LINE
  5
10F9A
  8
0
 10
332.30437353376061
 20
-66.926668462256501
 30
0.0
 11
320.30437342945243
 21
-66.926668462256501
 31
0.0
  0
ARC
  5
10F9B
  8
0
 10
339.7176492472986
 20
-58.126991678873608
 30
0.0
 40
7.256400005389831
 50
152.10537701611131
 51
207.89462298388869
  0
LINE
  5
10F9D
  8
0
 10
316.30437370512391
 20
-38.42666658471019
 30
0.0
 11
336.30437325808907
 21
-38.42666658471019
 31
0.0
  0
LINE
  5
10F9E
  8
0
 10
316.38280596706772
 20
-37.926667434076379
 30
0.0
 11
316.30437370512391
 21
-37.926667434076379
 31
0.0
  0
LINE
  5
10F9F
  8
0
 10
316.38280596706772
 20
-36.426667188207219
 30
0.0
 11
316.38280596706772
 21
-37.926667434076379
 31
0.0
  0
LINE
  5
10FA0
  8
0
 10
336.22594099614531
 20
-36.426667188207219
 30
0.0
 11
316.38280596706772
 21
-36.426667188207219
 31
0.0
  0
LINE
  5
10FA1
  8
0
 10
336.22594099614531
 20
-37.926667434076379
 30
0.0
 11
336.22594099614531
 21
-36.426667188207219
 31
0.0
  0
LINE
  5
10FA2
  8
0
 10
336.30437325808907
 20
-37.926667434076379
 30
0.0
 11
336.22594099614531
 21
-37.926667434076379
 31
0.0
  0
LINE
  5
10FA4
  8
0
 10
335.72177790228028
 20
-35.926667106250839
 30
0.0
 11
336.22594099614531
 21
-36.426667188207219
 31
0.0
  0
LINE
  5
10FA5
  8
0
 10
316.38280596706772
 20
-36.426667188207219
 30
0.0
 11
316.88696906093259
 21
-35.926667106250839
 31
0.0
  0
LINE
  5
10FA7
  8
3
 10
319.0543736902228
 20
-39.176666241983561
 30
0.0
 11
319.0543736902228
 21
-53.93601494739444
 31
0.0
  0
LINE
  5
10FA8
  8
3
 10
333.55437327299018
 20
-53.93601494739444
 30
0.0
 11
333.55437327299018
 21
-39.176666241983561
 31
0.0
  0
POLYLINE
  5
10FAA
  8
3
 66
     1
 10
0.0
 20
0.0
 30
0.0
  0
VERTEX
  5
10FAB
  8
3
 10
324.90437353152538
 20
-95.905578766571878
 30
0.0
 42
-0.1477739843887826
  0
VERTEX
  5
10FAC
  8
3
 10
325.38195987919431
 20
-95.421575242787142
 30
0.0
 42
-0.1536795722212451
  0
VERTEX
  5
10FAD
  8
3
 10
325.91982668732788
 20
-95.316082132480645
 30
0.0
 42
-0.1847247553159499
  0
VERTEX
  5
10FAE
  8
3
 10
326.33312867293512
 20
-95.529484626750062
 30
0.0
 42
0.1729818233278114
  0
VERTEX
  5
10FAF
  8
3
 10
326.76741650580738
 20
-95.766392220400647
 30
0.0
 42
0.1305645647028073
  0
VERTEX
  5
10FB0
  8
3
 10
327.36973907829201
 20
-95.704226558096437
 30
0.0
 42
0.0695828883349214
  0
VERTEX
  5
10FB1
  8
3
 10
327.7043734316876
 20
-95.520785367223496
 30
0.0
  0
SEQEND
  5
10FB2
  8
3
  0
ARC
  5
10FB3
  8
0
 10
312.89109771591461
 20
-58.126991678873608
 30
0.0
 40
7.256400005389831
 50
332.10537701611128
 51
27.894622983888691
  0
LINE
  5
10FB4
  8
1
 10
326.30437348160649
 20
-98.529484626750076
 30
0.0
 11
326.30437348160649
 21
-32.426666666666577
 31
0.0
  0
LINE
  5
10FB5
  8
0
 10
334.3043738615861
 20
-47.426666666666527
 30
0.0
 11
343.80437348160649
 21
-47.426666666666549
 31
0.0
  0
TEXT
  5
10FF7
  8
0
 62
     3
 10
143.80437348160629
 20
0.0
 30
0.0
 40
3.2000000000000002
  1
■ケースの取付け方法 (下図)
  0
TEXT
  5
10FF8
  8
0
 62
     3
 10
143.80437348160629
 20
-7.0
 30
0.0
 40
3.2000000000000002
  1
■Installation Instructions for Receptacles (see diagram below)
  0
ENDSEC
  0
EOF
