  0
SECTION
  2
HEADER
  9
$ACADVER
  1
AC1009
  9
$INSBASE
 10
0.0
 20
0.0
 30
0.0
  9
$EXTMIN
 10
0.0
 20
-307.24771278209641
 30
0.0
  9
$EXTMAX
 10
511.52000000000157
 20
246.89099582722119
 30
0.0
  9
$LIMMIN
 10
0.0
 20
0.0
  9
$LIMMAX
 10
187.5
 20
135.0
  9
$ORTHOMODE
 70
     1
  9
$REGENMODE
 70
     1
  9
$FILLMODE
 70
     1
  9
$QTEXTMODE
 70
     0
  9
$MIRRTEXT
 70
     0
  9
$DRAGMODE
 70
     2
  9
$LTSCALE
 40
5.0
  9
$OSMODE
 70
    37
  9
$ATTMODE
 70
     1
  9
$TEXTSIZE
 40
0.2
  9
$TRACEWID
 40
0.05
  9
$TEXTSTYLE
  7
STANDARD
  9
$CLAYER
  8
0
  9
$CELTYPE
  6
BYLAYER
  9
$CECOLOR
 62
   256
  9
$DIMSCALE
 40
0.5
  9
$DIMASZ
 40
3.0
  9
$DIMEXO
 40
2.0
  9
$DIMDLI
 40
0.3799999999999999
  9
$DIMRND
 40
0.0
  9
$DIMDLE
 40
0.0
  9
$DIMEXE
 40
2.0
  9
$DIMTP
 40
0.0
  9
$DIMTM
 40
0.0
  9
$DIMTXT
 40
3.2000000000000002
  9
$DIMCEN
 40
0.0
  9
$DIMTSZ
 40
0.0
  9
$DIMTOL
 70
     0
  9
$DIMLIM
 70
     0
  9
$DIMTIH
 70
     0
  9
$DIMTOH
 70
     0
  9
$DIMSE1
 70
     0
  9
$DIMSE2
 70
     0
  9
$DIMTAD
 70
     1
  9
$DIMZIN
 70
     8
  9
$DIMBLK
  1

  9
$DIMASO
 70
     0
  9
$DIMSHO
 70
     0
  9
$DIMPOST
  1

  9
$DIMAPOST
  1

  9
$DIMALT
 70
     0
  9
$DIMALTD
 70
     2
  9
$DIMALTF
 40
25.399999999999999
  9
$DIMLFAC
 40
1.0
  9
$DIMTOFL
 70
     0
  9
$DIMTVP
 40
1.6000000000000001
  9
$DIMTIX
 70
     0
  9
$DIMSOXD
 70
     0
  9
$DIMSAH
 70
     0
  9
$DIMBLK1
  1

  9
$DIMBLK2
  1

  9
$DIMSTYLE
  2
STANDARD
  9
$DIMCLRD
 70
     0
  9
$DIMCLRE
 70
     0
  9
$DIMCLRT
 70
     0
  9
$DIMTFAC
 40
1.0
  9
$DIMGAP
 40
1.0
  9
$LUNITS
 70
     2
  9
$LUPREC
 70
     1
  9
$SKETCHINC
 40
0.1
  9
$FILLETRAD
 40
0.4
  9
$AUNITS
 70
     0
  9
$AUPREC
 70
     1
  9
$MENU
  1
E:\r13\win\SUPPORT\ACAD
  9
$ELEVATION
 40
0.0
  9
$PELEVATION
 40
0.0
  9
$THICKNESS
 40
0.0
  9
$LIMCHECK
 70
     0
  9
$BLIPMODE
 70
     0
  9
$CHAMFERA
 40
0.5
  9
$CHAMFERB
 40
0.5
  9
$SKPOLY
 70
     0
  9
$TDCREATE
 40
2451824.6906229062
  9
$TDUPDATE
 40
2458836.661419028
  9
$TDINDWG
 40
1.4076551042000001
  9
$TDUSRTIMER
 40
1.4076549190000001
  9
$USRTIMER
 70
     1
  9
$ANGBASE
 50
0.0
  9
$ANGDIR
 70
     0
  9
$PDMODE
 70
     0
  9
$PDSIZE
 40
0.0
  9
$PLINEWID
 40
0.0
  9
$COORDS
 70
     1
  9
$SPLFRAME
 70
     0
  9
$SPLINETYPE
 70
     6
  9
$SPLINESEGS
 70
     8
  9
$ATTDIA
 70
     0
  9
$ATTREQ
 70
     1
  9
$HANDLING
 70
     1
  9
$HANDSEED
  5
14B0E
  9
$SURFTAB1
 70
     6
  9
$SURFTAB2
 70
     6
  9
$SURFTYPE
 70
     6
  9
$SURFU
 70
     6
  9
$SURFV
 70
     6
  9
$UCSNAME
  2

  9
$UCSORG
 10
0.0
 20
0.0
 30
0.0
  9
$UCSXDIR
 10
1.0
 20
0.0
 30
0.0
  9
$UCSYDIR
 10
0.0
 20
1.0
 30
0.0
  9
$PUCSNAME
  2

  9
$PUCSORG
 10
0.0
 20
0.0
 30
0.0
  9
$PUCSXDIR
 10
1.0
 20
0.0
 30
0.0
  9
$PUCSYDIR
 10
0.0
 20
1.0
 30
0.0
  9
$USERI1
 70
     0
  9
$USERI2
 70
     1
  9
$USERI3
 70
     0
  9
$USERI4
 70
     0
  9
$USERI5
 70
     0
  9
$USERR1
 40
0.0
  9
$USERR2
 40
0.0
  9
$USERR3
 40
0.0
  9
$USERR4
 40
0.0
  9
$USERR5
 40
0.0
  9
$WORLDVIEW
 70
     1
  9
$SHADEDGE
 70
     3
  9
$SHADEDIF
 70
    70
  9
$TILEMODE
 70
     1
  9
$MAXACTVP
 70
    16
  9
$PLIMCHECK
 70
     0
  9
$PEXTMIN
 10
1.0000000000000000E+020
 20
1.0000000000000000E+020
 30
1.0000000000000000E+020
  9
$PEXTMAX
 10
-1.0000000000000000E+020
 20
-1.0000000000000000E+020
 30
-1.0000000000000000E+020
  9
$PLIMMIN
 10
0.0
 20
0.0
  9
$PLIMMAX
 10
12.0
 20
9.0
  9
$UNITMODE
 70
     0
  9
$VISRETAIN
 70
     0
  9
$PLINEGEN
 70
     0
  9
$PSLTSCALE
 70
     0
  0
ENDSEC
  0
SECTION
  2
TABLES
  0
TABLE
  2
VPORT
 70
     1
  0
VPORT
  2
*ACTIVE
 70
     0
 10
0.0
 20
0.0
 11
1.0
 21
1.0
 12
362.34662576687123
 22
150.0
 13
0.0
 23
0.0
 14
5.0
 24
5.0
 15
5.0
 25
5.0
 16
0.0
 26
0.0
 36
1.0
 17
0.0
 27
0.0
 37
0.0
 40
300.0
 41
2.415644171779141
 42
50.0
 43
0.0
 44
0.0
 50
0.0
 51
0.0
 71
     0
 72
   500
 73
     1
 74
     0
 75
     0
 76
     0
 77
     0
 78
     0
  0
ENDTAB
  0
TABLE
  2
LTYPE
 70
     5
  0
LTYPE
  2
CONTINUOUS
 70
     0
  3
Solid Line
 72
    65
 73
     0
 40
0.0
  0
LTYPE
  2
CENTER
 70
     0
  3
____ _ ____ _ ____ _ ____ _ ____ _ ____ _ ____
 72
    65
 73
     4
 40
2.0
 49
1.25
 49
-0.25
 49
0.25
 49
-0.25
  0
LTYPE
  2
PHANTOM2
 70
     0
  3
___ _ _ ___ _ _ ___ _ _ ___ _ _
 72
    65
 73
     6
 40
1.25
 49
0.625
 49
-0.125
 49
0.125
 49
-0.125
 49
0.125
 49
-0.125
  0
LTYPE
  2
HIDDEN
 70
     0
  3
__ __ __ __ __ __ __ __ __ __ __ __ __ __ __ __
 72
    65
 73
     2
 40
0.375
 49
0.25
 49
-0.125
  0
LTYPE
  2
PHANTOM
 70
     0
  3
_____ _ _ _____ _ _ _____ _ _ _____ _ _ ____
 72
    65
 73
     6
 40
2.5
 49
1.25
 49
-0.25
 49
0.25
 49
-0.25
 49
0.25
 49
-0.25
  0
ENDTAB
  0
TABLE
  2
LAYER
 70
     6
  0
LAYER
  2
0
 70
     0
 62
     7
  6
CONTINUOUS
  0
LAYER
  2
1
 70
     0
 62
     1
  6
CENTER
  0
LAYER
  2
2
 70
     0
 62
     2
  6
HIDDEN
  0
LAYER
  2
5
 70
     0
 62
     3
  6
PHANTOM
  0
LAYER
  2
3
 70
     0
 62
     3
  6
CONTINUOUS
  0
LAYER
  2
DEFPOINTS
 70
     0
 62
     7
  6
CONTINUOUS
  0
ENDTAB
  0
TABLE
  2
STYLE
 70
     2
  0
STYLE
  2
STANDARD
 70
     0
 40
0.0
 41
1.0
 50
0.0
 71
     0
 42
0.2
  3
TXT
  4
BIGFONT
  0
STYLE
  2
STANDARD1
 70
     0
 40
0.0
 41
1.0
 50
0.0
 71
     0
 42
3.0
  3
txt
  4

  0
ENDTAB
  0
TABLE
  2
VIEW
 70
     2
  0
VIEW
  2
OLE1
 70
     0
 40
230.57206781759481
 10
150.69838489794819
 20
404.39942226326519
 41
272.25240315385241
 11
0.0
 21
0.0
 31
1.0
 12
0.0
 22
0.0
 32
0.0
 42
50.0
 43
0.0
 44
0.0
 50
0.0
 71
     0
  0
VIEW
  2
OLE2
 70
     0
 40
202.3282431621931
 10
347.29567904807772
 20
-206.63887725582759
 41
238.9029640415126
 11
0.0
 21
0.0
 31
1.0
 12
0.0
 22
0.0
 32
0.0
 42
50.0
 43
0.0
 44
0.0
 50
0.0
 71
     0
  0
ENDTAB
  0
TABLE
  2
UCS
 70
     0
  0
ENDTAB
  0
TABLE
  2
APPID
 70
     9
  0
APPID
  2
ACAD
 70
     0
  0
APPID
  2
ACAD_MLEADERVER
 70
     0
  0
APPID
  2
ACAD_EXEMPT_FROM_CAD_STANDARDS
 70
     0
  0
APPID
  2
ACAD_DSTYLE_DIMJAG
 70
     0
  0
APPID
  2
ACAD_DSTYLE_DIMTALN
 70
     0
  0
APPID
  2
ACAD_NAV_VCDISPLAY
 70
     0
  0
APPID
  2
ACAD_PSEXT
 70
     0
  0
APPID
  2
ACAECLAYERSTANDARD
 70
     0
  0
APPID
  2
ACCMTRANSPARENCY
 70
     0
  0
ENDTAB
  0
TABLE
  2
DIMSTYLE
 70
     1
  0
DIMSTYLE
  2
STANDARD
 70
     0
  3

  4

  5

  6

  7

 40
1.0
 41
0.18
 42
0.0625
 43
0.38
 44
0.18
 45
0.0
 46
0.0
 47
0.0
 48
0.0
140
0.18
141
0.09
142
0.0
143
25.399999999999999
144
1.0
145
0.0
146
1.0
147
0.09
 71
     0
 72
     0
 73
     1
 74
     1
 75
     0
 76
     0
 77
     0
 78
     0
170
     0
171
     2
172
     0
173
     0
174
     0
175
     0
176
     0
177
     0
178
     0
  0
ENDTAB
  0
ENDSEC
  0
SECTION
  2
BLOCKS
  0
BLOCK
  8
0
  2
$MODEL_SPACE
 70
     0
 10
0.0
 20
0.0
 30
0.0
  3
$MODEL_SPACE
  1

  0
ENDBLK
  5
9
  8
0
  0
BLOCK
 67
     1
  8
0
  2
$PAPER_SPACE
 70
     0
 10
0.0
 20
0.0
 30
0.0
  3
$PAPER_SPACE
  1

  0
ENDBLK
  5
E
 67
     1
  8
0
  0
ENDSEC
  0
SECTION
  2
ENTITIES
  0
TEXT
  5
7FEA
  8
0
 62
     3
 10
140.0
 20
0.0
 30
0.0
 40
3.2000000000000002
  1
■サムターンクランパー ストロング(自在アプローチ)の取付け方法〈オフを上にする場合〉(下図)
  0
TEXT
  5
7FEB
  8
0
 62
     3
 10
190.0866666666665
 20
-19.168098188633891
 30
0.0
 40
3.2000000000000002
  1
9mmのプレートに固定する場合
 72
     1
 11
217.49999999999989
 21
-19.594764855300561
 31
0.0
 73
     1
  0
TEXT
  5
80DD
  8
0
 62
     3
 10
329.35333333333318
 20
-19.168098188633891
 30
0.0
 40
3.2000000000000002
  1
9mmを超え20mm以下のプレートに固定する場合
 72
     1
 11
372.5
 21
-19.594764855300561
 31
0.0
 73
     1
  0
TEXT
  5
8474
  8
0
 62
     3
 10
173.4333333333332
 20
-129.97327044564301
 30
0.0
 40
3.2000000000000002
  1
組付け状態
 72
     1
 11
182.49999999999989
 21
-129.97327044564301
 31
0.0
  0
POLYLINE
  5
8487
  8
5
 66
     1
 10
0.0
 20
0.0
 30
0.0
 70
     1
  0
VERTEX
  5
1480B
  8
5
 10
140.0
 20
-10.0
 30
0.0
  0
VERTEX
  5
1480C
  8
5
 10
450.0
 20
-10.0
 30
0.0
  0
VERTEX
  5
1480D
  8
5
 10
450.0
 20
-307.24771278209641
 30
0.0
  0
VERTEX
  5
1480E
  8
5
 10
140.0
 20
-307.24771278209641
 30
0.0
  0
SEQEND
  5
1480F
  8
5
  0
TEXT
  5
8489
  8
0
 62
     3
 10
245.2466666666667
 20
-129.97327044564301
 30
0.0
 40
3.2000000000000002
  1
取付け穴
 72
     1
 11
252.5
 21
-129.97327044564301
 31
0.0
  0
TEXT
  5
848A
  8
0
 62
     3
 10
328.43333333333322
 20
-129.97327044564301
 30
0.0
 40
3.2000000000000002
  1
組付け状態
 72
     1
 11
337.49999999999989
 21
-129.97327044564301
 31
0.0
  0
TEXT
  5
848B
  8
0
 62
     3
 10
400.24666666666661
 20
-129.97327044564301
 30
0.0
 40
3.2000000000000002
  1
取付け穴
 72
     1
 11
407.5
 21
-129.97327044564301
 31
0.0
  0
TEXT
  5
87B9
  8
0
 62
     3
 10
0.0
 20
0.0
 30
0.0
 40
10.0
  1
QCTHSA0834-20S
  7
STANDARD1
  0
TEXT
  5
884B
  8
0
 62
     3
 10
140.0
 20
-7.0
 30
0.0
 40
3.2000000000000002
  1
■Installation Instructions for Retractable Heavy Duty Quarter-Turn Clamps〈For Y-axis Positioning of "OFF" Mark〉 (see diagram below)
  0
TEXT
  5
884C
  8
0
 62
     3
 10
158.77999999999989
 20
-26.168098188633891
 30
0.0
 40
3.2000000000000002
  1
For installation on plate of 9 mm thickness.
 72
     1
 11
217.49999999999989
 21
-26.594764855300561
 31
0.0
 73
     1
  0
TEXT
  5
884D
  8
0
 62
     3
 10
298.36666666666667
 20
-26.168098188633891
 30
0.0
 40
3.2000000000000002
  1
For installation on plate of over 9 to 20 mm thickness.
 72
     1
 11
372.5
 21
-26.594764855300561
 31
0.0
 73
     1
  0
TEXT
  5
884E
  8
0
 62
     3
 10
157.53999999999991
 20
-136.97327044564301
 30
0.0
 40
3.2000000000000002
  1
Installed condition
 72
     1
 11
182.49999999999989
 21
-136.97327044564301
 31
0.0
  0
TEXT
  5
884F
  8
0
 62
     3
 10
230.4733333333333
 20
-136.97327044564301
 30
0.0
 40
3.2000000000000002
  1
Installation hole
 72
     1
 11
252.5
 21
-136.97327044564301
 31
0.0
  0
TEXT
  5
8850
  8
0
 62
     3
 10
312.53999999999991
 20
-136.97327044564301
 30
0.0
 40
3.2000000000000002
  1
Installed condition
 72
     1
 11
337.49999999999989
 21
-136.97327044564301
 31
0.0
  0
TEXT
  5
8851
  8
0
 62
     3
 10
385.4733333333333
 20
-136.97327044564301
 30
0.0
 40
3.2000000000000002
  1
Installation hole
 72
     1
 11
407.5
 21
-136.97327044564301
 31
0.0
  0
TEXT
  5
115B4
  8
0
 62
     3
 10
144.4014673499268
 20
-159.11137946158871
 30
0.0
 40
3.2000000000000002
  1
スペーサー(QCTHSA)を使用する場合
 72
     1
 11
178.85480068326009
 21
-159.11137946158871
 31
0.0
  0
TEXT
  5
115B5
  8
0
 62
     3
 10
145.21746734992681
 20
-166.11137946158871
 30
0.0
 40
3.2000000000000002
  1
To use with a spacer(QCTHSA)
 41
0.85
 72
     1
 11
178.85480068326009
 21
-166.11137946158871
 31
0.0
  0
TEXT
  5
115B8
  8
0
 62
     3
 10
190.0866666666665
 20
-183.036393066801
 30
0.0
 40
3.2000000000000002
  1
6mmのプレートに固定する場合
 72
     1
 11
217.49999999999989
 21
-183.4630597334677
 31
0.0
 73
     1
  0
TEXT
  5
115B9
  8
0
 62
     3
 10
330.68666666666661
 20
-183.036393066801
 30
0.0
 40
3.2000000000000002
  1
6mmを超え9mm未満のプレートに固定する場合
 72
     1
 11
372.5
 21
-183.4630597334677
 31
0.0
 73
     1
  0
TEXT
  5
115BA
  8
0
 62
     3
 10
173.4333333333332
 20
-293.84156532381019
 30
0.0
 40
3.2000000000000002
  1
組付け状態
 72
     1
 11
182.49999999999989
 21
-293.84156532381019
 31
0.0
  0
TEXT
  5
115BB
  8
0
 62
     3
 10
245.2466666666667
 20
-293.84156532381019
 30
0.0
 40
3.2000000000000002
  1
取付け穴
 72
     1
 11
252.5
 21
-293.84156532381019
 31
0.0
  0
TEXT
  5
115BC
  8
0
 62
     3
 10
328.43333333333322
 20
-293.84156532381019
 30
0.0
 40
3.2000000000000002
  1
組付け状態
 72
     1
 11
337.49999999999989
 21
-293.84156532381019
 31
0.0
  0
TEXT
  5
115BD
  8
0
 62
     3
 10
400.24666666666661
 20
-293.84156532381019
 30
0.0
 40
3.2000000000000002
  1
取付け穴
 72
     1
 11
407.5
 21
-293.84156532381019
 31
0.0
  0
TEXT
  5
115BE
  8
0
 62
     3
 10
158.77999999999989
 20
-190.036393066801
 30
0.0
 40
3.2000000000000002
  1
For installation on plate of 6 mm thickness.
 72
     1
 11
217.49999999999989
 21
-190.4630597334677
 31
0.0
 73
     1
  0
TEXT
  5
115BF
  8
0
 62
     3
 10
299.69999999999999
 20
-190.036393066801
 30
0.0
 40
3.2000000000000002
  1
For installation on plate of over 6 to 9 mm thickness.
 72
     1
 11
372.5
 21
-190.4630597334677
 31
0.0
 73
     1
  0
TEXT
  5
115C0
  8
0
 62
     3
 10
157.53999999999991
 20
-300.84156532381019
 30
0.0
 40
3.2000000000000002
  1
Installed condition
 72
     1
 11
182.49999999999989
 21
-300.84156532381019
 31
0.0
  0
TEXT
  5
115C1
  8
0
 62
     3
 10
230.4733333333333
 20
-300.84156532381019
 30
0.0
 40
3.2000000000000002
  1
Installation hole
 72
     1
 11
252.5
 21
-300.84156532381019
 31
0.0
  0
TEXT
  5
115C2
  8
0
 62
     3
 10
312.53999999999991
 20
-300.84156532381019
 30
0.0
 40
3.2000000000000002
  1
Installed condition
 72
     1
 11
337.49999999999989
 21
-300.84156532381019
 31
0.0
  0
TEXT
  5
115C3
  8
0
 62
     3
 10
385.4733333333333
 20
-300.84156532381019
 30
0.0
 40
3.2000000000000002
  1
Installation hole
 72
     1
 11
407.5
 21
-300.84156532381019
 31
0.0
  0
LINE
  5
1168A
  8
1
 10
407.5
 20
-197.9630597334677
 30
0.0
 11
407.5
 21
-233.9630597334677
 31
0.0
  0
LINE
  5
11A68
  8
0
 10
140.75000297278169
 20
125.54100423445919
 30
0.0
 11
140.75000297278169
 21
128.54100431874389
 31
0.0
  0
LINE
  5
11A69
  8
0
 10
135.25000300258401
 20
128.54100431874389
 30
0.0
 11
135.25000300258401
 21
125.54100423445919
 31
0.0
  0
LINE
  5
11A6A
  8
0
 10
139.50000323355201
 20
128.54100431874389
 30
0.0
 11
139.50000323355201
 21
134.04100382328031
 31
0.0
  0
LINE
  5
11A6B
  8
0
 10
136.50000274181369
 20
134.04100382328031
 30
0.0
 11
136.50000274181369
 21
128.54100431874389
 31
0.0
  0
LINE
  5
11A6C
  8
0
 10
119.7500023245812
 20
125.54100423445919
 30
0.0
 11
119.7500023245812
 21
128.54100431874389
 31
0.0
  0
LINE
  5
11A6D
  8
0
 10
114.2500023543835
 20
128.54100431874389
 30
0.0
 11
114.2500023543835
 21
125.54100423445919
 31
0.0
  0
LINE
  5
11A6E
  8
0
 10
118.5000025853515
 20
128.54100431874389
 30
0.0
 11
118.5000025853515
 21
134.04100382328031
 31
0.0
  0
LINE
  5
11A6F
  8
0
 10
115.50000302493569
 20
134.04100382328031
 30
0.0
 11
115.50000302493569
 21
128.54100431874389
 31
0.0
  0
LINE
  5
11A70
  8
0
 10
141.5985319018364
 20
177.4911730885506
 30
0.0
 11
140.5828491970897
 21
177.86085227131841
 31
0.0
  0
LINE
  5
11A71
  8
0
 10
121.41715634614231
 20
177.86085227131841
 30
0.0
 11
120.4014736413956
 21
177.4911730885506
 31
0.0
  0
ARC
  5
11A72
  8
0
 10
119.5268928342565
 20
162.89100421071049
 30
0.0
 40
0.5
 50
177.00000000000091
 51
270.0
  0
ARC
  5
11A73
  8
0
 10
142.47311270897549
 20
162.89100421071049
 30
0.0
 40
0.5
 50
270.0
 51
2.9999999999990772
  0
LINE
  5
11A74
  8
0
 10
119.74486421793701
 20
176.60381639003751
 30
0.0
 11
119.0275781974197
 21
162.91717061400411
 31
0.0
  0
LINE
  5
11A75
  8
0
 10
142.97242734581229
 20
162.91717061400411
 30
0.0
 11
142.255141325295
 21
176.60381639003751
 31
0.0
  0
ARC
  5
11A76
  8
0
 10
140.41183928126179
 20
177.39100421071049
 30
0.0
 40
0.5
 50
70.000000000003482
 51
90.0
  0
ARC
  5
11A77
  8
0
 10
121.5881662619702
 20
177.39100421071049
 30
0.0
 40
0.5
 50
90.0
 51
109.9999999999965
  0
ARC
  5
11A78
  8
0
 10
120.7434941987129
 20
176.55147983573059
 30
0.0
 40
0.9999999999999959
 50
109.9999999999996
 51
177.00000000000091
  0
ARC
  5
11A79
  8
0
 10
141.25651134451911
 20
176.55147983573059
 30
0.0
 40
0.9999999999999959
 50
2.9999999999990772
 51
70.000000000000327
  0
LINE
  5
11A7A
  8
0
 10
114.000001847744
 20
134.54100390523669
 30
0.0
 11
114.50000286102301
 21
134.04100382328031
 31
0.0
  0
LINE
  5
11A7B
  8
0
 10
147.50000268220899
 20
134.04100382328031
 30
0.0
 11
148.000003695488
 21
134.54100390523669
 31
0.0
  0
ARC
  5
11A7C
  8
0
 10
115.000002771616
 20
145.31101991550429
 30
0.0
 40
1.0
 50
109.9999999999996
 51
180.0
  0
ARC
  5
11A7D
  8
0
 10
147.00000277161601
 20
145.31101991550429
 30
0.0
 40
1.0
 50
0.0
 51
70.000000000000327
  0
LINE
  5
11A7E
  8
0
 10
148.000003695488
 20
134.54100390523669
 30
0.0
 11
148.000003695488
 21
145.31102025508881
 31
0.0
  0
LINE
  5
11A7F
  8
0
 10
114.000001847744
 20
145.31102025508881
 30
0.0
 11
114.000001847744
 21
134.54100390523669
 31
0.0
  0
LINE
  5
11A81
  8
0
 10
147.34202243387699
 20
146.25071169435981
 30
0.0
 11
140.76319473930829
 21
148.6452101685725
 31
0.0
  0
LINE
  5
11A82
  8
0
 10
121.23681038618091
 20
148.6452109515667
 30
0.0
 11
114.657983109355
 21
146.25071169435981
 31
0.0
  0
ARC
  5
11A83
  8
0
 10
140.90000277161599
 20
149.02108722599439
 30
0.0
 40
0.4000000000000111
 50
180.0
 51
250.0000000000035
  0
ARC
  5
11A84
  8
0
 10
121.100002771616
 20
149.02108722599439
 30
0.0
 40
0.4000000000000208
 50
290.00000000000392
 51
0.0
  0
LINE
  5
11A85
  8
0
 10
140.50000246614221
 20
149.021087154746
 30
0.0
 11
140.50000246614221
 21
162.39100316166881
 31
0.0
  0
LINE
  5
11A86
  8
0
 10
121.5000030770898
 20
162.39100316166881
 30
0.0
 11
121.5000030770898
 21
149.021087154746
 31
0.0
  0
ARC
  5
11A87
  8
0
 10
140.200002771616
 20
133.64100421071049
 30
0.0
 40
0.4000000000000341
 50
90.0
 51
180.0
  0
ARC
  5
11A88
  8
0
 10
121.80000277161599
 20
133.64100421071049
 30
0.0
 40
0.4000000000000057
 50
0.0
 51
90.0
  0
LINE
  5
11A89
  8
0
 10
122.0000031590462
 20
126.541004223749
 30
0.0
 11
123.0000023916364
 21
125.54100423445919
 31
0.0
  0
LINE
  5
11A8A
  8
0
 10
140.00000238418579
 20
130.69459417462349
 30
0.0
 11
139.80000272393229
 21
131.04100426286459
 31
0.0
  0
LINE
  5
11A8B
  8
0
 10
122.2000028192997
 20
131.04100426286459
 30
0.0
 11
122.0000031590462
 21
130.69459417462349
 31
0.0
  0
LINE
  5
11A8C
  8
0
 10
140.00000238418579
 20
128.54100431874389
 30
0.0
 11
140.00000238418579
 21
130.69459417462349
 31
0.0
  0
LINE
  5
11A8D
  8
0
 10
122.0000031590462
 20
130.69459417462349
 30
0.0
 11
122.0000031590462
 21
126.541004223749
 31
0.0
  0
LINE
  5
11A8E
  8
0
 10
139.80000272393229
 20
131.04100426286459
 30
0.0
 11
139.80000272393229
 21
133.64100450277331
 31
0.0
  0
LINE
  5
11A8F
  8
0
 10
122.2000028192997
 20
131.65363570302719
 30
0.0
 11
122.2000028192997
 21
131.04100426286459
 31
0.0
  0
LINE
  5
11A94
  8
0
 10
140.75000297278169
 20
125.54100423445919
 30
0.0
 11
135.25000300258401
 21
125.54100423445919
 31
0.0
  0
LINE
  5
11A95
  8
0
 10
140.75000297278169
 20
128.54100431874389
 30
0.0
 11
135.25000300258401
 21
128.54100431874389
 31
0.0
  0
LINE
  5
11A96
  8
0
 10
119.7500023245812
 20
125.54100423445919
 30
0.0
 11
114.2500023543835
 21
125.54100423445919
 31
0.0
  0
LINE
  5
11A97
  8
0
 10
119.7500023245812
 20
128.54100431874389
 30
0.0
 11
114.2500023543835
 21
128.54100431874389
 31
0.0
  0
LINE
  5
11A9F
  8
0
 10
142.47311270897549
 20
162.39100421071049
 30
0.0
 11
119.5268928259611
 21
162.39100316166881
 31
0.0
  0
LINE
  5
11AA2
  8
0
 10
121.5881657972932
 20
177.89100477099419
 30
0.0
 11
140.41183928126179
 21
177.89100421071049
 31
0.0
  0
LINE
  5
11AA3
  8
0
 10
147.50000268220899
 20
134.04100382328031
 30
0.0
 11
114.50000286102301
 21
134.04100382328031
 31
0.0
  0
ARC
  5
11AA7
  8
0
 10
135.55505179321921
 20
127.3342175130408
 30
0.0
 40
21.601801274488611
 50
67.885048323726338
 51
72.428162180561728
  0
ARC
  5
11AA8
  8
0
 10
141.4519650902046
 20
146.18154899269541
 30
0.0
 40
1.8548728383888571
 50
70.31868070716996
 51
85.704062131890893
  0
POLYLINE
  5
11AA9
  8
0
 66
     1
 10
0.0
 20
0.0
 30
0.0
 70
   128
  0
VERTEX
  5
14811
  8
0
 10
141.60598248243329
 20
147.92812795937061
 30
0.0
  0
VERTEX
  5
14812
  8
0
 10
141.54794618487361
 20
147.97142887115481
 30
0.0
  0
VERTEX
  5
14813
  8
0
 10
141.52619607746601
 20
148.0148713439703
 30
0.0
  0
VERTEX
  5
14814
  8
0
 10
141.5909099578858
 20
148.0312104672193
 30
0.0
  0
SEQEND
  5
14815
  8
0
  0
ARC
  5
11AAA
  8
0
 10
145.73416447021009
 20
155.42505578164611
 30
0.0
 40
8.5583767909933783
 50
241.16062892848549
 51
250.71578203620371
  0
ARC
  5
11AAB
  8
0
 10
149.01994586765471
 20
162.2913304700794
 30
0.0
 40
16.14608580548116
 50
247.75563587962429
 51
253.74570668789571
  0
ARC
  5
11AAC
  8
0
 10
145.06631318580301
 20
148.6022723922373
 30
0.0
 40
1.8979101691413991
 50
252.65948137967129
 51
266.65474062930952
  0
POLYLINE
  5
11AAD
  8
0
 66
     1
 10
0.0
 20
0.0
 30
0.0
 70
   128
  0
VERTEX
  5
14816
  8
0
 10
144.9713231250644
 20
146.79056958854201
 30
0.0
  0
VERTEX
  5
14817
  8
0
 10
145.0205388665199
 20
146.7533427625894
 30
0.0
  0
VERTEX
  5
14818
  8
0
 10
145.02536684274679
 20
146.7181164175272
 30
0.0
  0
VERTEX
  5
14819
  8
0
 10
144.95556514710191
 20
146.70759619772431
 30
0.0
  0
SEQEND
  5
1481A
  8
0
  0
ARC
  5
11AAE
  8
0
 10
140.10016322764019
 20
137.3062807438946
 30
0.0
 40
10.662079236010911
 50
62.814828441951128
 51
70.339398554148744
  0
POLYLINE
  5
11AAF
  8
0
 66
     1
 10
0.0
 20
0.0
 30
0.0
 70
   128
  0
VERTEX
  5
1481B
  8
0
 10
142.22740653902289
 20
148.01306457817549
 30
0.0
  0
VERTEX
  5
1481C
  8
0
 10
143.85929509997371
 20
147.50793570280069
 30
0.0
  0
VERTEX
  5
1481D
  8
0
 10
144.7164769470692
 20
147.19756872951979
 30
0.0
  0
SEQEND
  5
1481E
  8
0
  0
LINE
  5
11AB0
  8
0
 10
142.5000027939677
 20
148.01306457817549
 30
0.0
 11
142.22740653902289
 21
148.01306457817549
 31
0.0
  0
LINE
  5
11AB1
  8
0
 10
143.53469379246241
 20
146.70413354039189
 30
0.0
 11
143.20788897573951
 21
146.71372057497501
 31
0.0
  0
LINE
  5
11AB2
  8
0
 10
140.6667548418045
 20
148.01949256658551
 30
0.0
 11
143.53469379246241
 21
146.70413354039189
 31
0.0
  0
LINE
  5
11AB3
  8
0
 10
140.39613019675019
 20
148.03056226670739
 30
0.0
 11
140.6667548418045
 21
148.01949256658551
 31
0.0
  0
LINE
  5
11AB4
  8
0
 10
142.55085207521921
 20
147.0403093248606
 30
0.0
 11
140.39613019675019
 21
148.03056226670739
 31
0.0
  0
LINE
  5
11AB5
  8
0
 10
142.53989040851599
 20
147.04052352905271
 30
0.0
 11
142.55085207521921
 21
147.0403093248606
 31
0.0
  0
LINE
  5
11AB6
  8
0
 10
139.8000697791577
 20
148.03294458985329
 30
0.0
 11
142.53989040851599
 21
147.04052352905271
 31
0.0
  0
LINE
  5
11AB7
  8
0
 10
139.48491208255291
 20
148.0220648795366
 30
0.0
 11
139.8000697791577
 21
148.03294458985329
 31
0.0
  0
LINE
  5
11AB8
  8
0
 10
142.35285103321081
 20
146.70609490573409
 30
0.0
 11
139.48491208255291
 21
148.0220648795366
 31
0.0
  0
LINE
  5
11AB9
  8
0
 10
142.62347567826509
 20
146.71358832716939
 30
0.0
 11
142.35285103321081
 21
146.70609490573409
 31
0.0
  0
LINE
  5
11ABA
  8
0
 10
140.5002511292696
 20
147.68960507214069
 30
0.0
 11
142.62347567826509
 21
146.71358832716939
 31
0.0
  0
LINE
  5
11ABB
  8
0
 10
143.20788897573951
 20
146.71372057497501
 30
0.0
 11
140.5002511292696
 21
147.68960507214069
 31
0.0
  0
LINE
  5
11AC4
  8
0
 10
135.25000300258401
 20
125.54100423445919
 30
0.0
 11
123.0000023916364
 21
125.54100423445919
 31
0.0
  0
LINE
  5
11AC5
  8
0
 10
122.0000031590461
 20
126.541004223749
 30
0.0
 11
135.25000300258401
 21
126.541004223749
 31
0.0
  0
LINE
  5
11AC8
  8
0
 10
140.00000238418579
 20
130.69459417462349
 30
0.0
 11
139.50000323355201
 21
130.69459417462349
 31
0.0
  0
LINE
  5
11AC9
  8
0
 10
136.50000274181369
 20
130.69459417462349
 30
0.0
 11
122.0000031590462
 21
130.69459417462349
 31
0.0
  0
LINE
  5
11ACB
  8
0
 10
139.80000272393229
 20
131.04100426286459
 30
0.0
 11
139.50000323355201
 21
131.04100426286459
 31
0.0
  0
LINE
  5
11ACC
  8
0
 10
136.50000274181369
 20
131.04100426286459
 30
0.0
 11
122.2000028192997
 21
131.0410042628645
 31
0.0
  0
POLYLINE
  5
11ACD
  8
0
 66
     1
 10
0.0
 20
0.0
 30
0.0
 70
   128
  0
VERTEX
  5
1481F
  8
0
 10
122.20142494887121
 20
131.65363570302719
 30
0.0
  0
VERTEX
  5
14820
  8
0
 10
122.200724594295
 20
131.64737395569679
 30
0.0
  0
VERTEX
  5
14821
  8
0
 10
122.2106748446822
 20
131.7397383376956
 30
0.0
  0
VERTEX
  5
14822
  8
0
 10
122.22836438566451
 20
131.93273445218799
 30
0.0
  0
VERTEX
  5
14823
  8
0
 10
122.2462150454521
 20
132.2064869441092
 30
0.0
  0
VERTEX
  5
14824
  8
0
 10
122.2562966123224
 20
132.52968847379091
 30
0.0
  0
VERTEX
  5
14825
  8
0
 10
122.25416854023941
 20
132.86376831680531
 30
0.0
  0
VERTEX
  5
14826
  8
0
 10
122.2409009188414
 20
133.17190942913291
 30
0.0
  0
VERTEX
  5
14827
  8
0
 10
122.22221113741401
 20
133.42178979516029
 30
0.0
  0
VERTEX
  5
14828
  8
0
 10
122.20621380954979
 20
133.58478800952429
 30
0.0
  0
VERTEX
  5
14829
  8
0
 10
122.2000028192997
 20
133.64100450277331
 30
0.0
  0
SEQEND
  5
1482A
  8
0
  0
ARC
  5
11ADC
  8
0
 10
148.52194750951071
 20
160.40674588129201
 30
0.0
 40
14.143711585537529
 50
247.3246264031078
 51
252.8120372001124
  0
ARC
  5
11ADE
  8
0
 10
144.7431917981763
 20
148.11724271371821
 30
0.0
 40
1.2865838222466079
 50
251.84827963408969
 51
264.9584994802355
  0
ARC
  5
11ADF
  8
0
 10
146.59343526540081
 20
157.11218260467999
 30
0.0
 40
10.372859169739559
 50
243.4782420018619
 51
250.1392734433139
  0
POLYLINE
  5
11AE0
  8
0
 66
     1
 10
0.0
 20
0.0
 30
0.0
 70
   128
  0
VERTEX
  5
1482B
  8
0
 10
141.94100901484489
 20
147.89353863894939
 30
0.0
  0
VERTEX
  5
1482C
  8
0
 10
141.91047094762331
 20
147.88337045907971
 30
0.0
  0
VERTEX
  5
1482D
  8
0
 10
141.9279183447361
 20
147.85655954480171
 30
0.0
  0
VERTEX
  5
1482E
  8
0
 10
141.96156330406669
 20
147.83091278374189
 30
0.0
  0
SEQEND
  5
1482F
  8
0
  0
ARC
  5
11AE1
  8
0
 10
141.84167756509689
 20
146.70315307156599
 30
0.0
 40
1.1945227230754689
 50
70.744267907448787
 51
85.230017556930193
  0
ARC
  5
11AE2
  8
0
 10
137.04676616279809
 20
131.73285224331039
 30
0.0
 40
16.91359362637429
 50
67.476574235404016
 51
72.134377031038952
  0
ARC
  5
11AE3
  8
0
 10
139.16881834977511
 20
135.54442488280449
 30
0.0
 40
12.58981809044286
 50
64.360993279428243
 51
69.753214127717683
  0
POLYLINE
  5
11AE4
  8
0
 66
     1
 10
0.0
 20
0.0
 30
0.0
 70
   128
  0
VERTEX
  5
14830
  8
0
 10
144.6301303058863
 20
146.8356362879276
 30
0.0
  0
VERTEX
  5
14831
  8
0
 10
144.6590534597635
 20
146.83968381583691
 30
0.0
  0
VERTEX
  5
14832
  8
0
 10
144.65999316424131
 20
146.85990655422211
 30
0.0
  0
VERTEX
  5
14833
  8
0
 10
144.61642775684601
 20
146.8946262598038
 30
0.0
  0
SEQEND
  5
14834
  8
0
  0
ARC
  5
11AEA
  8
0
 10
132.37671904615129
 20
164.05353228541159
 30
0.0
 40
8.9320262632649854
 50
87.142468578804525
 51
92.857531421195489
  0
LINE
  5
11AEB
  8
0
 10
132.82200430519879
 20
172.97445231676099
 30
0.0
 11
133.19861182942989
 21
162.91717061400411
 31
0.0
  0
ARC
  5
11AEF
  8
0
 10
132.7127495418994
 20
162.87814541695181
 30
0.0
 40
0.4874270493616077
 50
271.95870685265498
 51
4.592225335087968
  0
ARC
  5
11AF0
  8
0
 10
129.6232864970807
 20
164.05353228541159
 30
0.0
 40
8.9320262632649836
 50
87.142468578804525
 51
92.857531421195489
  0
LINE
  5
11AF3
  8
0
 10
128.8013937138021
 20
162.91717061400411
 30
0.0
 11
129.1780012380332
 21
172.97445231676099
 31
0.0
  0
ARC
  5
11AF4
  8
0
 10
129.28725600133271
 20
162.87814541695181
 30
0.0
 40
0.4874270493616077
 50
175.40777466491201
 51
268.04129314734831
  0
LINE
  5
11AF7
  8
0
 10
131.9314337871038
 20
172.97445231676099
 30
0.0
 11
130.06857175612819
 21
172.97445231676099
 31
0.0
  0
ARC
  5
11AFB
  8
0
 10
127.7480476942382
 20
173.12716681826049
 30
0.0
 40
1.4380851353032369
 50
353.90409819560131
 51
30.72029783354127
  0
ARC
  5
11AFE
  8
0
 10
134.1330370714447
 20
173.15312226348371
 30
0.0
 40
1.3231514894493479
 50
147.61503950319451
 51
187.7605644676679
  0
ARC
  5
11B00
  8
0
 10
135.2006578885898
 20
162.8781452051785
 30
0.0
 40
0.4874268378355715
 50
271.9587081279833
 51
4.5922523058061948
  0
ARC
  5
11B01
  8
0
 10
126.7993476546422
 20
162.8781452051785
 30
0.0
 40
0.487426837835569
 50
175.4077476941938
 51
268.04129187201988
  0
POLYLINE
  5
11B03
  8
0
 66
     1
 10
0.0
 20
0.0
 30
0.0
 70
   128
  0
VERTEX
  5
14835
  8
0
 10
135.048493668437
 20
175.8727579712868
 30
0.0
  0
VERTEX
  5
14836
  8
0
 10
134.02852920815349
 20
174.89052557945249
 30
0.0
  0
VERTEX
  5
14837
  8
0
 10
133.01567725837231
 20
173.86180901527399
 30
0.0
  0
SEQEND
  5
14838
  8
0
  0
LINE
  5
11B04
  8
0
 10
135.68651994690299
 20
162.91717061400411
 30
0.0
 11
135.048493668437
 21
175.8727579712868
 31
0.0
  0
POLYLINE
  5
11B05
  8
0
 66
     1
 10
0.0
 20
0.0
 30
0.0
 70
   128
  0
VERTEX
  5
14839
  8
0
 10
128.98432828485971
 20
173.86180901527399
 30
0.0
  0
VERTEX
  5
1483A
  8
0
 10
127.9717082343996
 20
174.89029461145401
 30
0.0
  0
VERTEX
  5
1483B
  8
0
 10
126.951511874795
 20
175.8727579712868
 30
0.0
  0
SEQEND
  5
1483C
  8
0
  0
LINE
  5
11B06
  8
0
 10
126.951511874795
 20
175.8727579712868
 30
0.0
 11
126.313485596329
 21
162.91717061400411
 31
0.0
  0
POLYLINE
  5
11B11
  8
0
 66
     1
 10
0.0
 20
0.0
 30
0.0
 70
   128
  0
VERTEX
  5
1483D
  8
0
 10
137.6277207583189
 20
162.91717061400411
 30
0.0
  0
VERTEX
  5
1483E
  8
0
 10
137.62496963143349
 20
162.8160215318203
 30
0.0
  0
VERTEX
  5
1483F
  8
0
 10
137.6109918765724
 20
162.71794581413269
 30
0.0
  0
VERTEX
  5
14840
  8
0
 10
137.5863607227802
 20
162.6269704997539
 30
0.0
  0
VERTEX
  5
14841
  8
0
 10
137.5520861893892
 20
162.54682832956311
 30
0.0
  0
VERTEX
  5
14842
  8
0
 10
137.5095745734871
 20
162.4808050096035
 30
0.0
  0
VERTEX
  5
14843
  8
0
 10
137.46057070791721
 20
162.43160882592201
 30
0.0
  0
VERTEX
  5
14844
  8
0
 10
137.4070839211345
 20
162.40125888586039
 30
0.0
  0
VERTEX
  5
14845
  8
0
 10
137.3513088747859
 20
162.39100316166881
 30
0.0
  0
SEQEND
  5
14846
  8
0
  0
POLYLINE
  5
11B12
  8
0
 66
     1
 10
0.0
 20
0.0
 30
0.0
 70
   128
  0
VERTEX
  5
14847
  8
0
 10
124.64869666844611
 20
162.39100316166881
 30
0.0
  0
VERTEX
  5
14848
  8
0
 10
124.59292162209751
 20
162.40125888586039
 30
0.0
  0
VERTEX
  5
14849
  8
0
 10
124.53943483531479
 20
162.43160882592201
 30
0.0
  0
VERTEX
  5
1484A
  8
0
 10
124.49043096974491
 20
162.4808050096035
 30
0.0
  0
VERTEX
  5
1484B
  8
0
 10
124.44791935384281
 20
162.54682832956311
 30
0.0
  0
VERTEX
  5
1484C
  8
0
 10
124.41364482045179
 20
162.6269704997539
 30
0.0
  0
VERTEX
  5
1484D
  8
0
 10
124.38901366665959
 20
162.71794581413269
 30
0.0
  0
VERTEX
  5
1484E
  8
0
 10
124.37503591179851
 20
162.8160215318203
 30
0.0
  0
VERTEX
  5
1484F
  8
0
 10
124.37228478491311
 20
162.91717061400411
 30
0.0
  0
SEQEND
  5
14850
  8
0
  0
ARC
  5
11B14
  8
0
 10
125.0147077887884
 20
173.71385464011661
 30
0.0
 40
2.9003575057067481
 50
48.103956569548423
 51
94.852546473055199
  0
LINE
  5
11B15
  8
0
 10
124.37228478491311
 20
162.91717061400411
 30
0.0
 11
124.769361615181
 21
176.60381639003751
 31
0.0
  0
ARC
  5
11B16
  8
0
 10
136.9955448851797
 20
173.68326778355021
 30
0.0
 40
2.9299958571324951
 50
85.397713961867751
 51
131.6457829955325
  0
LINE
  5
11B17
  8
0
 10
137.23064392805099
 20
176.60381639003751
 30
0.0
 11
137.6277207583189
 21
162.91717061400411
 31
0.0
  0
LINE
  5
11B1C
  8
0
 10
124.769361615181
 20
176.60381639003751
 30
0.0
 11
119.74486421793701
 21
176.60381639003751
 31
0.0
  0
LINE
  5
11B1D
  8
0
 10
142.255141325295
 20
176.60381639003751
 30
0.0
 11
137.23064392805099
 21
176.60381639003751
 31
0.0
  0
LINE
  5
11B1F
  8
0
 10
114.657983109355
 20
146.25071169435981
 30
0.0
 11
147.34202243387699
 21
146.25071169435981
 31
0.0
  0
LINE
  5
11B22
  8
0
 10
121.500002771616
 20
149.021087154746
 30
0.0
 11
140.50000246614221
 21
149.021087154746
 31
0.0
  0
LINE
  5
11B24
  8
0
 10
139.80000272393229
 20
133.64100450277331
 30
0.0
 11
139.50000323355201
 21
133.64100450277331
 31
0.0
  0
LINE
  5
11B25
  8
0
 10
136.50000274181369
 20
133.64100450277331
 30
0.0
 11
122.2000028192997
 21
133.64100450277331
 31
0.0
  0
LINE
  5
11B36
  8
0
 10
81.874356791377124
 20
125.54100423445919
 30
0.0
 11
81.874356791377124
 21
128.54100431874389
 31
0.0
  0
LINE
  5
11B37
  8
0
 10
76.374356821179447
 20
128.54100431874389
 30
0.0
 11
76.374356821179447
 21
125.54100423445919
 31
0.0
  0
LINE
  5
11B38
  8
0
 10
80.624356120824856
 20
128.54100431874389
 30
0.0
 11
80.624356120824856
 21
134.04100382328031
 31
0.0
  0
LINE
  5
11B39
  8
0
 10
77.624356560409126
 20
134.04100382328031
 30
0.0
 11
77.624356560409126
 21
128.54100431874389
 31
0.0
  0
LINE
  5
11B3A
  8
0
 10
69.75000090897089
 20
125.54100423445919
 30
0.0
 11
69.75000090897089
 21
128.54100431874389
 31
0.0
  0
LINE
  5
11B3B
  8
0
 10
64.250000938773212
 20
128.54100431874389
 30
0.0
 11
64.250000938773212
 21
125.54100423445919
 31
0.0
  0
LINE
  5
11B3C
  8
0
 10
68.500000936910567
 20
128.54100431874389
 30
0.0
 11
68.500000936910567
 21
134.04100382328031
 31
0.0
  0
LINE
  5
11B3D
  8
0
 10
65.500000910833535
 20
134.04100382328031
 30
0.0
 11
65.500000910833535
 21
128.54100431874389
 31
0.0
  0
LINE
  5
11B3E
  8
0
 10
57.625645026564662
 20
125.54100423445919
 30
0.0
 11
57.625645026564662
 21
128.54100431874389
 31
0.0
  0
LINE
  5
11B3F
  8
0
 10
52.125645056366977
 20
128.54100431874389
 30
0.0
 11
52.125645056366977
 21
125.54100423445919
 31
0.0
  0
LINE
  5
11B40
  8
0
 10
56.375645287334983
 20
128.54100431874389
 30
0.0
 11
56.375645287334983
 21
134.04100382328031
 31
0.0
  0
LINE
  5
11B41
  8
0
 10
53.375645726919231
 20
134.04100382328031
 30
0.0
 11
53.375645726919231
 21
128.54100431874389
 31
0.0
  0
LINE
  5
11B42
  8
0
 10
85.132126882672367
 20
174.74916571378711
 30
0.0
 11
76.582847349345741
 21
177.86085227131841
 31
0.0
  0
LINE
  5
11B43
  8
0
 10
57.417154498398361
 20
177.86085227131841
 30
0.0
 11
48.867874965071742
 21
174.74916571378711
 31
0.0
  0
ARC
  5
11B44
  8
0
 10
76.411837433517832
 20
177.39100421071049
 30
0.0
 40
0.5
 50
70.000000000000327
 51
90.0
  0
ARC
  5
11B45
  8
0
 10
57.58816441422627
 20
177.39100421071049
 30
0.0
 40
0.5
 50
90.0
 51
109.9999999999996
  0
ARC
  5
11B46
  8
0
 10
47.526890986512541
 20
162.89100421071049
 30
0.0
 40
0.5000000000000137
 50
176.99999999999761
 51
270.0
  0
ARC
  5
11B47
  8
0
 10
86.473110861231561
 20
162.89100421071049
 30
0.0
 40
0.5
 50
270.0
 51
2.9999999999958149
  0
LINE
  5
11B48
  8
0
 10
47.554656118154583
 20
172.97445231676099
 30
0.0
 11
47.027575969696102
 21
162.91717061400411
 31
0.0
  0
LINE
  5
11B49
  8
0
 10
86.972425878047986
 20
162.91717061400411
 30
0.0
 11
86.445345729589505
 21
172.97445231676099
 31
0.0
  0
ARC
  5
11B4A
  8
0
 10
84.448086758199125
 20
172.8697820026708
 30
0.0
 40
1.9999999999999909
 50
2.9999999999990772
 51
70.000000000000327
  0
ARC
  5
11B4B
  8
0
 10
49.551915089544963
 20
172.8697820026708
 30
0.0
 40
1.9999999999999909
 50
109.9999999999996
 51
177.00000000000091
  0
ARC
  5
11B4C
  8
0
 10
51.000000923872022
 20
145.31101991550429
 30
0.0
 40
1.0
 50
109.9999999999996
 51
180.0
  0
ARC
  5
11B4D
  8
0
 10
83.000000923872065
 20
145.31101991550429
 30
0.0
 40
1.0
 50
0.0
 51
70.000000000000327
  0
LINE
  5
11B4E
  8
0
 10
50.000000000000057
 20
134.54100390523669
 30
0.0
 11
50.500001013279018
 21
134.04100382328031
 31
0.0
  0
LINE
  5
11B4F
  8
0
 10
83.500000834465084
 20
134.04100382328031
 30
0.0
 11
84.000001847744045
 21
134.54100390523669
 31
0.0
  0
LINE
  5
11B50
  8
0
 10
84.000001847744045
 20
134.54100390523669
 30
0.0
 11
84.000001847744045
 21
145.31102025508881
 31
0.0
  0
LINE
  5
11B51
  8
0
 10
50.000000000000057
 20
145.31102025508881
 30
0.0
 11
50.000000000000057
 21
134.54100390523669
 31
0.0
  0
LINE
  5
11B52
  8
0
 10
83.342020586133046
 20
146.25071169435981
 30
0.0
 11
76.763193309307155
 21
148.6452109515667
 31
0.0
  0
LINE
  5
11B55
  8
0
 10
57.236808538436946
 20
148.6452109515667
 30
0.0
 11
50.657980946653538
 21
146.2507125967482
 31
0.0
  0
ARC
  5
11B56
  8
0
 10
76.900000923872057
 20
149.02108722599439
 30
0.0
 40
0.400000000000016
 50
180.0
 51
250.00000000000031
  0
ARC
  5
11B57
  8
0
 10
57.100000923872038
 20
149.02108722599439
 30
0.0
 40
0.400000000000016
 50
289.99999999999972
 51
0.0
  0
LINE
  5
11B58
  8
0
 10
76.500000618398246
 20
149.021087154746
 30
0.0
 11
76.500000618398246
 21
162.39100316166881
 31
0.0
  0
LINE
  5
11B59
  8
0
 10
57.500001229345862
 20
162.39100316166881
 30
0.0
 11
57.500001229345862
 21
149.021087154746
 31
0.0
  0
ARC
  5
11B5A
  8
0
 10
76.200000923872068
 20
133.64100421071049
 30
0.0
 40
0.4000000000000057
 50
90.0
 51
180.0
  0
ARC
  5
11B5B
  8
0
 10
57.800000923872027
 20
133.64100421071049
 30
0.0
 40
0.4000000000000057
 50
0.0
 51
90.0
  0
LINE
  5
11B5C
  8
0
 10
76.00000053644186
 20
130.69459417462349
 30
0.0
 11
75.800000876188335
 21
131.04100426286459
 31
0.0
  0
LINE
  5
11B5D
  8
0
 10
58.200000971555767
 20
131.04100426286459
 30
0.0
 11
58.000001311302242
 21
130.69459417462349
 31
0.0
  0
LINE
  5
11B5E
  8
0
 10
76.00000053644186
 20
126.541004223749
 30
0.0
 11
76.00000053644186
 21
130.69459417462349
 31
0.0
  0
LINE
  5
11B5F
  8
0
 10
58.000001311302242
 20
130.69459417462349
 30
0.0
 11
58.000001311302242
 21
126.541004223749
 31
0.0
  0
LINE
  5
11B60
  8
0
 10
58.000001311302242
 20
126.541004223749
 30
0.0
 11
59.00000054389244
 21
125.54100423445919
 31
0.0
  0
LINE
  5
11B61
  8
0
 10
75.000001303851661
 20
125.54100423445919
 30
0.0
 11
76.00000053644186
 21
126.541004223749
 31
0.0
  0
LINE
  5
11B62
  8
0
 10
75.800000876188335
 20
131.04100426286459
 30
0.0
 11
75.800000876188335
 21
133.64100450277331
 31
0.0
  0
LINE
  5
11B63
  8
0
 10
58.200000971555767
 20
133.64100450277331
 30
0.0
 11
58.200000971555767
 21
131.04100426286459
 31
0.0
  0
LINE
  5
11B67
  8
0
 10
81.874356791377124
 20
125.54100423445919
 30
0.0
 11
76.374356821179447
 21
125.54100423445919
 31
0.0
  0
LINE
  5
11B69
  8
0
 10
81.874356791377124
 20
128.54100431874389
 30
0.0
 11
76.374356821179447
 21
128.541004318744
 31
0.0
  0
LINE
  5
11B6A
  8
0
 10
69.75000090897089
 20
125.54100423445919
 30
0.0
 11
64.250000938773212
 21
125.54100423445919
 31
0.0
  0
LINE
  5
11B6B
  8
0
 10
69.75000090897089
 20
128.54100431874389
 30
0.0
 11
64.250000938773212
 21
128.54100431874389
 31
0.0
  0
LINE
  5
11B6C
  8
0
 10
57.625645026564662
 20
125.54100423445919
 30
0.0
 11
52.125645056366977
 21
125.54100423445919
 31
0.0
  0
LINE
  5
11B6E
  8
0
 10
57.625645026564662
 20
128.541004318744
 30
0.0
 11
52.125645056366977
 21
128.54100431874389
 31
0.0
  0
LINE
  5
11B71
  8
0
 10
57.58816488087183
 20
177.89100477099419
 30
0.0
 11
76.411837898194847
 21
177.89100477099419
 31
0.0
  0
LINE
  5
11B77
  8
0
 10
86.473110861231561
 20
162.39100421071049
 30
0.0
 11
47.526890986512541
 21
162.39100421071049
 31
0.0
  0
LINE
  5
11B78
  8
0
 10
83.500000834465084
 20
134.04100382328031
 30
0.0
 11
50.500001013279018
 21
134.04100382328031
 31
0.0
  0
LINE
  5
11B79
  8
0
 10
50.000000000000057
 20
134.54100390523669
 30
0.0
 11
84.000001847744045
 21
134.54100390523669
 31
0.0
  0
ARC
  5
11B7A
  8
0
 10
69.309844015932896
 20
106.1075670920747
 30
0.0
 40
44.076745489017327
 50
108.6072063656753
 51
110.5494101318572
  0
ARC
  5
11B7B
  8
0
 10
62.725377854204623
 20
122.91992500548611
 30
0.0
 40
26.024254438413362
 50
109.9679375033195
 51
112.79050145916
  0
POLYLINE
  5
11B7C
  8
0
 66
     1
 10
0.0
 20
0.0
 30
0.0
 70
   128
  0
VERTEX
  5
14851
  8
0
 10
52.45911534875637
 20
146.7712278813124
 30
0.0
  0
VERTEX
  5
14852
  8
0
 10
52.420286647975502
 20
146.77942538261411
 30
0.0
  0
VERTEX
  5
14853
  8
0
 10
52.474583685398159
 20
146.82919339835641
 30
0.0
  0
VERTEX
  5
14854
  8
0
 10
52.644550986588058
 20
146.91239775717261
 30
0.0
  0
SEQEND
  5
14855
  8
0
  0
ARC
  5
11B7D
  8
0
 10
52.020108999328528
 20
150.3008508871406
 30
0.0
 40
3.5568195256591322
 50
277.08990637177311
 51
287.69166997178758
  0
ARC
  5
11B7E
  8
0
 10
47.938343371691609
 20
164.8345300762293
 30
0.0
 40
18.65103923852265
 50
286.06949035590708
 51
290.62907885852638
  0
ARC
  5
11B7F
  8
0
 10
50.808653406644872
 20
157.8664082133113
 30
0.0
 40
11.120854633769669
 50
289.43740098017508
 51
296.10691751105588
  0
POLYLINE
  5
11B80
  8
0
 66
     1
 10
0.0
 20
0.0
 30
0.0
 70
   128
  0
VERTEX
  5
14856
  8
0
 10
55.887794308364448
 20
148.05098989605901
 30
0.0
  0
VERTEX
  5
14857
  8
0
 10
55.926623009145317
 20
148.0404827147722
 30
0.0
  0
VERTEX
  5
14858
  8
0
 10
55.874389782548008
 20
147.98052789270881
 30
0.0
  0
VERTEX
  5
14859
  8
0
 10
55.70235867053276
 20
147.88016484677789
 30
0.0
  0
SEQEND
  5
1485A
  8
0
  0
ARC
  5
11B81
  8
0
 10
56.373108594599472
 20
144.9328529261017
 30
0.0
 40
3.1556787098559309
 50
98.846672125034544
 51
110.9283088202652
  0
LINE
  5
11B89
  8
0
 10
76.00000053644186
 20
130.69459417462349
 30
0.0
 11
68.500000936910567
 21
130.69459417462349
 31
0.0
  0
LINE
  5
11B8A
  8
0
 10
65.500000910833535
 20
130.69459417462349
 30
0.0
 11
58.000001311302242
 21
130.69459417462349
 31
0.0
  0
LINE
  5
11B8B
  8
0
 10
75.800000876188335
 20
131.04100426286459
 30
0.0
 11
68.500000936910567
 21
131.04100426286459
 31
0.0
  0
LINE
  5
11B8C
  8
0
 10
65.500000910833535
 20
131.04100426286459
 30
0.0
 11
58.200000971555767
 21
131.04100426286459
 31
0.0
  0
LINE
  5
11B8D
  8
0
 10
58.000001311302242
 20
126.541004223749
 30
0.0
 11
64.250000938773212
 21
126.541004223749
 31
0.0
  0
LINE
  5
11B8E
  8
0
 10
69.75000090897089
 20
126.541004223749
 30
0.0
 11
76.00000053644186
 21
126.541004223749
 31
0.0
  0
LINE
  5
11B8F
  8
0
 10
75.000001303851661
 20
125.54100423445919
 30
0.0
 11
69.75000090897089
 21
125.54100423445919
 31
0.0
  0
LINE
  5
11B90
  8
0
 10
64.250000938773212
 20
125.54100423445919
 30
0.0
 11
59.00000054389244
 21
125.54100423445919
 31
0.0
  0
ARC
  5
11B9B
  8
0
 10
59.684122047090078
 20
131.3968368049637
 30
0.0
 40
16.9977710176328
 50
109.7309798236507
 51
113.2425681796165
  0
ARC
  5
11B9C
  8
0
 10
64.996216236468413
 20
118.0139640310383
 30
0.0
 40
31.391998143684908
 50
108.4416312970065
 51
110.61092295562899
  0
ARC
  5
11B9D
  8
0
 10
55.837264231826531
 20
145.76593934227799
 30
0.0
 40
2.1697424871393132
 50
98.570372278432373
 51
110.829722619055
  0
POLYLINE
  5
11B9E
  8
0
 66
     1
 10
0.0
 20
0.0
 30
0.0
 70
   128
  0
VERTEX
  5
1485B
  8
0
 10
55.370526574552123
 20
147.79389271140101
 30
0.0
  0
VERTEX
  5
1485C
  8
0
 10
55.517718382179787
 20
147.8794719427824
 30
0.0
  0
VERTEX
  5
1485D
  8
0
 10
55.536532029509601
 20
147.9028369635343
 30
0.0
  0
VERTEX
  5
1485E
  8
0
 10
55.513920448720512
 20
147.9114535599947
 30
0.0
  0
SEQEND
  5
1485F
  8
0
  0
ARC
  5
11B9F
  8
0
 10
50.858573770482252
 20
157.4096864538356
 30
0.0
 40
10.62173278722449
 50
289.48785268787952
 51
295.13705562462832
  0
ARC
  5
11BA0
  8
0
 10
48.150174262572897
 20
163.9366405102997
 30
0.0
 40
17.682307257145311
 50
286.86860089535429
 51
290.70565715010201
  0
ARC
  5
11BA1
  8
0
 10
52.536892440440681
 20
149.20147742286349
 30
0.0
 40
2.309541854095126
 50
277.38470491238888
 51
288.8002283732983
  0
POLYLINE
  5
11BA2
  8
0
 66
     1
 10
0.0
 20
0.0
 30
0.0
 70
   128
  0
VERTEX
  5
14860
  8
0
 10
52.976382151246128
 20
147.0151095986366
 30
0.0
  0
VERTEX
  5
14861
  8
0
 10
52.8293719515205
 20
146.93867781758311
 30
0.0
  0
VERTEX
  5
14862
  8
0
 10
52.811128273606357
 20
146.91844204068181
 30
0.0
  0
VERTEX
  5
14863
  8
0
 10
52.833739854395454
 20
146.911092042923
 30
0.0
  0
SEQEND
  5
14864
  8
0
  0
ARC
  5
11BAE
  8
0
 10
57.494496591917219
 20
162.85731409818541
 30
0.0
 40
0.4689036093826453
 50
172.66606466463671
 51
263.9720447984688
  0
ARC
  5
11BB0
  8
0
 10
76.505505255826876
 20
162.85731409818541
 30
0.0
 40
0.4689036093826453
 50
276.02795520153131
 51
7.3339353353632832
  0
LINE
  5
11BB1
  8
0
 10
76.373220607638416
 20
176.60381639003751
 30
0.0
 11
57.626781240105693
 21
176.60381639003751
 31
0.0
  0
LINE
  5
11BB2
  8
0
 10
76.970572769641933
 20
162.91717061400411
 30
0.0
 11
76.373220607638416
 21
176.60381639003751
 31
0.0
  0
LINE
  5
11BB3
  8
0
 10
57.626781240105693
 20
176.60381639003751
 30
0.0
 11
57.029429078102169
 21
162.91717061400411
 31
0.0
  0
POLYLINE
  5
11BBE
  8
0
 66
     1
 10
0.0
 20
0.0
 30
0.0
 70
   128
  0
VERTEX
  5
14865
  8
0
 10
54.732798784971287
 20
162.39100316166881
 30
0.0
  0
VERTEX
  5
14866
  8
0
 10
54.698338918387947
 20
162.40125888586039
 30
0.0
  0
VERTEX
  5
14867
  8
0
 10
54.665292799472873
 20
162.43160882592201
 30
0.0
  0
VERTEX
  5
14868
  8
0
 10
54.635016433894691
 20
162.4808050096035
 30
0.0
  0
VERTEX
  5
14869
  8
0
 10
54.60875220596796
 20
162.54682832956311
 30
0.0
  0
VERTEX
  5
1486A
  8
0
 10
54.587575793266353
 20
162.6269704997539
 30
0.0
  0
VERTEX
  5
1486B
  8
0
 10
54.572357982397143
 20
162.71794581413269
 30
0.0
  0
VERTEX
  5
1486C
  8
0
 10
54.563721828162727
 20
162.8160215318203
 30
0.0
  0
VERTEX
  5
1486D
  8
0
 10
54.562023095786628
 20
162.91717061400411
 30
0.0
  0
SEQEND
  5
1486E
  8
0
  0
POLYLINE
  5
11BC1
  8
0
 66
     1
 10
0.0
 20
0.0
 30
0.0
 70
   128
  0
VERTEX
  5
1486F
  8
0
 10
79.267203062772808
 20
162.39100316166881
 30
0.0
  0
VERTEX
  5
14870
  8
0
 10
79.301662929356155
 20
162.40125888586039
 30
0.0
  0
VERTEX
  5
14871
  8
0
 10
79.334709048271236
 20
162.43160882592201
 30
0.0
  0
VERTEX
  5
14872
  8
0
 10
79.364985413849411
 20
162.4808050096035
 30
0.0
  0
VERTEX
  5
14873
  8
0
 10
79.391249641776142
 20
162.54682832956311
 30
0.0
  0
VERTEX
  5
14874
  8
0
 10
79.412426054477748
 20
162.6269704997539
 30
0.0
  0
VERTEX
  5
14875
  8
0
 10
79.427643865346965
 20
162.71794581413269
 30
0.0
  0
VERTEX
  5
14876
  8
0
 10
79.436280019581375
 20
162.8160215318203
 30
0.0
  0
VERTEX
  5
14877
  8
0
 10
79.437978751957473
 20
162.91717061400411
 30
0.0
  0
SEQEND
  5
14878
  8
0
  0
ARC
  5
11BC2
  8
0
 10
58.52080132841624
 20
167.28691924012639
 30
0.0
 40
9.3596925387709593
 50
95.481140613172926
 51
113.46253789565451
  0
LINE
  5
11BC3
  8
0
 10
54.562023095786628
 20
162.91717061400411
 30
0.0
 11
54.794245585799267
 21
175.8727579712868
 31
0.0
  0
ARC
  5
11BC4
  8
0
 10
75.400068655473746
 20
166.98031744195339
 30
0.0
 40
9.6725775636992175
 50
66.830583374180264
 51
84.225738116992076
  0
LINE
  5
11BC5
  8
0
 10
79.205756261944828
 20
175.8727579712868
 30
0.0
 11
79.437978751957473
 21
162.91717061400411
 31
0.0
  0
POLYLINE
  5
11BC8
  8
0
 66
     1
 10
0.0
 20
0.0
 30
0.0
 70
   128
  0
VERTEX
  5
14879
  8
0
 10
47.897326946258602
 20
162.39100316166881
 30
0.0
  0
VERTEX
  5
1487A
  8
0
 10
47.86286614835268
 20
162.40125888586039
 30
0.0
  0
VERTEX
  5
1487B
  8
0
 10
47.829820960760173
 20
162.43160882592201
 30
0.0
  0
VERTEX
  5
1487C
  8
0
 10
47.799545526504573
 20
162.4808050096035
 30
0.0
  0
VERTEX
  5
1487D
  8
0
 10
47.773280367255268
 20
162.54682832956311
 30
0.0
  0
VERTEX
  5
1487E
  8
0
 10
47.752103954553661
 20
162.6269704997539
 30
0.0
  0
VERTEX
  5
1487F
  8
0
 10
47.736886143684437
 20
162.71794581413269
 30
0.0
  0
VERTEX
  5
14880
  8
0
 10
47.728250920772609
 20
162.8160215318203
 30
0.0
  0
VERTEX
  5
14881
  8
0
 10
47.726550325751361
 20
162.91717061400411
 30
0.0
  0
SEQEND
  5
14882
  8
0
  0
POLYLINE
  5
11BCB
  8
0
 66
     1
 10
0.0
 20
0.0
 30
0.0
 70
   128
  0
VERTEX
  5
14883
  8
0
 10
86.102674901485486
 20
162.39100316166881
 30
0.0
  0
VERTEX
  5
14884
  8
0
 10
86.137135699391408
 20
162.40125888586039
 30
0.0
  0
VERTEX
  5
14885
  8
0
 10
86.170180886983914
 20
162.43160882592201
 30
0.0
  0
VERTEX
  5
14886
  8
0
 10
86.200456321239514
 20
162.4808050096035
 30
0.0
  0
VERTEX
  5
14887
  8
0
 10
86.226721480488834
 20
162.54682832956311
 30
0.0
  0
VERTEX
  5
14888
  8
0
 10
86.247897893190427
 20
162.6269704997539
 30
0.0
  0
VERTEX
  5
14889
  8
0
 10
86.263115704059643
 20
162.71794581413269
 30
0.0
  0
VERTEX
  5
1488A
  8
0
 10
86.271750926971478
 20
162.8160215318203
 30
0.0
  0
VERTEX
  5
1488B
  8
0
 10
86.273451521992726
 20
162.91717061400411
 30
0.0
  0
SEQEND
  5
1488C
  8
0
  0
ARC
  5
11BCC
  8
0
 10
49.229929613470773
 20
172.9189794491339
 30
0.0
 40
0.9985630907356661
 50
109.2330911189469
 51
176.81542579790411
  0
POLYLINE
  5
11BCD
  8
0
 66
     1
 10
0.0
 20
0.0
 30
0.0
 70
   128
  0
VERTEX
  5
1488D
  8
0
 10
54.794245585799267
 20
175.8727579712868
 30
0.0
  0
VERTEX
  5
1488E
  8
0
 10
51.841408200562057
 20
174.89052557945249
 30
0.0
  0
VERTEX
  5
1488F
  8
0
 10
48.900990933179912
 20
173.86180901527399
 30
0.0
  0
SEQEND
  5
14890
  8
0
  0
LINE
  5
11BCE
  8
0
 10
48.232908546924648
 20
172.97445231676099
 30
0.0
 11
47.726550325751361
 21
162.91717061400411
 31
0.0
  0
POLYLINE
  5
11BCF
  8
0
 66
     1
 10
0.0
 20
0.0
 30
0.0
 70
   128
  0
VERTEX
  5
14891
  8
0
 10
85.099010914564175
 20
173.86180901527399
 30
0.0
  0
VERTEX
  5
14892
  8
0
 10
82.159266062080917
 20
174.89029461145401
 30
0.0
  0
VERTEX
  5
14893
  8
0
 10
79.205756261944828
 20
175.8727579712868
 30
0.0
  0
SEQEND
  5
14894
  8
0
  0
ARC
  5
11BD0
  8
0
 10
84.771835187025346
 20
172.92030675942911
 30
0.0
 40
0.996729880384761
 50
3.1140229976340761
 51
70.837460085507644
  0
LINE
  5
11BD1
  8
0
 10
86.273451521992726
 20
162.91717061400411
 30
0.0
 11
85.767093300819454
 21
172.97445231676099
 31
0.0
  0
LINE
  5
11BE3
  8
0
 10
50.657981261611042
 20
146.25071169435981
 30
0.0
 11
83.342020586133046
 21
146.25071169435981
 31
0.0
  0
LINE
  5
11BE5
  8
0
 10
57.500001229345862
 20
149.021087154746
 30
0.0
 11
76.500000618398246
 21
149.021087154746
 31
0.0
  0
LINE
  5
11BE6
  8
0
 10
65.500000910833535
 20
133.64100450277331
 30
0.0
 11
58.200000971555767
 21
133.64100450277331
 31
0.0
  0
LINE
  5
11BE7
  8
0
 10
75.800000876188335
 20
133.64100450277331
 30
0.0
 11
68.500000936910567
 21
133.64100450277331
 31
0.0
  0
LINE
  5
11BF5
  8
0
 10
185.6256487220526
 20
125.54100423445919
 30
0.0
 11
185.6256487220526
 21
128.54100431874389
 31
0.0
  0
LINE
  5
11BF6
  8
0
 10
180.1256487518549
 20
128.54100431874389
 30
0.0
 11
180.1256487518549
 21
125.54100423445919
 31
0.0
  0
LINE
  5
11BF7
  8
0
 10
184.3756489828229
 20
128.54100431874389
 30
0.0
 11
184.3756489828229
 21
134.04100382328031
 31
0.0
  0
LINE
  5
11BF8
  8
0
 10
181.37564942240721
 20
134.04100382328031
 30
0.0
 11
181.37564942240721
 21
128.54100431874389
 31
0.0
  0
LINE
  5
11BF9
  8
0
 10
209.8743604868651
 20
125.54100423445919
 30
0.0
 11
209.8743604868651
 21
128.54100431874389
 31
0.0
  0
LINE
  5
11BFA
  8
0
 10
204.37436051666739
 20
128.54100431874389
 30
0.0
 11
204.37436051666739
 21
125.54100423445919
 31
0.0
  0
LINE
  5
11BFB
  8
0
 10
208.62435981631279
 20
128.54100431874389
 30
0.0
 11
208.62435981631279
 21
134.04100382328031
 31
0.0
  0
LINE
  5
11BFC
  8
0
 10
205.6243602558971
 20
134.04100382328031
 30
0.0
 11
205.6243602558971
 21
128.54100431874389
 31
0.0
  0
LINE
  5
11BFD
  8
0
 10
213.13213057816029
 20
174.74916571378711
 30
0.0
 11
204.58285104483369
 21
177.86085227131841
 31
0.0
  0
LINE
  5
11BFE
  8
0
 10
185.41715819388631
 20
177.86085227131841
 30
0.0
 11
176.86787866055971
 21
174.74916571378711
 31
0.0
  0
ARC
  5
11BFF
  8
0
 10
204.41184112900581
 20
177.39100421071049
 30
0.0
 40
0.5
 50
70.000000000003482
 51
90.0
  0
ARC
  5
11C00
  8
0
 10
185.58816810971419
 20
177.39100421071049
 30
0.0
 40
0.5
 50
90.0
 51
109.9999999999965
  0
ARC
  5
11C01
  8
0
 10
214.47311455671951
 20
162.89100421071049
 30
0.0
 40
0.5000000000000276
 50
270.0
 51
3.0000000000023381
  0
ARC
  5
11C02
  8
0
 10
175.52689468200049
 20
162.89100421071049
 30
0.0
 40
0.5
 50
177.00000000000421
 51
270.0
  0
LINE
  5
11C03
  8
0
 10
214.972429573536
 20
162.91717061400411
 30
0.0
 11
214.4453494250775
 21
172.97445231676099
 31
0.0
  0
LINE
  5
11C04
  8
0
 10
175.5546598136425
 20
172.97445231676099
 30
0.0
 11
175.02757966518399
 21
162.91717061400411
 31
0.0
  0
ARC
  5
11C05
  8
0
 10
212.44809045368709
 20
172.8697820026708
 30
0.0
 40
1.9999999999999909
 50
2.9999999999990772
 51
70.000000000000327
  0
ARC
  5
11C06
  8
0
 10
177.551918785033
 20
172.8697820026708
 30
0.0
 40
1.9999999999999909
 50
109.9999999999996
 51
177.00000000000091
  0
ARC
  5
11C07
  8
0
 10
179.00000461936
 20
145.31101991550429
 30
0.0
 40
1.0
 50
109.9999999999996
 51
180.0
  0
ARC
  5
11C08
  8
0
 10
211.00000461936
 20
145.31101991550429
 30
0.0
 40
1.0
 50
0.0
 51
70.000000000003482
  0
LINE
  5
11C09
  8
0
 10
178.000003695488
 20
134.54100390523669
 30
0.0
 11
178.50000470876699
 21
134.04100382328031
 31
0.0
  0
LINE
  5
11C0A
  8
0
 10
211.50000452995309
 20
134.04100382328031
 30
0.0
 11
212.00000554323199
 21
134.54100390523669
 31
0.0
  0
LINE
  5
11C0B
  8
0
 10
212.00000554323199
 20
134.54100390523669
 30
0.0
 11
212.00000554323199
 21
145.31102025508881
 31
0.0
  0
LINE
  5
11C0C
  8
0
 10
178.000003695488
 20
145.31102025508881
 30
0.0
 11
178.000003695488
 21
134.54100390523669
 31
0.0
  0
LINE
  5
11C0D
  8
0
 10
211.3420248806197
 20
146.25071249336571
 30
0.0
 11
204.7631970047951
 21
148.6452109515667
 31
0.0
  0
LINE
  5
11C10
  8
0
 10
185.23681223392489
 20
148.6452109515667
 30
0.0
 11
178.65798495709899
 21
146.25071169435981
 31
0.0
  0
ARC
  5
11C13
  8
0
 10
204.90000461936
 20
149.02108722599439
 30
0.0
 40
0.4000000000000341
 50
180.0
 51
249.99999999999599
  0
ARC
  5
11C14
  8
0
 10
185.10000461935999
 20
149.02108722599439
 30
0.0
 40
0.4000000000000341
 50
290.00000000000659
 51
0.0
  0
LINE
  5
11C15
  8
0
 10
204.50000431388619
 20
149.021087154746
 30
0.0
 11
204.50000431388619
 21
162.39100316166881
 31
0.0
  0
LINE
  5
11C16
  8
0
 10
185.5000049248338
 20
162.39100316166881
 30
0.0
 11
185.5000049248338
 21
149.021087154746
 31
0.0
  0
ARC
  5
11C17
  8
0
 10
204.20000461935999
 20
133.64100421071049
 30
0.0
 40
0.4000000000000057
 50
90.0
 51
180.0
  0
ARC
  5
11C18
  8
0
 10
185.80000461936001
 20
133.64100421071049
 30
0.0
 40
0.4000000000000057
 50
0.0
 51
90.0
  0
LINE
  5
11C19
  8
0
 10
204.00000423192981
 20
126.541004223749
 30
0.0
 11
204.00000423192981
 21
130.69459417462349
 31
0.0
  0
LINE
  5
11C1A
  8
0
 10
186.00000500679019
 20
130.69459417462349
 30
0.0
 11
186.00000500679019
 21
126.541004223749
 31
0.0
  0
LINE
  5
11C1B
  8
0
 10
204.00000423192981
 20
130.69459417462349
 30
0.0
 11
203.80000457167631
 21
131.04100426286459
 31
0.0
  0
LINE
  5
11C1C
  8
0
 10
186.20000466704369
 20
131.04100426286459
 30
0.0
 11
186.00000500679019
 21
130.69459417462349
 31
0.0
  0
LINE
  5
11C1D
  8
0
 10
186.00000500679019
 20
126.541004223749
 30
0.0
 11
187.00000423938039
 21
125.54100423445919
 31
0.0
  0
LINE
  5
11C1E
  8
0
 10
203.00000499933961
 20
125.54100423445919
 30
0.0
 11
204.00000423192981
 21
126.541004223749
 31
0.0
  0
LINE
  5
11C1F
  8
0
 10
203.80000457167631
 20
131.04100426286459
 30
0.0
 11
203.80000457167631
 21
133.64100450277331
 31
0.0
  0
LINE
  5
11C20
  8
0
 10
186.20000466704369
 20
133.64100450277331
 30
0.0
 11
186.20000466704369
 21
131.04100426286459
 31
0.0
  0
LINE
  5
11C23
  8
0
 10
185.6256487220526
 20
125.54100423445919
 30
0.0
 11
180.1256487518549
 21
125.54100423445919
 31
0.0
  0
LINE
  5
11C24
  8
0
 10
185.6256487220526
 20
128.54100431874389
 30
0.0
 11
180.1256487518549
 21
128.54100431874389
 31
0.0
  0
LINE
  5
11C25
  8
0
 10
209.8743604868651
 20
125.54100423445919
 30
0.0
 11
204.37436051666739
 21
125.54100423445919
 31
0.0
  0
LINE
  5
11C26
  8
0
 10
209.8743604868651
 20
128.54100431874389
 30
0.0
 11
204.37436051666739
 21
128.54100431874389
 31
0.0
  0
LINE
  5
11C28
  8
0
 10
185.5881676450372
 20
177.89100477099419
 30
0.0
 11
204.41184159368279
 21
177.89100477099419
 31
0.0
  0
LINE
  5
11C2D
  8
0
 10
214.47311455671951
 20
162.39100421071049
 30
0.0
 11
175.52689468200049
 21
162.39100421071049
 31
0.0
  0
LINE
  5
11C2F
  8
0
 10
211.50000452995309
 20
134.04100382328031
 30
0.0
 11
178.50000470876699
 21
134.04100382328031
 31
0.0
  0
LINE
  5
11C30
  8
0
 10
178.000003695488
 20
134.54100390523669
 30
0.0
 11
212.00000554323199
 21
134.54100390523669
 31
0.0
  0
POLYLINE
  5
11C31
  8
0
 66
     1
 10
0.0
 20
0.0
 30
0.0
 70
   128
  0
VERTEX
  5
14895
  8
0
 10
191.1291306745261
 20
147.92806090414521
 30
0.0
  0
VERTEX
  5
14896
  8
0
 10
191.2033922411502
 20
147.79183635115621
 30
0.0
  0
VERTEX
  5
14897
  8
0
 10
191.15118951536721
 20
147.63324888050559
 30
0.0
  0
VERTEX
  5
14898
  8
0
 10
190.909205134958
 20
147.34678336977959
 30
0.0
  0
SEQEND
  5
14899
  8
0
  0
ARC
  5
11C32
  8
0
 10
190.71749051775109
 20
147.18155868968279
 30
0.0
 40
0.8524747356180787
 50
61.126549344376549
 51
94.664112379074908
  0
ARC
  5
11C33
  8
0
 10
190.64987847735421
 20
145.813113519615
 30
0.0
 40
2.218097603898106
 50
90.044075420059414
 51
107.5362864022773
  0
ARC
  5
11C34
  8
0
 10
190.67913250961661
 20
145.6537565174047
 30
0.0
 40
2.3789483197375301
 50
107.0516685114239
 51
134.62595662782519
  0
POLYLINE
  5
11C35
  8
0
 66
     1
 10
0.0
 20
0.0
 30
0.0
 70
   128
  0
VERTEX
  5
1489A
  8
0
 10
188.79421999678021
 20
146.79062174260619
 30
0.0
  0
VERTEX
  5
1489B
  8
0
 10
188.71921453624969
 20
146.9191870987415
 30
0.0
  0
VERTEX
  5
1489C
  8
0
 10
188.77223333343869
 20
147.07120874524119
 30
0.0
  0
VERTEX
  5
1489D
  8
0
 10
189.0079794824124
 20
147.34687277674669
 30
0.0
  0
SEQEND
  5
1489E
  8
0
  0
ARC
  5
11C36
  8
0
 10
189.19857497716541
 20
147.7044627900558
 30
0.0
 40
0.9993039628493287
 50
246.13164195585679
 51
274.00256058673318
  0
ARC
  5
11C37
  8
0
 10
189.29246932360419
 20
149.28638062030211
 30
0.0
 40
2.5788974249207381
 50
269.46362823799609
 51
284.58339029642138
  0
ARC
  5
11C38
  8
0
 10
189.35945260652829
 20
148.92281647453521
 30
0.0
 40
2.210342336983202
 50
285.27593472286787
 51
314.51828730293153
  0
LINE
  5
11C39
  8
0
 10
207.3643371835351
 20
147.450772985816
 30
0.0
 11
207.73070365190509
 21
147.45802240073681
 31
0.0
  0
LINE
  5
11C3A
  8
0
 10
207.74797130376109
 20
147.30682963132861
 30
0.0
 11
207.3643371835351
 21
147.450772985816
 31
0.0
  0
LINE
  5
11C3B
  8
0
 10
208.11433684080839
 20
147.3138611167669
 30
0.0
 11
207.74797130376109
 21
147.30682963132861
 31
0.0
  0
LINE
  5
11C3C
  8
0
 10
209.19466730207211
 20
146.90783241391179
 30
0.0
 11
208.11433684080839
 21
147.3138611167669
 31
0.0
  0
LINE
  5
11C3D
  8
0
 10
208.72694965451959
 20
146.89004974067211
 30
0.0
 11
209.19466730207211
 21
146.90783241391179
 31
0.0
  0
LINE
  5
11C3E
  8
0
 10
209.11058377474549
 20
146.7463373541832
 30
0.0
 11
208.72694965451959
 21
146.89004974067211
 31
0.0
  0
LINE
  5
11C3F
  8
0
 10
209.70292635262021
 20
146.7541958540678
 30
0.0
 11
209.11058377474549
 21
146.7463373541832
 31
0.0
  0
LINE
  5
11C40
  8
0
 10
206.36508766561749
 20
148.00565125048161
 30
0.0
 11
209.70292635262021
 21
146.7541958540678
 31
0.0
  0
LINE
  5
11C41
  8
0
 10
206.2404636666179
 20
148.0179651975632
 30
0.0
 11
206.36508766561749
 21
148.00565125048161
 31
0.0
  0
LINE
  5
11C42
  8
0
 10
207.73070365190509
 20
147.45802240073681
 30
0.0
 11
206.2404636666179
 21
148.0179651975632
 31
0.0
  0
POLYLINE
  5
11C43
  8
0
 66
     1
 10
0.0
 20
0.0
 30
0.0
 70
   128
  0
VERTEX
  5
1489F
  8
0
 10
192.51094911247489
 20
148.01306457817549
 30
0.0
  0
VERTEX
  5
148A0
  8
0
 10
194.1428370331414
 20
147.50793570280069
 30
0.0
  0
VERTEX
  5
148A1
  8
0
 10
195.76343365712091
 20
146.921152189374
 30
0.0
  0
SEQEND
  5
148A2
  8
0
  0
LINE
  5
11C44
  8
0
 10
195.76343365712091
 20
146.921152189374
 30
0.0
 11
195.68445825949311
 21
147.4671083837747
 31
0.0
  0
LINE
  5
11C45
  8
0
 10
195.68445825949311
 20
147.4671083837747
 30
0.0
 11
205.90049274265769
 21
147.4671083837747
 31
0.0
  0
LINE
  5
11C46
  8
0
 10
205.90049274265769
 20
147.4671083837747
 30
0.0
 11
207.1582410857082
 21
146.921152189374
 31
0.0
  0
POLYLINE
  5
11C47
  8
0
 66
     1
 10
0.0
 20
0.0
 30
0.0
 70
   128
  0
VERTEX
  5
148A3
  8
0
 10
207.1582410857082
 20
146.921152189374
 30
0.0
  0
VERTEX
  5
148A4
  8
0
 10
206.56580630689859
 20
147.50724652409551
 30
0.0
  0
VERTEX
  5
148A5
  8
0
 10
205.96774913370609
 20
148.01306457817549
 30
0.0
  0
SEQEND
  5
148A6
  8
0
  0
LINE
  5
11C48
  8
0
 10
205.96774913370609
 20
148.01306457817549
 30
0.0
 11
192.51094911247489
 21
148.01306457817549
 31
0.0
  0
LINE
  5
11C49
  8
0
 10
207.9971773922444
 20
147.44348073005679
 30
0.0
 11
208.041607066989
 21
147.4495417773723
 31
0.0
  0
LINE
  5
11C4A
  8
0
 10
208.3808115124703
 20
147.30409154295921
 30
0.0
 11
207.9971773922444
 21
147.44348073005679
 31
0.0
  0
LINE
  5
11C4B
  8
0
 10
208.42566773295411
 20
147.3100333809852
 30
0.0
 11
208.3808115124703
 21
147.30409154295921
 31
0.0
  0
LINE
  5
11C4C
  8
0
 10
209.50393438339239
 20
146.87991881370539
 30
0.0
 11
209.5635613799096
 21
146.89622813463211
 31
0.0
  0
LINE
  5
11C4D
  8
0
 10
209.8875685036183
 20
146.7407512813806
 30
0.0
 11
209.50393438339239
 21
146.87991881370539
 31
0.0
  0
LINE
  5
11C4E
  8
0
 10
209.94742274284371
 20
146.74633176624769
 30
0.0
 11
209.8875685036183
 21
146.7407512813806
 31
0.0
  0
LINE
  5
11C51
  8
0
 10
186.5870148316026
 20
146.70413354039189
 30
0.0
 11
186.16429217159751
 21
146.71372057497501
 31
0.0
  0
LINE
  5
11C52
  8
0
 10
188.80339864641431
 20
148.01949256658551
 30
0.0
 11
186.5870148316026
 21
146.70413354039189
 31
0.0
  0
LINE
  5
11C53
  8
0
 10
188.4532991237939
 20
148.03056226670739
 30
0.0
 11
188.80339864641431
 21
148.01949256658551
 31
0.0
  0
LINE
  5
11C54
  8
0
 10
186.7877567559481
 20
147.0403093248606
 30
0.0
 11
188.4532991237939
 21
148.03056226670739
 31
0.0
  0
LINE
  5
11C55
  8
0
 10
186.77336875349289
 20
147.04052352905271
 30
0.0
 11
186.7877567559481
 21
147.0403093248606
 31
0.0
  0
LINE
  5
11C56
  8
0
 10
187.68184645101431
 20
148.03294458985329
 30
0.0
 11
186.77336875349289
 21
147.04052352905271
 31
0.0
  0
LINE
  5
11C57
  8
0
 10
187.27419631555679
 20
148.0220648795366
 30
0.0
 11
187.68184645101431
 21
148.03294458985329
 31
0.0
  0
LINE
  5
11C58
  8
0
 10
185.0578129664064
 20
146.70609490573409
 30
0.0
 11
187.27419631555679
 21
148.0220648795366
 31
0.0
  0
LINE
  5
11C59
  8
0
 10
185.4079120233655
 20
146.71358832716939
 30
0.0
 11
185.0578129664064
 21
146.70609490573409
 31
0.0
  0
LINE
  5
11C5A
  8
0
 10
187.0485857501626
 20
147.68960507214069
 30
0.0
 11
185.4079120233655
 21
146.71358832716939
 31
0.0
  0
LINE
  5
11C5B
  8
0
 10
186.16429217159751
 20
146.71372057497501
 30
0.0
 11
187.0485857501626
 21
147.68960507214069
 31
0.0
  0
LINE
  5
11C5D
  8
0
 10
195.68445825949311
 20
147.4564670920372
 30
0.0
 11
195.76343365712091
 21
146.91051089763641
 31
0.0
  0
LINE
  5
11C5F
  8
0
 10
195.68445825949311
 20
147.4564670920372
 30
0.0
 11
195.68445825949311
 21
147.4671083837747
 31
0.0
  0
ARC
  5
11C6A
  8
0
 10
189.3851434310333
 20
148.37489445562031
 30
0.0
 40
1.539349667004374
 50
270.6247122956392
 51
285.92551795096512
  0
ARC
  5
11C6D
  8
0
 10
189.3777619487449
 20
147.34080820126829
 30
0.0
 40
0.5057495576439266
 50
241.89688889357259
 51
272.7386811107479
  0
POLYLINE
  5
11C6E
  8
0
 66
     1
 10
0.0
 20
0.0
 30
0.0
 70
   128
  0
VERTEX
  5
148A7
  8
0
 10
189.40192706882959
 20
147.35628844797611
 30
0.0
  0
VERTEX
  5
148A8
  8
0
 10
189.18801438063389
 20
147.12456049025059
 30
0.0
  0
VERTEX
  5
148A9
  8
0
 10
189.11776751279831
 20
147.0074951052666
 30
0.0
  0
VERTEX
  5
148AA
  8
0
 10
189.1131351143122
 20
146.9239629209041
 30
0.0
  0
VERTEX
  5
148AB
  8
0
 10
189.13952367380259
 20
146.89468586444849
 30
0.0
  0
SEQEND
  5
148AC
  8
0
  0
ARC
  5
11C6F
  8
0
 10
190.77423644540329
 20
146.06635885010601
 30
0.0
 40
1.8833882744919139
 50
110.46204736600789
 51
136.77238333862499
  0
ARC
  5
11C70
  8
0
 10
190.5404265875197
 20
146.43288822055769
 30
0.0
 40
1.4610804483938811
 50
91.39014658222635
 51
106.8942062143043
  0
ARC
  5
11C71
  8
0
 10
190.53360857005231
 20
147.36936922433549
 30
0.0
 40
0.5249506139744832
 50
61.533104016916489
 51
93.126174512975894
  0
POLYLINE
  5
11C72
  8
0
 66
     1
 10
0.0
 20
0.0
 30
0.0
 70
   128
  0
VERTEX
  5
148AD
  8
0
 10
190.51525754854089
 20
147.35632756352419
 30
0.0
  0
VERTEX
  5
148AE
  8
0
 10
190.73294814676049
 20
147.59258361160749
 30
0.0
  0
VERTEX
  5
148AF
  8
0
 10
190.80449467524889
 20
147.71293842792511
 30
0.0
  0
VERTEX
  5
148B0
  8
0
 10
190.8107852935791
 20
147.79872068762779
 30
0.0
  0
VERTEX
  5
148B1
  8
0
 10
190.78382676467299
 20
147.83084945380691
 30
0.0
  0
SEQEND
  5
148B2
  8
0
  0
ARC
  5
11C73
  8
0
 10
189.19106774199579
 20
148.6128704466542
 30
0.0
 40
1.8254803918154581
 50
289.73645081851811
 51
316.50150997961538
  0
LINE
  5
11C82
  8
0
 10
204.00000423192981
 20
130.69459417462349
 30
0.0
 11
186.00000500679019
 21
130.69459417462349
 31
0.0
  0
LINE
  5
11C83
  8
0
 10
186.00000500679019
 20
126.541004223749
 30
0.0
 11
204.00000423192981
 21
126.541004223749
 31
0.0
  0
LINE
  5
11C84
  8
0
 10
203.80000457167631
 20
131.04100426286459
 30
0.0
 11
186.20000466704369
 21
131.04100426286459
 31
0.0
  0
LINE
  5
11C85
  8
0
 10
203.00000499933961
 20
125.54100423445919
 30
0.0
 11
187.00000423938039
 21
125.54100423445919
 31
0.0
  0
ARC
  5
11C8F
  8
0
 10
204.50550895131491
 20
162.85731409818541
 30
0.0
 40
0.468903609382638
 50
276.02795520152819
 51
7.3339353353632832
  0
ARC
  5
11C90
  8
0
 10
185.49450028740509
 20
162.85731409818541
 30
0.0
 40
0.468903609382638
 50
172.66606466463671
 51
263.97204479847181
  0
LINE
  5
11C91
  8
0
 10
204.37322430312639
 20
176.60381639003751
 30
0.0
 11
185.62678493559361
 21
176.60381639003751
 31
0.0
  0
LINE
  5
11C92
  8
0
 10
204.97057646512991
 20
162.91717061400411
 30
0.0
 11
204.37322430312639
 21
176.60381639003751
 31
0.0
  0
LINE
  5
11C93
  8
0
 10
185.62678493559361
 20
176.60381639003751
 30
0.0
 11
185.02943277359009
 21
162.91717061400411
 31
0.0
  0
POLYLINE
  5
11C9F
  8
0
 66
     1
 10
0.0
 20
0.0
 30
0.0
 70
   128
  0
VERTEX
  5
148B3
  8
0
 10
207.43798244744539
 20
162.91717061400411
 30
0.0
  0
VERTEX
  5
148B4
  8
0
 10
207.43628371506929
 20
162.8160215318203
 30
0.0
  0
VERTEX
  5
148B5
  8
0
 10
207.42764756083491
 20
162.71794581413269
 30
0.0
  0
VERTEX
  5
148B6
  8
0
 10
207.4124297499657
 20
162.6269704997539
 30
0.0
  0
VERTEX
  5
148B7
  8
0
 10
207.39125333726409
 20
162.54682832956311
 30
0.0
  0
VERTEX
  5
148B8
  8
0
 10
207.36498910933739
 20
162.4808050096035
 30
0.0
  0
VERTEX
  5
148B9
  8
0
 10
207.33471274375921
 20
162.43160882592201
 30
0.0
  0
VERTEX
  5
148BA
  8
0
 10
207.3016666248441
 20
162.40125888586039
 30
0.0
  0
VERTEX
  5
148BB
  8
0
 10
207.26720675826081
 20
162.39100316166881
 30
0.0
  0
SEQEND
  5
148BC
  8
0
  0
POLYLINE
  5
11CA1
  8
0
 66
     1
 10
0.0
 20
0.0
 30
0.0
 70
   128
  0
VERTEX
  5
148BD
  8
0
 10
182.5620267912746
 20
162.91717061400411
 30
0.0
  0
VERTEX
  5
148BE
  8
0
 10
182.5637255236507
 20
162.8160215318203
 30
0.0
  0
VERTEX
  5
148BF
  8
0
 10
182.57236167788511
 20
162.71794581413269
 30
0.0
  0
VERTEX
  5
148C0
  8
0
 10
182.5875794887543
 20
162.6269704997539
 30
0.0
  0
VERTEX
  5
148C1
  8
0
 10
182.60875590145591
 20
162.54682832956311
 30
0.0
  0
VERTEX
  5
148C2
  8
0
 10
182.63502012938261
 20
162.4808050096035
 30
0.0
  0
VERTEX
  5
148C3
  8
0
 10
182.66529649496081
 20
162.43160882592201
 30
0.0
  0
VERTEX
  5
148C4
  8
0
 10
182.69834261387589
 20
162.40125888586039
 30
0.0
  0
VERTEX
  5
148C5
  8
0
 10
182.73280248045921
 20
162.39100316166881
 30
0.0
  0
SEQEND
  5
148C6
  8
0
  0
ARC
  5
11CA2
  8
0
 10
203.40007235096169
 20
166.98031744195339
 30
0.0
 40
9.6725775636992335
 50
66.830583374180094
 51
84.225738116992076
  0
LINE
  5
11CA3
  8
0
 10
207.2057599574328
 20
175.8727579712868
 30
0.0
 11
207.43798244744539
 21
162.91717061400411
 31
0.0
  0
ARC
  5
11CA4
  8
0
 10
186.52080502390419
 20
167.28691924012639
 30
0.0
 40
9.3596925387709664
 50
95.481140613172926
 51
113.46253789565441
  0
LINE
  5
11CA5
  8
0
 10
182.5620267912746
 20
162.91717061400411
 30
0.0
 11
182.79424928128719
 21
175.8727579712868
 31
0.0
  0
POLYLINE
  5
11CA9
  8
0
 66
     1
 10
0.0
 20
0.0
 30
0.0
 70
   128
  0
VERTEX
  5
148C7
  8
0
 10
214.27345521748069
 20
162.91717061400411
 30
0.0
  0
VERTEX
  5
148C8
  8
0
 10
214.2717546224595
 20
162.8160215318203
 30
0.0
  0
VERTEX
  5
148C9
  8
0
 10
214.26311939954761
 20
162.71794581413269
 30
0.0
  0
VERTEX
  5
148CA
  8
0
 10
214.24790158867839
 20
162.6269704997539
 30
0.0
  0
VERTEX
  5
148CB
  8
0
 10
214.22672517597681
 20
162.54682832956311
 30
0.0
  0
VERTEX
  5
148CC
  8
0
 10
214.2004600167275
 20
162.4808050096035
 30
0.0
  0
VERTEX
  5
148CD
  8
0
 10
214.1701845824719
 20
162.43160882592201
 30
0.0
  0
VERTEX
  5
148CE
  8
0
 10
214.1371393948794
 20
162.40125888586039
 30
0.0
  0
VERTEX
  5
148CF
  8
0
 10
214.1026785969735
 20
162.39100316166881
 30
0.0
  0
SEQEND
  5
148D0
  8
0
  0
POLYLINE
  5
11CAB
  8
0
 66
     1
 10
0.0
 20
0.0
 30
0.0
 70
   128
  0
VERTEX
  5
148D1
  8
0
 10
175.72655402123931
 20
162.91717061400411
 30
0.0
  0
VERTEX
  5
148D2
  8
0
 10
175.7282546162605
 20
162.8160215318203
 30
0.0
  0
VERTEX
  5
148D3
  8
0
 10
175.73688983917239
 20
162.71794581413269
 30
0.0
  0
VERTEX
  5
148D4
  8
0
 10
175.75210765004161
 20
162.6269704997539
 30
0.0
  0
VERTEX
  5
148D5
  8
0
 10
175.77328406274319
 20
162.54682832956311
 30
0.0
  0
VERTEX
  5
148D6
  8
0
 10
175.79954922199249
 20
162.4808050096035
 30
0.0
  0
VERTEX
  5
148D7
  8
0
 10
175.82982465624809
 20
162.43160882592201
 30
0.0
  0
VERTEX
  5
148D8
  8
0
 10
175.8628698438406
 20
162.40125888586039
 30
0.0
  0
VERTEX
  5
148D9
  8
0
 10
175.89733064174649
 20
162.39100316166881
 30
0.0
  0
SEQEND
  5
148DA
  8
0
  0
POLYLINE
  5
11CAC
  8
0
 66
     1
 10
0.0
 20
0.0
 30
0.0
 70
   128
  0
VERTEX
  5
148DB
  8
0
 10
213.09901461005219
 20
173.86180901527399
 30
0.0
  0
VERTEX
  5
148DC
  8
0
 10
210.15926975756889
 20
174.89029461145401
 30
0.0
  0
VERTEX
  5
148DD
  8
0
 10
207.2057599574328
 20
175.8727579712868
 30
0.0
  0
SEQEND
  5
148DE
  8
0
  0
ARC
  5
11CAD
  8
0
 10
212.77183888251329
 20
172.92030675942911
 30
0.0
 40
0.9967298803847752
 50
3.1140229976340761
 51
70.837460085507473
  0
LINE
  5
11CAE
  8
0
 10
214.27345521748069
 20
162.91717061400411
 30
0.0
 11
213.7670969963074
 21
172.97445231676099
 31
0.0
  0
ARC
  5
11CAF
  8
0
 10
177.22993330895881
 20
172.9189794491339
 30
0.0
 40
0.9985630907356872
 50
109.23309111895119
 51
176.81542579790741
  0
POLYLINE
  5
11CB0
  8
0
 66
     1
 10
0.0
 20
0.0
 30
0.0
 70
   128
  0
VERTEX
  5
148DF
  8
0
 10
182.79424928128719
 20
175.8727579712868
 30
0.0
  0
VERTEX
  5
148E0
  8
0
 10
179.84141189605
 20
174.89052557945249
 30
0.0
  0
VERTEX
  5
148E1
  8
0
 10
176.90099462866789
 20
173.86180901527399
 30
0.0
  0
SEQEND
  5
148E2
  8
0
  0
LINE
  5
11CB1
  8
0
 10
176.2329122424126
 20
172.97445231676099
 30
0.0
 11
175.72655402123931
 21
162.91717061400411
 31
0.0
  0
LINE
  5
11CC3
  8
0
 10
178.65798495709899
 20
146.25071169435981
 30
0.0
 11
211.34202428162101
 21
146.25071169435981
 31
0.0
  0
LINE
  5
11CC9
  8
0
 10
185.5000049248338
 20
149.021087154746
 30
0.0
 11
204.50000431388619
 21
149.021087154746
 31
0.0
  0
LINE
  5
11CCA
  8
0
 10
203.80000457167631
 20
133.64100450277331
 30
0.0
 11
186.20000466704369
 21
133.64100450277331
 31
0.0
  0
LINE
  5
11CDB
  8
0
 10
128.8007499370724
 20
244.1646811186306
 30
0.0
 11
126.3128415867686
 21
237.32920834859539
 31
0.0
  0
ARC
  5
11CDC
  8
0
 10
131.00000277161601
 20
224.89099582722119
 30
0.0
 40
19.973109937359538
 50
86.191717272944274
 51
90.0
  0
ARC
  5
11CDD
  8
0
 10
131.00000277161601
 20
224.89099582722119
 30
0.0
 40
19.973109937359538
 50
90.0
 51
93.808282727055683
  0
LINE
  5
11CDE
  8
0
 10
135.68716395646339
 20
237.32920834859539
 30
0.0
 11
133.1992556061596
 21
244.1646811186306
 31
0.0
  0
ARC
  5
11CDF
  8
0
 10
140.41089550386661
 20
239.04850613031019
 30
0.0
 40
5.0268900626404909
 50
200.0
 51
236.38690322720029
  0
ARC
  5
11CE0
  8
0
 10
121.58911003936549
 20
239.04850613031019
 30
0.0
 40
5.0268900626404651
 50
303.61309677279962
 51
339.99999999999989
  0
ARC
  5
11CE1
  8
0
 10
131.00000277161601
 20
224.89099582722119
 30
0.0
 40
11.97310993735953
 50
303.61309677279962
 51
56.386903227200371
  0
ARC
  5
11CE2
  8
0
 10
131.00000277161601
 20
224.89099582722119
 30
0.0
 40
11.97310993735953
 50
123.61309677279959
 51
236.38690322720029
  0
ARC
  5
11CE3
  8
0
 10
121.58911003936549
 20
210.73348552413211
 30
0.0
 40
5.0268900626404838
 50
20.000000000000028
 51
56.386903227200371
  0
ARC
  5
11CE4
  8
0
 10
140.41089550386661
 20
210.73348552413211
 30
0.0
 40
5.0268900626405113
 50
123.61309677279959
 51
159.99999999999989
  0
LINE
  5
11CE5
  8
0
 10
126.3128415867686
 20
212.45278330584691
 30
0.0
 11
128.8007499370724
 21
205.6173105358117
 31
0.0
  0
LINE
  5
11CE6
  8
0
 10
133.1992556061596
 20
205.6173105358117
 30
0.0
 11
135.68716395646339
 21
212.45278330584691
 31
0.0
  0
ARC
  5
11CE7
  8
0
 10
131.00000277161601
 20
224.89099582722119
 30
0.0
 40
19.97310993735951
 50
266.1917172729473
 51
273.8082827270556
  0
CIRCLE
  5
11CE8
  8
0
 10
131.0000027716161
 20
224.89099582722119
 30
0.0
 40
3.000000000000028
  0
LINE
  5
11CE9
  8
0
 10
131.5773530350998
 20
223.89099577972371
 30
0.0
 11
132.1547032985836
 21
224.89099582722119
 31
0.0
  0
LINE
  5
11CEA
  8
0
 10
132.1547032985836
 20
224.89099582722119
 30
0.0
 11
131.5773530350998
 21
225.89099587471861
 31
0.0
  0
LINE
  5
11CEB
  8
0
 10
131.5773530350998
 20
225.89099587471861
 30
0.0
 11
130.42265250813219
 21
225.89099587471861
 31
0.0
  0
LINE
  5
11CEC
  8
0
 10
130.42265250813219
 20
225.89099587471861
 30
0.0
 11
129.84530224464839
 21
224.89099582722119
 31
0.0
  0
LINE
  5
11CED
  8
0
 10
129.84530224464839
 20
224.89099582722119
 30
0.0
 11
130.42265250813219
 21
223.89099577972371
 31
0.0
  0
LINE
  5
11CEE
  8
0
 10
130.42265250813219
 20
223.89099577972371
 30
0.0
 11
131.5773530350998
 21
223.89099577972371
 31
0.0
  0
CIRCLE
  5
11CF5
  8
0
 10
131.00000277161601
 20
224.89099582722119
 30
0.0
 40
3.5
  0
ARC
  5
11CF6
  8
0
 10
129.74255676579679
 20
243.82026940329351
 30
0.0
 40
1.0021206079840099
 50
93.955666474156814
 51
159.9128724975624
  0
ARC
  5
11CF7
  8
0
 10
132.25744535700051
 20
243.82026485337261
 30
0.0
 40
1.002125383027721
 50
20.087304651852449
 51
86.044156376426358
  0
ARC
  5
11CF8
  8
0
 10
132.2574487774354
 20
205.9617222511485
 30
0.0
 40
1.002120607983656
 50
273.95566647414671
 51
339.9128724975763
  0
ARC
  5
11CF9
  8
0
 10
129.74256018623149
 20
205.9617268010696
 30
0.0
 40
1.002125383027588
 50
200.087304651849
 51
266.04415637649311
  0
LINE
  5
11CFA
  8
0
 10
128.8007499370724
 20
244.1646811186306
 30
0.0
 11
128.8013937138021
 21
244.16444642534179
 31
0.0
  0
LINE
  5
11CFB
  8
0
 10
133.19861182942989
 20
205.6175452291005
 30
0.0
 11
133.1992556061596
 21
205.6173105358117
 31
0.0
  0
LINE
  5
11CFC
  8
0
 10
133.19861182942989
 20
244.16444642534179
 30
0.0
 11
133.1992556061596
 21
244.1646811186306
 31
0.0
  0
LINE
  5
11CFD
  8
0
 10
128.8007499370724
 20
205.6173105358117
 30
0.0
 11
128.8013937138021
 21
205.6175452291005
 31
0.0
  0
ARC
  5
11D02
  8
0
 10
142.62531751723881
 20
218.96536415228911
 30
0.0
 40
2.120051973832211
 50
59.93592066603113
 51
98.095645514712245
  0
ARC
  5
11D03
  8
0
 10
143.44079852801329
 20
220.94856265719221
 30
0.0
 40
2.1177811467313039
 50
217.49293220522901
 51
255.421022541837
  0
ARC
  5
11D04
  8
0
 10
143.97671124828349
 20
220.8229572725177
 30
0.0
 40
2.20101356582202
 50
240.94296024661929
 51
283.77090341516032
  0
ARC
  5
11D05
  8
0
 10
144.17553229034431
 20
219.45247757758659
 30
0.0
 40
0.8333027125274078
 50
292.9635146039999
 51
339.40232692079331
  0
ARC
  5
11D06
  8
0
 10
144.18599945964149
 20
219.51424889978861
 30
0.0
 40
0.8474708402085887
 50
335.24044638544802
 51
22.07884527122928
  0
ARC
  5
11D07
  8
0
 10
143.09640914493141
 20
218.6801304946602
 30
0.0
 40
2.2008963951220819
 50
31.58254514011443
 51
74.423718191688067
  0
LINE
  5
11D08
  8
0
 10
135.9301669709385
 20
238.61794086238069
 30
0.0
 11
135.14353374019271
 21
238.82282065292529
 31
0.0
  0
LINE
  5
11D09
  8
0
 10
136.03001639246941
 20
239.00157498260671
 30
0.0
 11
135.9301669709385
 21
238.61794086238069
 31
0.0
  0
LINE
  5
11D0A
  8
0
 10
134.97888242825869
 20
239.27519569238351
 30
0.0
 11
136.03001639246941
 21
239.00157498260671
 31
0.0
  0
POLYLINE
  5
11D0B
  8
0
 66
     1
 10
0.0
 20
0.0
 30
0.0
 70
   128
  0
VERTEX
  5
148E3
  8
0
 10
142.8086319193244
 20
222.98316558422229
 30
0.0
  0
VERTEX
  5
148E4
  8
0
 10
143.85929509997371
 20
224.0338282410026
 30
0.0
  0
VERTEX
  5
148E5
  8
0
 10
145.47989137470719
 20
225.6544248649821
 30
0.0
  0
SEQEND
  5
148E6
  8
0
  0
LINE
  5
11D0C
  8
0
 10
145.47989137470719
 20
225.6544248649821
 30
0.0
 11
143.98197170346981
 21
225.5754494673543
 31
0.0
  0
ARC
  5
11D0D
  8
0
 10
131.00000277161601
 20
224.89099582722119
 30
0.0
 40
13.0
 50
3.0180341906551358
 51
56.981965809343471
  0
LINE
  5
11D0E
  8
0
 10
138.08374145999551
 20
235.7914839505188
 30
0.0
 11
138.90109576284891
 21
237.0492322935693
 31
0.0
  0
POLYLINE
  5
11D0F
  8
0
 66
     1
 10
0.0
 20
0.0
 30
0.0
 70
   128
  0
VERTEX
  5
148E7
  8
0
 10
138.90109576284891
 20
237.0492322935693
 30
0.0
  0
VERTEX
  5
148E8
  8
0
 10
136.69009732082489
 20
236.45679751475981
 30
0.0
  0
VERTEX
  5
148E9
  8
0
 10
136.20126239955431
 20
236.32581444522069
 30
0.0
  0
SEQEND
  5
148EA
  8
0
  0
LINE
  5
11D10
  8
0
 10
126.7835972085595
 20
238.78998966952491
 30
0.0
 11
126.90046003088359
 21
238.94367745211051
 31
0.0
  0
ARC
  5
11D11
  8
0
 10
128.00168532514749
 20
238.00002451265769
 30
0.0
 40
1.45182079088199
 50
147.0354318558685
 51
180.7597500927132
  0
LINE
  5
11D12
  8
0
 10
143.53469379246241
 20
216.47800603946379
 30
0.0
 11
143.20788897573951
 21
216.0552833794587
 31
0.0
  0
LINE
  5
11D13
  8
0
 10
141.03219371289021
 20
218.41197326844261
 30
0.0
 11
143.53469379246241
 21
216.47800603946379
 31
0.0
  0
LINE
  5
11D14
  8
0
 10
142.55085207521921
 20
216.67874796380929
 30
0.0
 11
140.80285273492339
 21
218.02990470146469
 31
0.0
  0
LINE
  5
11D15
  8
0
 10
142.53989040851599
 20
216.66435996135399
 30
0.0
 11
142.55085207521921
 21
216.67874796380929
 31
0.0
  0
LINE
  5
11D16
  8
0
 10
140.30125543475151
 20
217.40665338998369
 30
0.0
 11
142.53989040851599
 21
216.66435996135399
 31
0.0
  0
LINE
  5
11D17
  8
0
 10
142.35285103321081
 20
214.94880417426751
 30
0.0
 11
139.8572660237551
 21
216.87742700865201
 31
0.0
  0
LINE
  5
11D18
  8
0
 10
142.62347567826509
 20
215.29890323122669
 30
0.0
 11
142.35285103321081
 21
214.94880417426751
 31
0.0
  0
LINE
  5
11D19
  8
0
 10
140.5002511292696
 20
216.93957695802379
 30
0.0
 11
142.62347567826509
 21
215.29890323122669
 31
0.0
  0
LINE
  5
11D1A
  8
0
 10
143.20788897573951
 20
216.0552833794587
 30
0.0
 11
140.5002511292696
 21
216.93957695802379
 31
0.0
  0
ARC
  5
11D1B
  8
0
 10
144.18476381613101
 20
219.4923324712621
 30
0.0
 40
0.4879726746382324
 50
288.84417485881693
 51
335.87940659887562
  0
ARC
  5
11D1C
  8
0
 10
144.06050396561861
 20
220.88198784714811
 30
0.0
 40
1.8728065632024109
 50
238.04850098661191
 51
278.65638066287931
  0
ARC
  5
11D1D
  8
0
 10
143.6478573050797
 20
221.40710639323379
 30
0.0
 40
2.191891831792919
 50
219.70599879950811
 51
254.69827539322199
  0
ARC
  5
11D1E
  8
0
 10
142.51495901869691
 20
218.783860459463
 30
0.0
 40
1.911479614559553
 50
58.07710391793109
 51
98.4033612724524
  0
ARC
  5
11D1F
  8
0
 10
142.90137345919001
 20
218.2497169676993
 30
0.0
 40
2.245088225107061
 50
40.18952795971552
 51
73.853850402807524
  0
ARC
  5
11D20
  8
0
 10
144.1531822551342
 20
219.47983395293889
 30
0.0
 40
0.5122664474114688
 50
338.59981473648861
 51
25.270056985972499
  0
ARC
  5
11D21
  8
0
 10
131.00000277161601
 20
224.89099582722119
 30
0.0
 40
17.000000000000011
 50
280.61921205430752
 51
79.380787945692418
  0
ARC
  5
11D22
  8
0
 10
131.00000277161601
 20
224.89099582722119
 30
0.0
 40
17.000000000000011
 50
100.6192120543075
 51
259.38078794569242
  0
CIRCLE
  5
11D36
  8
0
 10
131.00000277161601
 20
224.89099582722119
 30
0.0
 40
9.4118365096457524
  0
LINE
  5
11D84
  8
0
 10
127.8672268800438
 20
50.29114913940429
 30
0.0
 11
128.80074993707251
 21
47.7263147085905
 31
0.0
  0
LINE
  5
11D85
  8
0
 10
133.1992556061596
 20
47.7263147085905
 30
0.0
 11
134.1327786631883
 21
50.29114913940429
 31
0.0
  0
ARC
  5
11D86
  8
0
 10
131.00000277161601
 20
67.0
 30
0.0
 40
19.973109937359521
 50
266.19171727294412
 51
273.8082827270556
  0
LINE
  5
11D87
  8
0
 10
128.80074993707251
 20
86.273685291409507
 30
0.0
 11
127.8672268800438
 21
83.708850860595703
 31
0.0
  0
LINE
  5
11D88
  8
0
 10
134.1327786631883
 20
83.708850860595703
 30
0.0
 11
133.1992556061596
 21
86.273685291409507
 31
0.0
  0
ARC
  5
11D89
  8
0
 10
131.00000277161601
 20
67.0
 30
0.0
 40
19.973109937359521
 50
86.191717272944274
 51
90.0
  0
ARC
  5
11D8A
  8
0
 10
131.00000277161601
 20
67.0
 30
0.0
 40
19.973109937359521
 50
90.0
 51
93.808282727055683
  0
LINE
  5
11D8B
  8
0
 10
139.25000272691261
 20
79.846043333411217
 30
0.0
 11
138.0000029876829
 21
80.567731715738773
 31
0.0
  0
LINE
  5
11D8C
  8
0
 10
136.75000278279191
 20
79.846043333411217
 30
0.0
 11
138.0000029876829
 21
80.567731715738773
 31
0.0
  0
LINE
  5
11D8D
  8
0
 10
136.75000278279191
 20
79.846043333411217
 30
0.0
 11
136.75000278279191
 21
78.402667500078664
 31
0.0
  0
LINE
  5
11D8E
  8
0
 10
136.75000278279191
 20
78.402667500078664
 30
0.0
 11
138.0000029876829
 21
77.680980049073696
 31
0.0
  0
LINE
  5
11D8F
  8
0
 10
139.25000272691261
 20
78.402667500078664
 30
0.0
 11
138.0000029876829
 21
77.680980049073696
 31
0.0
  0
LINE
  5
11D90
  8
0
 10
139.25000272691261
 20
78.402667500078664
 30
0.0
 11
139.25000272691261
 21
79.846043333411217
 31
0.0
  0
CIRCLE
  5
11D91
  8
0
 10
138.0000027716159
 20
79.12435565298216
 30
0.0
 40
2.750000000000016
  0
LINE
  5
11D92
  8
0
 10
115.7500026002527
 20
67.721687858458608
 30
0.0
 11
115.7500026002527
 21
66.278312141541392
 31
0.0
  0
LINE
  5
11D93
  8
0
 10
117.00000233948241
 20
65.556624283082783
 30
0.0
 11
115.7500026002527
 21
66.278312141541392
 31
0.0
  0
LINE
  5
11D94
  8
0
 10
117.00000233948241
 20
65.556624283082783
 30
0.0
 11
118.2500030100346
 21
66.278312141541392
 31
0.0
  0
LINE
  5
11D95
  8
0
 10
118.2500030100346
 20
66.278312141541392
 30
0.0
 11
118.2500030100346
 21
67.721687858458608
 31
0.0
  0
LINE
  5
11D96
  8
0
 10
117.00000233948241
 20
68.443375716917217
 30
0.0
 11
118.2500030100346
 21
67.721687858458608
 31
0.0
  0
LINE
  5
11D97
  8
0
 10
117.00000233948241
 20
68.443375716917217
 30
0.0
 11
115.7500026002527
 21
67.721687858458608
 31
0.0
  0
CIRCLE
  5
11D98
  8
0
 10
117.000002771616
 20
67.0
 30
0.0
 40
2.75
  0
LINE
  5
11D99
  8
0
 10
138.0000029876829
 20
53.43226828426122
 30
0.0
 11
139.25000272691261
 21
54.153956666588783
 31
0.0
  0
LINE
  5
11D9A
  8
0
 10
139.25000272691261
 20
55.597332499921322
 30
0.0
 11
139.25000272691261
 21
54.153956666588783
 31
0.0
  0
LINE
  5
11D9B
  8
0
 10
139.25000272691261
 20
55.597332499921322
 30
0.0
 11
138.0000029876829
 21
56.319019950926297
 31
0.0
  0
LINE
  5
11D9C
  8
0
 10
138.0000029876829
 20
56.319019950926297
 30
0.0
 11
136.75000278279191
 21
55.597332499921322
 31
0.0
  0
LINE
  5
11D9D
  8
0
 10
136.75000278279191
 20
54.153956666588783
 30
0.0
 11
136.75000278279191
 21
55.597332499921322
 31
0.0
  0
LINE
  5
11D9E
  8
0
 10
136.75000278279191
 20
54.153956666588783
 30
0.0
 11
138.0000029876829
 21
53.43226828426122
 31
0.0
  0
CIRCLE
  5
11D9F
  8
0
 10
138.0000027716161
 20
54.875644347017897
 30
0.0
 40
2.750000000000012
  0
ARC
  5
11DA0
  8
0
 10
129.7407792237085
 20
48.069407579392077
 30
0.0
 40
0.9999984330534388
 50
200.0511384407701
 51
266.14062002508223
  0
ARC
  5
11DA1
  8
0
 10
132.2592229147719
 20
48.069412113416433
 30
0.0
 40
1.0000031859674481
 50
273.859557124579
 51
339.94868440957578
  0
ARC
  5
11DA4
  8
0
 10
132.25922631952361
 20
85.930592420607866
 30
0.0
 40
0.9999984330534447
 50
20.051138440766621
 51
86.140620025078974
  0
ARC
  5
11DA5
  8
0
 10
129.74078262846021
 20
85.930587886583524
 30
0.0
 40
1.0000031859674461
 50
93.859557124578984
 51
159.94868440957569
  0
POLYLINE
  5
11DA6
  8
0
 66
     1
 10
0.0
 20
0.0
 30
0.0
 70
   128
  0
VERTEX
  5
148EB
  8
0
 10
134.07721060328191
 20
66.151471885852516
 30
0.0
  0
VERTEX
  5
148EC
  8
0
 10
134.27471385337421
 20
65.953968635760233
 30
0.0
  0
VERTEX
  5
148ED
  8
0
 10
134.41396054811781
 20
65.814721941016614
 30
0.0
  0
VERTEX
  5
148EE
  8
0
 10
134.44449558854109
 20
65.784186784178019
 30
0.0
  0
SEQEND
  5
148EF
  8
0
  0
POLYLINE
  5
11DA7
  8
0
 66
     1
 10
0.0
 20
0.0
 30
0.0
 70
   128
  0
VERTEX
  5
148F0
  8
0
 10
127.555509954691
 20
65.784186784178019
 30
0.0
  0
VERTEX
  5
148F1
  8
0
 10
127.65313421376059
 20
65.881811043247581
 30
0.0
  0
VERTEX
  5
148F2
  8
0
 10
127.80872748233379
 20
66.037404311820865
 30
0.0
  0
VERTEX
  5
148F3
  8
0
 10
127.92279493995019
 20
66.151471885852516
 30
0.0
  0
SEQEND
  5
148F4
  8
0
  0
ARC
  5
11DA8
  8
0
 10
127.074266595571
 20
67.000000141833368
 30
0.0
 40
1.2000002301719661
 50
315.00000298448902
 51
354.01476776278753
  0
ARC
  5
11DA9
  8
0
 10
134.92573927439869
 20
67.000000297627594
 30
0.0
 40
1.200000571373508
 50
185.98523800858021
 51
224.999991244146
  0
POLYLINE
  5
11DAA
  8
0
 66
     1
 10
0.0
 20
0.0
 30
0.0
 70
   128
  0
VERTEX
  5
148F5
  8
0
 10
127.92279493995019
 20
67.848528114147484
 30
0.0
  0
VERTEX
  5
148F6
  8
0
 10
127.7252916898579
 20
68.046031364239752
 30
0.0
  0
VERTEX
  5
148F7
  8
0
 10
127.58604499511431
 20
68.185278058983386
 30
0.0
  0
VERTEX
  5
148F8
  8
0
 10
127.555509954691
 20
68.215813215821981
 30
0.0
  0
SEQEND
  5
148F9
  8
0
  0
POLYLINE
  5
11DAB
  8
0
 66
     1
 10
0.0
 20
0.0
 30
0.0
 70
   128
  0
VERTEX
  5
148FA
  8
0
 10
134.44449558854109
 20
68.215813215821981
 30
0.0
  0
VERTEX
  5
148FB
  8
0
 10
134.3468713294715
 20
68.118188956752419
 30
0.0
  0
VERTEX
  5
148FC
  8
0
 10
134.1912780608983
 20
67.962595688179135
 30
0.0
  0
VERTEX
  5
148FD
  8
0
 10
134.07721060328191
 20
67.848528114147484
 30
0.0
  0
SEQEND
  5
148FE
  8
0
  0
ARC
  5
11DAC
  8
0
 10
134.92573894766099
 20
66.999999858166575
 30
0.0
 40
1.2000002301719459
 50
135.00000298448609
 51
174.01476776278739
  0
ARC
  5
11DAD
  8
0
 10
127.0742662688334
 20
66.999999702372406
 30
0.0
 40
1.200000571373528
 50
5.9852380085802537
 51
44.999991244145427
  0
ARC
  5
11DAE
  8
0
 10
134.92573870290411
 20
67.0
 30
0.0
 40
1.200000000000004
 50
174.01477351360279
 51
185.9852264863971
  0
ARC
  5
11DAF
  8
0
 10
127.07426684032799
 20
67.0
 30
0.0
 40
1.200000000000004
 50
354.0147735136029
 51
5.9852264863971421
  0
LINE
  5
11DB0
  8
0
 10
134.44449558854109
 20
65.784186784178019
 30
0.0
 11
134.71400544047361
 21
65.514677048660815
 31
0.0
  0
LINE
  5
11DB1
  8
0
 10
127.555509954691
 20
65.784186784178019
 30
0.0
 11
127.28600010275851
 21
65.514677048660815
 31
0.0
  0
LINE
  5
11DB2
  8
0
 10
134.71400544047361
 20
68.485322951339185
 30
0.0
 11
134.44449558854109
 21
68.215813215821981
 31
0.0
  0
LINE
  5
11DB3
  8
0
 10
127.28600010275851
 20
68.485322951339185
 30
0.0
 11
127.555509954691
 21
68.215813215821981
 31
0.0
  0
CIRCLE
  5
11DBA
  8
0
 10
131.00000277161601
 20
67.0
 30
0.0
 40
8.0
  0
CIRCLE
  5
11DBB
  8
0
 10
131.00000277161601
 20
67.0
 30
0.0
 40
9.0
  0
CIRCLE
  5
11DBC
  8
0
 10
131.00000277161601
 20
67.0
 30
0.0
 40
4.4999999999999849
  0
CIRCLE
  5
11DBD
  8
0
 10
131.00000277161601
 20
67.0
 30
0.0
 40
3.9999999999999849
  0
CIRCLE
  5
11DC2
  8
0
 10
131.00000277161601
 20
67.0
 30
0.0
 40
17.0
  0
LINE
  5
12AF7
  8
1
 10
131.0000027716161
 20
246.89099582722119
 30
0.0
 11
131.0000027716161
 21
202.8909958272211
 31
0.0
  0
LINE
  5
12AF8
  8
1
 10
109.0000027716162
 20
224.8909958272211
 30
0.0
 11
153.00000277161621
 21
224.8909958272211
 31
0.0
  0
LINE
  5
12B17
  8
1
 10
131.00000277161601
 20
89.0
 30
0.0
 11
131.00000277161601
 21
45.0
 31
0.0
  0
LINE
  5
12B18
  8
1
 10
153.00000277161601
 20
67.0
 30
0.0
 11
109.000002771616
 21
67.0
 31
0.0
  0
CIRCLE
  5
12B19
  8
1
 10
131.00000277161601
 20
67.0
 30
0.0
 40
14.000000000000011
  0
LINE
  5
12B1A
  8
1
 10
135.6250027716159
 20
75.010734985006025
 30
0.0
 11
140.3750027716159
 21
83.23797632095841
 31
0.0
  0
LINE
  5
12B1B
  8
1
 10
135.62500277161601
 20
58.989265014993968
 30
0.0
 11
140.37500277161601
 21
50.762023679041818
 31
0.0
  0
LINE
  5
12B58
  8
1
 10
131.00000253927749
 20
182.89100449085231
 30
0.0
 11
131.00000253927749
 21
120.54100423445919
 31
0.0
  0
LINE
  5
12B59
  8
3
 10
118.22950233948239
 20
130.04100426053631
 30
0.0
 11
118.22950233948239
 21
134.04100382328039
 31
0.0
  0
LINE
  5
12B5A
  8
3
 10
115.77050233948231
 20
130.04100426053631
 30
0.0
 11
115.77050233948231
 21
134.04100382328039
 31
0.0
  0
LINE
  5
12B5B
  8
3
 10
118.2295023394831
 20
130.04100426053611
 30
0.0
 11
118.50000233948229
 21
129.5724845170902
 31
0.0
  0
LINE
  5
12B5C
  8
3
 10
115.7705023394816
 20
130.04100426053611
 30
0.0
 11
115.50000233948229
 21
129.5724845170902
 31
0.0
  0
LINE
  5
12B5D
  8
0
 10
115.50000233948229
 20
130.04100426053611
 30
0.0
 11
118.50000233948229
 21
130.04100426053611
 31
0.0
  0
LINE
  5
12B5E
  8
1
 10
117.00000233948229
 20
136.04100382328039
 30
0.0
 11
117.00000233948229
 21
123.54100423445919
 31
0.0
  0
LINE
  5
12B5F
  8
3
 10
139.22950298768291
 20
130.04100426053631
 30
0.0
 11
139.22950298768291
 21
134.04100382328039
 31
0.0
  0
LINE
  5
12B60
  8
3
 10
136.77050298768279
 20
130.04100426053631
 30
0.0
 11
136.77050298768279
 21
134.04100382328039
 31
0.0
  0
LINE
  5
12B61
  8
3
 10
139.22950298768359
 20
130.04100426053611
 30
0.0
 11
139.5000029876829
 21
129.5724845170902
 31
0.0
  0
LINE
  5
12B62
  8
3
 10
136.77050298768211
 20
130.04100426053611
 30
0.0
 11
136.5000029876829
 21
129.5724845170902
 31
0.0
  0
LINE
  5
12B63
  8
0
 10
136.5000029876829
 20
130.04100426053611
 30
0.0
 11
139.5000029876829
 21
130.04100426053611
 31
0.0
  0
LINE
  5
12B64
  8
1
 10
138.00000298768279
 20
136.04100382328039
 30
0.0
 11
138.00000298768279
 21
123.54100423445919
 31
0.0
  0
LINE
  5
12B65
  8
1
 10
67.000001389533338
 20
182.8910047709943
 30
0.0
 11
67.000001389533338
 21
120.54100423445919
 31
0.0
  0
LINE
  5
12B71
  8
3
 10
56.105145041465732
 20
130.04100426053631
 30
0.0
 11
56.105145041465732
 21
134.04100382328031
 31
0.0
  0
LINE
  5
12B72
  8
3
 10
53.646145041465793
 20
130.04100426053631
 30
0.0
 11
53.646145041465793
 21
134.04100382328031
 31
0.0
  0
LINE
  5
12B73
  8
3
 10
56.105145041466528
 20
130.04100426053611
 30
0.0
 11
56.375645041465809
 21
129.5724845170902
 31
0.0
  0
LINE
  5
12B74
  8
3
 10
53.64614504146499
 20
130.04100426053611
 30
0.0
 11
53.375645041465809
 21
129.5724845170902
 31
0.0
  0
LINE
  5
12B75
  8
0
 10
53.375645041465809
 20
130.04100426053611
 30
0.0
 11
56.375645041465702
 21
130.04100426053611
 31
0.0
  0
LINE
  5
12B76
  8
1
 10
54.875645041465823
 20
134.04100382328031
 30
0.0
 11
54.875645041465823
 21
123.54100423445919
 31
0.0
  0
LINE
  5
12D24
  8
3
 10
68.229500923871967
 20
130.04100426053631
 30
0.0
 11
68.229500923871967
 21
134.04100382328031
 31
0.0
  0
LINE
  5
12D25
  8
3
 10
65.770500923872021
 20
130.04100426053631
 30
0.0
 11
65.770500923872021
 21
134.04100382328031
 31
0.0
  0
LINE
  5
12D26
  8
3
 10
68.229500923872763
 20
130.04100426053611
 30
0.0
 11
68.500000923872051
 21
129.5724845170902
 31
0.0
  0
LINE
  5
12D27
  8
3
 10
65.770500923871225
 20
130.04100426053611
 30
0.0
 11
65.500000923872051
 21
129.5724845170902
 31
0.0
  0
LINE
  5
12D28
  8
0
 10
65.500000923872051
 20
130.04100426053611
 30
0.0
 11
68.500000923871937
 21
130.04100426053611
 31
0.0
  0
LINE
  5
12D2A
  8
3
 10
80.353856806278202
 20
130.04100426053631
 30
0.0
 11
80.353856806278202
 21
134.04100382328031
 31
0.0
  0
LINE
  5
12D2B
  8
3
 10
77.894856806278256
 20
130.04100426053631
 30
0.0
 11
77.894856806278256
 21
134.04100382328031
 31
0.0
  0
LINE
  5
12D2C
  8
3
 10
80.353856806278998
 20
130.04100426053611
 30
0.0
 11
80.624356806278286
 21
129.5724845170902
 31
0.0
  0
LINE
  5
12D2D
  8
3
 10
77.89485680627746
 20
130.04100426053611
 30
0.0
 11
77.624356806278286
 21
129.5724845170902
 31
0.0
  0
LINE
  5
12D2E
  8
0
 10
77.624356806278286
 20
130.04100426053611
 30
0.0
 11
80.624356806278172
 21
130.04100426053611
 31
0.0
  0
LINE
  5
12D2F
  8
1
 10
79.124356806278286
 20
134.04100382328031
 30
0.0
 11
79.124356806278286
 21
123.54100423445919
 31
0.0
  0
LINE
  5
12D3F
  8
3
 10
184.10514873695379
 20
130.04100426053631
 30
0.0
 11
184.10514873695379
 21
134.04100382328039
 31
0.0
  0
LINE
  5
12D40
  8
3
 10
181.64614873695371
 20
130.04100426053631
 30
0.0
 11
181.64614873695371
 21
134.04100382328039
 31
0.0
  0
LINE
  5
12D41
  8
3
 10
184.1051487369545
 20
130.04100426053611
 30
0.0
 11
184.37564873695379
 21
129.5724845170902
 31
0.0
  0
LINE
  5
12D42
  8
3
 10
181.64614873695311
 20
130.04100426053611
 30
0.0
 11
181.37564873695379
 21
129.5724845170902
 31
0.0
  0
LINE
  5
12D43
  8
0
 10
181.37564873695379
 20
130.04100426053611
 30
0.0
 11
184.37564873695379
 21
130.04100426053611
 31
0.0
  0
LINE
  5
12D44
  8
1
 10
182.87564873695379
 20
136.04100382328039
 30
0.0
 11
182.87564873695379
 21
123.54100423445919
 31
0.0
  0
LINE
  5
12D45
  8
3
 10
208.35386050176629
 20
130.04100426053631
 30
0.0
 11
208.35386050176629
 21
134.04100382328039
 31
0.0
  0
LINE
  5
12D46
  8
3
 10
205.8948605017662
 20
130.04100426053631
 30
0.0
 11
205.8948605017662
 21
134.04100382328039
 31
0.0
  0
LINE
  5
12D47
  8
3
 10
208.353860501767
 20
130.04100426053611
 30
0.0
 11
208.62436050176629
 21
129.5724845170902
 31
0.0
  0
LINE
  5
12D48
  8
3
 10
205.89486050176549
 20
130.04100426053611
 30
0.0
 11
205.6243605017662
 21
129.5724845170902
 31
0.0
  0
LINE
  5
12D49
  8
0
 10
205.6243605017662
 20
130.04100426053611
 30
0.0
 11
208.62436050176629
 21
130.04100426053611
 31
0.0
  0
LINE
  5
12D4A
  8
1
 10
207.12436050176629
 20
136.04100382328039
 30
0.0
 11
207.12436050176629
 21
123.54100423445919
 31
0.0
  0
LINE
  5
12D4B
  8
1
 10
195.00000461936
 20
182.89100477099419
 30
0.0
 11
195.00000461936
 21
120.5410045146011
 31
0.0
  0
LINE
  5
13A1B
  8
0
 10
368.67626469582331
 20
165.87187716364861
 30
0.0
 11
367.58285474032169
 21
166.26984620094299
 31
0.0
  0
LINE
  5
13A1C
  8
0
 10
348.41716188937431
 20
166.26984620094299
 30
0.0
 11
347.32375193387281
 21
165.87187716364861
 31
0.0
  0
ARC
  5
13A1D
  8
0
 10
367.41184482449381
 20
165.7999999812414
 30
0.0
 40
0.500000000000012
 50
70.000000000000384
 51
90.0
  0
ARC
  5
13A1E
  8
0
 10
348.58817180520231
 20
165.7999999812414
 30
0.0
 40
0.500000000000012
 50
90.0
 51
110.0
  0
LINE
  5
13A1F
  8
0
 10
376.02389596402651
 20
151.3325161635876
 30
0.0
 11
375.3958995640279
 21
161.3934896290302
 31
0.0
  0
ARC
  5
13A20
  8
0
 10
373.39773075069121
 20
161.3611901500644
 30
0.0
 40
1.998429849389914
 50
0.9260792449154044
 51
60.804548835689069
  0
ARC
  5
13A21
  8
0
 10
375.52495515313223
 20
151.30000004543271
 30
0.0
 40
0.4999992307151718
 50
269.99504985095552
 51
3.7287098081257271
  0
ARC
  5
13A22
  8
0
 10
336.11265239545253
 20
90.370638616449796
 30
0.0
 40
82.18402859137494
 50
62.254871358901873
 51
65.459306373199681
  0
ARC
  5
13A23
  8
0
 10
394.24570808201582
 20
218.02128463911961
 30
0.0
 40
58.080608942420888
 50
243.88076525008529
 51
245.5978007388631
  0
ARC
  5
13A24
  8
0
 10
328.72138494388122
 20
203.44652698971981
 30
0.0
 40
41.927346293107959
 50
293.96643027353758
 51
296.33898045720491
  0
ARC
  5
13A25
  8
0
 10
379.73618792494563
 20
90.781998339308757
 30
0.0
 40
81.75037382129122
 50
114.5635829961147
 51
117.78556594416609
  0
ARC
  5
13A26
  8
0
 10
342.59728784113588
 20
161.36421356911529
 30
0.0
 40
1.9941220365005929
 50
119.1115465408847
 51
179.17325169022089
  0
POLYLINE
  5
13A27
  8
0
 66
     1
 10
0.0
 20
0.0
 30
0.0
 70
   128
  0
VERTEX
  5
148FF
  8
0
 10
340.60340739786631
 20
161.39353060722351
 30
0.0
  0
VERTEX
  5
14900
  8
0
 10
340.33851876854902
 20
157.15600916743281
 30
0.0
  0
VERTEX
  5
14901
  8
0
 10
339.97618213295942
 20
151.33342513442039
 30
0.0
  0
SEQEND
  5
14902
  8
0
  0
ARC
  5
13A28
  8
0
 10
340.4750610812344
 20
151.29999836839599
 30
0.0
 40
0.4999975537127594
 50
176.16669695099191
 51
270.004995467296
  0
LINE
  5
13A29
  8
0
 10
362.00000850483781
 20
121.00476719066501
 30
0.0
 11
362.00000850483781
 21
125.54100423445919
 31
0.0
  0
LINE
  5
13A2A
  8
0
 10
362.00000850483781
 20
116.0000003278255
 30
0.0
 11
362.00000850483781
 21
117.4153717570007
 31
0.0
  0
LINE
  5
13A2B
  8
0
 10
354.0000081248582
 20
117.40729765594
 30
0.0
 11
354.0000081248582
 21
116.0000003278255
 31
0.0
  0
LINE
  5
13A2C
  8
0
 10
354.0000081248582
 20
125.54100423445919
 30
0.0
 11
354.0000081248582
 21
121.00476719066501
 31
0.0
  0
LINE
  5
13A2D
  8
0
 10
361.6527788527311
 20
114.7041217759251
 30
0.0
 11
362.00000850483781
 21
116.0000003278255
 31
0.0
  0
ARC
  5
13A2E
  8
0
 10
360.73514929140578
 20
114.9499999812414
 30
0.0
 40
0.9500000000000342
 50
270.0
 51
345.0000000000021
  0
ARC
  5
13A2F
  8
0
 10
355.2648673382904
 20
114.9499999812414
 30
0.0
 40
0.9500000000000065
 50
195.00000000000111
 51
270.0
  0
LINE
  5
13A30
  8
0
 10
354.0000081248582
 20
116.0000003278255
 30
0.0
 11
354.34723777696502
 21
114.7041217759251
 31
0.0
  0
LINE
  5
13A3E
  8
0
 10
367.5000080093742
 20
149.021087154746
 30
0.0
 11
367.5000080093742
 21
150.80000081658361
 31
0.0
  0
LINE
  5
13A3F
  8
0
 10
348.50000862032181
 20
150.80000081658361
 30
0.0
 11
348.50000862032181
 21
149.021087154746
 31
0.0
  0
LINE
  5
13A56
  8
0
 10
348.58817134052521
 20
166.29999870061869
 30
0.0
 11
367.4107131791942
 21
166.29999870061869
 31
0.0
  0
LINE
  5
13A5C
  8
0
 10
375.52495515313223
 20
150.80000081471761
 30
0.0
 11
340.47510467469698
 21
150.80000081658361
 31
0.0
  0
POLYLINE
  5
13A5D
  8
0
 66
     1
 10
0.0
 20
0.0
 30
0.0
 70
   128
  0
VERTEX
  5
14903
  8
0
 10
361.93923924118292
 20
121.1548947598785
 30
0.0
  0
VERTEX
  5
14904
  8
0
 10
361.95792296901351
 20
121.14927678927781
 30
0.0
  0
VERTEX
  5
14905
  8
0
 10
361.99248667806393
 20
121.06981075927609
 30
0.0
  0
SEQEND
  5
14906
  8
0
  0
LINE
  5
13A5E
  8
0
 10
361.93923924118292
 20
121.1548947598785
 30
0.0
 11
361.75877872854483
 21
121.1548947598785
 31
0.0
  0
LINE
  5
13A5F
  8
0
 10
361.75877872854483
 20
121.1548947598785
 30
0.0
 11
361.75877872854483
 21
121.14673916809259
 31
0.0
  0
POLYLINE
  5
13A60
  8
0
 66
     1
 10
0.0
 20
0.0
 30
0.0
 70
   128
  0
VERTEX
  5
14907
  8
0
 10
361.75877872854483
 20
121.14673916809259
 30
0.0
  0
VERTEX
  5
14908
  8
0
 10
361.71767224557698
 20
121.1411954704672
 30
0.0
  0
VERTEX
  5
14909
  8
0
 10
361.581131508574
 20
121.0619797334075
 30
0.0
  0
SEQEND
  5
1490A
  8
0
  0
ARC
  5
13A61
  8
0
 10
348.7797013221836
 20
152.86129102274009
 30
0.0
 40
34.279335076586683
 50
283.07991056796862
 51
291.9282078947428
  0
LINE
  5
13A62
  8
0
 10
356.5374504961074
 20
119.4713203571737
 30
0.0
 11
356.0000082198531
 21
119.4713203571737
 31
0.0
  0
POLYLINE
  5
13A63
  8
0
 66
     1
 10
0.0
 20
0.0
 30
0.0
 70
   128
  0
VERTEX
  5
1490B
  8
0
 10
354.8566796071828
 20
117.6999997682869
 30
0.0
  0
VERTEX
  5
1490C
  8
0
 10
354.86062282696372
 20
117.85671015828849
 30
0.0
  0
VERTEX
  5
1490D
  8
0
 10
354.96253862045711
 20
118.48562297970059
 30
0.0
  0
VERTEX
  5
1490E
  8
0
 10
355.21090907976043
 20
119.0247884355485
 30
0.0
  0
VERTEX
  5
1490F
  8
0
 10
355.5093460436911
 20
119.3226510062814
 30
0.0
  0
VERTEX
  5
14910
  8
0
 10
355.83405724726617
 20
119.45587250962851
 30
0.0
  0
VERTEX
  5
14911
  8
0
 10
356.0000082198531
 20
119.4713203571737
 30
0.0
  0
SEQEND
  5
14912
  8
0
  0
LINE
  5
13A64
  8
0
 10
354.8566796071828
 20
117.6999997682869
 30
0.0
 11
354.8566796071828
 21
116.0000003278255
 31
0.0
  0
LINE
  5
13A65
  8
0
 10
354.0000081248582
 20
116.0000003278255
 30
0.0
 11
354.8566796071828
 21
116.0000003278255
 31
0.0
  0
POLYLINE
  5
13A66
  8
0
 66
     1
 10
0.0
 20
0.0
 30
0.0
 70
   128
  0
VERTEX
  5
14913
  8
0
 10
354.02561716735369
 20
120.8831550888717
 30
0.0
  0
VERTEX
  5
14914
  8
0
 10
354.07777868211281
 20
120.69791782274839
 30
0.0
  0
VERTEX
  5
14915
  8
0
 10
354.15650477632892
 20
120.37327926233409
 30
0.0
  0
VERTEX
  5
14916
  8
0
 10
354.24079272896063
 20
119.8914921246469
 30
0.0
  0
VERTEX
  5
14917
  8
0
 10
354.28687619976711
 20
119.2749617025256
 30
0.0
  0
VERTEX
  5
14918
  8
0
 10
354.2574834264816
 20
118.6275542117655
 30
0.0
  0
VERTEX
  5
14919
  8
0
 10
354.1644978523255
 20
118.041482694447
 30
0.0
  0
VERTEX
  5
1491A
  8
0
 10
354.05738644301903
 20
117.60245443880559
 30
0.0
  0
VERTEX
  5
1491B
  8
0
 10
354.02731264010077
 20
117.49688250571489
 30
0.0
  0
VERTEX
  5
1491C
  8
0
 10
354.0000081248582
 20
117.40729765594
 30
0.0
  0
VERTEX
  5
1491D
  8
0
 10
354.0000081248582
 20
117.40729765594
 30
0.0
  0
SEQEND
  5
1491E
  8
0
  0
LINE
  5
13A67
  8
0
 10
354.00465868413448
 20
120.9531518965959
 30
0.0
 11
354.02561716735369
 21
120.8831550888717
 31
0.0
  0
LINE
  5
13A68
  8
0
 10
354.00001836940652
 20
121.00476719066501
 30
0.0
 11
354.00465868413448
 21
120.9531518965959
 31
0.0
  0
LINE
  5
13A69
  8
0
 10
357.42933441186329
 20
116.0000003278255
 30
0.0
 11
362.00000850483781
 21
116.0000003278255
 31
0.0
  0
LINE
  5
13A6A
  8
0
 10
357.42933441186329
 20
116.0000003278255
 30
0.0
 11
357.42933441186329
 21
116.1112915128469
 31
0.0
  0
ARC
  5
13A6B
  8
0
 10
353.69158184141219
 20
134.13529428815701
 30
0.0
 40
18.407484084532118
 50
281.71573064482408
 51
296.15222474856711
  0
LINE
  5
13A6C
  8
0
 10
361.9140949286521
 20
117.612254280597
 30
0.0
 11
361.80481912568217
 21
117.612254280597
 31
0.0
  0
POLYLINE
  5
13A6D
  8
0
 66
     1
 10
0.0
 20
0.0
 30
0.0
 70
   128
  0
VERTEX
  5
1491F
  8
0
 10
361.95865452289593
 20
117.54383559897541
 30
0.0
  0
VERTEX
  5
14920
  8
0
 10
361.93564992398029
 20
117.5822419449687
 30
0.0
  0
VERTEX
  5
14921
  8
0
 10
361.9140949286521
 20
117.612254280597
 30
0.0
  0
SEQEND
  5
14922
  8
0
  0
ARC
  5
13A6E
  8
0
 10
367.45791043729417
 20
119.1876033919629
 30
0.0
 40
5.739667949394577
 50
162.81791335302921
 51
196.64178980105211
  0
POLYLINE
  5
13A6F
  8
0
 66
     1
 10
0.0
 20
0.0
 30
0.0
 70
   128
  0
VERTEX
  5
14923
  8
0
 10
362.00000850483781
 20
117.4153717570007
 30
0.0
  0
VERTEX
  5
14924
  8
0
 10
361.98548359796411
 20
117.4525929950178
 30
0.0
  0
VERTEX
  5
14925
  8
0
 10
361.95865452289593
 20
117.54383559897541
 30
0.0
  0
SEQEND
  5
14926
  8
0
  0
LINE
  5
13A70
  8
0
 10
361.99535794556152
 20
120.9531518965959
 30
0.0
 11
361.97439946234232
 21
120.8831550888717
 31
0.0
  0
POLYLINE
  5
13A71
  8
0
 66
     1
 10
0.0
 20
0.0
 30
0.0
 70
   128
  0
VERTEX
  5
14927
  8
0
 10
361.99248667806393
 20
121.06981075927609
 30
0.0
  0
VERTEX
  5
14928
  8
0
 10
362.00000850483781
 20
121.00488034635779
 30
0.0
  0
VERTEX
  5
14929
  8
0
 10
361.99535794556152
 20
120.9531518965959
 30
0.0
  0
SEQEND
  5
1492A
  8
0
  0
LINE
  5
13A72
  8
0
 10
355.01764101907622
 20
121.2999999392778
 30
0.0
 11
355.01764101907622
 21
125.54100423445919
 31
0.0
  0
POLYLINE
  5
13A73
  8
0
 66
     1
 10
0.0
 20
0.0
 30
0.0
 70
   128
  0
VERTEX
  5
1492B
  8
0
 10
357.18270453624427
 20
121.2999999392778
 30
0.0
  0
VERTEX
  5
1492C
  8
0
 10
357.11454126983892
 20
120.8978522904217
 30
0.0
  0
VERTEX
  5
1492D
  8
0
 10
356.92298265174043
 20
120.541287060827
 30
0.0
  0
VERTEX
  5
1492E
  8
0
 10
356.62756573408848
 20
120.25770818442101
 30
0.0
  0
VERTEX
  5
1492F
  8
0
 10
356.26455668360001
 20
120.0862903483212
 30
0.0
  0
VERTEX
  5
14930
  8
0
 10
355.900332722813
 20
120.0554002411663
 30
0.0
  0
VERTEX
  5
14931
  8
0
 10
355.57936171069753
 20
120.15617027506229
 30
0.0
  0
VERTEX
  5
14932
  8
0
 10
355.31569823622709
 20
120.3760443590581
 30
0.0
  0
VERTEX
  5
14933
  8
0
 10
355.12448676861828
 20
120.70629600062961
 30
0.0
  0
VERTEX
  5
14934
  8
0
 10
355.02776077017188
 20
121.1107875555754
 30
0.0
  0
VERTEX
  5
14935
  8
0
 10
355.01764101907622
 20
121.2999999392778
 30
0.0
  0
SEQEND
  5
14936
  8
0
  0
LINE
  5
13A74
  8
0
 10
357.18270453624427
 20
125.54100423445919
 30
0.0
 11
357.18270453624427
 21
121.2999999392778
 31
0.0
  0
LINE
  5
13A76
  8
0
 10
360.86649579927331
 20
120.2506753019988
 30
0.0
 11
361.581131508574
 21
121.0619797334075
 31
0.0
  0
POLYLINE
  5
13A79
  8
0
 66
     1
 10
0.0
 20
0.0
 30
0.0
 70
   128
  0
VERTEX
  5
14937
  8
0
 10
361.80481912568217
 20
117.612254280597
 30
0.0
  0
VERTEX
  5
14938
  8
0
 10
361.37737279757857
 20
118.0673487819731
 30
0.0
  0
VERTEX
  5
14939
  8
0
 10
360.9412768110634
 20
118.5233350247145
 30
0.0
  0
SEQEND
  5
1493A
  8
0
  0
LINE
  5
13A7A
  8
0
 10
357.42933441186329
 20
116.0000003278255
 30
0.0
 11
357.3306869785302
 21
114.7041217759251
 31
0.0
  0
ARC
  5
13A7B
  8
0
 10
355.62655859794728
 20
114.78547931319559
 30
0.0
 40
1.706069338092409
 50
336.93541815817917
 51
357.266692532104
  0
POLYLINE
  5
13A7D
  8
0
 66
     1
 10
0.0
 20
0.0
 30
0.0
 70
   128
  0
VERTEX
  5
1493B
  8
0
 10
356.74223226495093
 20
114.0
 30
0.0
  0
VERTEX
  5
1493C
  8
0
 10
357.01020671520388
 20
114.0101160258055
 30
0.0
  0
VERTEX
  5
1493D
  8
0
 10
357.15409523807472
 20
114.0646468251943
 30
0.0
  0
VERTEX
  5
1493E
  8
0
 10
357.1962513215841
 20
114.1170951873064
 30
0.0
  0
SEQEND
  5
1493F
  8
0
  0
LINE
  5
13A83
  8
0
 10
360.56479780934762
 20
119.38336578756569
 30
0.0
 11
360.5866282433272
 21
119.1309731788933
 31
0.0
  0
POLYLINE
  5
13A84
  8
0
 66
     1
 10
0.0
 20
0.0
 30
0.0
 70
   128
  0
VERTEX
  5
14940
  8
0
 10
360.5866282433272
 20
119.1309731788933
 30
0.0
  0
VERTEX
  5
14941
  8
0
 10
360.74277145788079
 20
118.7750943340361
 30
0.0
  0
VERTEX
  5
14942
  8
0
 10
360.92982945963752
 20
118.5350464060902
 30
0.0
  0
SEQEND
  5
14943
  8
0
  0
LINE
  5
13A85
  8
0
 10
360.9412768110634
 20
118.5233350247145
 30
0.0
 11
360.92982945963752
 21
118.5350464060902
 31
0.0
  0
ARC
  5
13A8A
  8
0
 10
356.40069168466567
 20
115.9325702678304
 30
0.0
 40
1.9365966794083569
 50
249.62869864469189
 51
266.3046770742838
  0
ARC
  5
13A8D
  8
0
 10
356.14023441351071
 20
114.9785761336512
 30
0.0
 40
0.9556558110398981
 50
196.68977277680281
 51
244.35001735241221
  0
LINE
  5
13A8E
  8
0
 10
360.73496050226049
 20
114.0
 30
0.0
 11
355.26486734859651
 21
114.0
 31
0.0
  0
LINE
  5
13A8F
  8
0
 10
355.2248367760331
 20
114.7041217759251
 30
0.0
 11
354.8566796071828
 21
116.0000003278255
 31
0.0
  0
ARC
  5
13AE8
  8
0
 10
346.55023393212048
 20
151.29956255872321
 30
0.0
 40
0.4995620245587726
 50
176.9470928743728
 51
269.93907577306868
  0
POLYLINE
  5
13AEA
  8
0
 66
     1
 10
0.0
 20
0.0
 30
0.0
 70
   128
  0
VERTEX
  5
14944
  8
0
 10
363.09900732710958
 20
150.80000081658361
 30
0.0
  0
VERTEX
  5
14945
  8
0
 10
363.14378485083591
 20
150.8102565407753
 30
0.0
  0
VERTEX
  5
14946
  8
0
 10
363.18672534078371
 20
150.84060461819169
 30
0.0
  0
VERTEX
  5
14947
  8
0
 10
363.22606720030308
 20
150.889798939228
 30
0.0
  0
VERTEX
  5
14948
  8
0
 10
363.26019644737249
 20
150.9558222591877
 30
0.0
  0
VERTEX
  5
14949
  8
0
 10
363.28771330416208
 20
151.0359662920236
 30
0.0
  0
VERTEX
  5
1494A
  8
0
 10
363.30748761072761
 20
151.1269416064024
 30
0.0
  0
VERTEX
  5
1494B
  8
0
 10
363.31870958209038
 20
151.22501732409
 30
0.0
  0
VERTEX
  5
1494C
  8
0
 10
363.32091821357608
 20
151.32616826891899
 30
0.0
  0
SEQEND
  5
1494D
  8
0
  0
LINE
  5
13AEB
  8
0
 10
363.00213394686591
 20
165.01281031966209
 30
0.0
 11
346.76724106073391
 21
165.01281031966209
 31
0.0
  0
LINE
  5
13AEC
  8
0
 10
363.32091821357608
 20
151.32616826891899
 30
0.0
 11
363.00213394686591
 21
165.01281031966209
 31
0.0
  0
LINE
  5
13AED
  8
0
 10
346.76724106073391
 20
165.01281031966209
 30
0.0
 11
346.05138089507818
 21
151.32616826891899
 31
0.0
  0
ARC
  5
13AF0
  8
0
 10
367.26238176794169
 20
151.19337688512351
 30
0.0
 40
0.8445322576035859
 50
170.95346496252191
 51
207.76146791606379
  0
ARC
  5
13AF2
  8
0
 10
374.42601888044578
 20
151.193375316615
 30
0.0
 40
0.8445231041975343
 50
170.9532583339664
 51
207.7616745446239
  0
LINE
  5
13AF3
  8
0
 10
372.66637377440941
 20
162.2708066701889
 30
0.0
 11
366.54625732451677
 21
164.2817556262016
 31
0.0
  0
ARC
  5
13AF4
  8
0
 10
372.37495727631062
 20
161.3482705129835
 30
0.0
 40
0.9674691399293054
 50
2.0838690100251092
 51
72.469389085630297
  0
LINE
  5
13AF5
  8
0
 10
373.59200131148111
 20
151.32616826891899
 30
0.0
 11
373.34178660064941
 21
161.3834499716759
 31
0.0
  0
LINE
  5
13AF6
  8
0
 10
366.54625732451677
 20
164.2817556262016
 30
0.0
 11
366.42835468053818
 21
151.32616826891899
 31
0.0
  0
ARC
  5
13AFA
  8
0
 10
362.60763572696311
 20
154.14388878055109
 30
0.0
 40
10.87607853359188
 50
68.768555400979963
 51
87.921305713134117
  0
ARC
  5
13B09
  8
0
 10
356.285692681596
 20
145.64548231732039
 30
0.0
 40
21.579951696168848
 50
116.1727106781164
 51
120.27768490789239
  0
LINE
  5
13B0B
  8
0
 10
344.88514430820948
 20
151.32616826891899
 30
0.0
 11
345.40526840835821
 21
164.2817556262016
 31
0.0
  0
ARC
  5
13B0D
  8
0
 10
345.33980919068068
 20
151.25457499133751
 30
0.0
 40
0.4602670450373149
 50
171.0514631096797
 51
260.97915983315642
  0
ARC
  5
13B0E
  8
0
 10
341.8819573595693
 20
161.39017619697009
 30
0.0
 40
1.0457502629091471
 50
122.6370323268354
 51
180.368526781556
  0
LINE
  5
13B0F
  8
0
 10
345.40526840835821
 20
164.2817556262016
 30
0.0
 11
341.31796836853027
 21
162.2708066701889
 31
0.0
  0
LINE
  5
13B11
  8
0
 10
340.83622872829437
 20
161.3834499716759
 30
0.0
 11
340.20940579473978
 21
151.32616826891899
 31
0.0
  0
ARC
  5
13B12
  8
0
 10
340.66407133801039
 20
151.25457547170629
 30
0.0
 40
0.4602676230740353
 50
171.0515349749939
 51
260.97908796784242
  0
LINE
  5
13B16
  8
0
 10
360.86649579927331
 20
120.2506753019988
 30
0.0
 11
360.820252140984
 21
120.19817618280651
 31
0.0
  0
ARC
  5
13B1A
  8
0
 10
361.64178690267602
 20
119.4931642380749
 30
0.0
 40
1.0825715712516919
 50
139.3649791384729
 51
185.8211612748336
  0
LINE
  5
13B56
  8
0
 10
304.59853606298572
 20
165.9001670181751
 30
0.0
 11
303.58285335823899
 21
166.26984620094299
 31
0.0
  0
LINE
  5
13B57
  8
0
 10
284.41716050729161
 20
166.26984620094299
 30
0.0
 11
283.40147780254489
 21
165.9001670181751
 31
0.0
  0
POLYLINE
  5
13B58
  8
0
 66
     1
 10
0.0
 20
0.0
 30
0.0
 70
   128
  0
VERTEX
  5
1494E
  8
0
 10
283.02373988553887
 20
161.38866910338399
 30
0.0
  0
VERTEX
  5
1494F
  8
0
 10
282.77944186702371
 20
157.15128922462461
 30
0.0
  0
VERTEX
  5
14950
  8
0
 10
282.4446863494814
 20
151.32906840741629
 30
0.0
  0
SEQEND
  5
14951
  8
0
  0
ARC
  5
13B59
  8
0
 10
282.94336737001959
 20
151.2999999812414
 30
0.0
 40
0.5000000000000089
 50
176.39310528614641
 51
270.00575941097537
  0
ARC
  5
13B5A
  8
0
 10
286.14270646181859
 20
161.3873314350142
 30
0.0
 40
3.1173341036921549
 50
154.82151245839719
 51
179.98308263121589
  0
ARC
  5
13B5B
  8
0
 10
313.30612272815932
 20
146.34415220165971
 30
0.0
 40
34.168074384248669
 50
147.5312786984953
 51
151.36348597761591
  0
ARC
  5
13B5C
  8
0
 10
305.47311687012478
 20
151.2999999812414
 30
0.0
 40
0.5
 50
270.0
 51
2.9999999999990679
  0
LINE
  5
13B5D
  8
0
 10
305.97243150696158
 20
151.32616826891899
 30
0.0
 11
305.25514548644429
 21
165.01281031966209
 31
0.0
  0
ARC
  5
13B5E
  8
0
 10
304.25651550566852
 20
164.96047560626161
 30
0.0
 40
1.0000000000000191
 50
2.9999999999990679
 51
70.000000000000384
  0
ARC
  5
13B5F
  8
0
 10
303.41184344241111
 20
165.7999999812414
 30
0.0
 40
0.5000000000000071
 50
70.000000000003425
 51
90.0
  0
ARC
  5
13B60
  8
0
 10
284.58817042311949
 20
165.7999999812414
 30
0.0
 40
0.5000000000000071
 50
90.0
 51
109.9999999999965
  0
LINE
  5
13B62
  8
0
 10
282.74486837908631
 20
165.01281031966209
 30
0.0
 11
282.02758235856891
 21
151.32616826891899
 31
0.0
  0
ARC
  5
13B63
  8
0
 10
282.52689699540582
 20
151.2999999812414
 30
0.0
 40
0.5
 50
177.00000000000091
 51
270.0
  0
ARC
  5
13B64
  8
0
 10
283.7434983598622
 20
164.96047560626161
 30
0.0
 40
1.0000000000000231
 50
110.0
 51
177.00000000000091
  0
LINE
  5
13B66
  8
0
 10
298.00000665709382
 20
119.8735660277307
 30
0.0
 11
298.00000665709382
 21
125.54100423445919
 31
0.0
  0
LINE
  5
13B67
  8
0
 10
298.00000665709382
 20
116.0000003278255
 30
0.0
 11
298.00000665709382
 21
116.2657494992018
 31
0.0
  0
LINE
  5
13B68
  8
0
 10
290.00000627711421
 20
116.2657494992018
 30
0.0
 11
290.00000627711421
 21
116.0000003278255
 31
0.0
  0
LINE
  5
13B69
  8
0
 10
290.00000627711421
 20
125.54100423445919
 30
0.0
 11
290.00000627711421
 21
119.8735660277307
 31
0.0
  0
LINE
  5
13B6A
  8
0
 10
290.00000627711421
 20
116.0000003278255
 30
0.0
 11
290.34723592922097
 21
114.7041217759251
 31
0.0
  0
ARC
  5
13B6B
  8
0
 10
291.2648654905463
 20
114.9499999812414
 30
0.0
 40
0.9500000000000065
 50
195.00000000000111
 51
270.0
  0
LINE
  5
13B6C
  8
0
 10
291.07589572668081
 20
117.5239160060882
 30
0.0
 11
290.14239828102291
 21
116.55168881267311
 31
0.0
  0
LINE
  5
13B6D
  8
0
 10
290.05437735468149
 20
119.6969588622451
 30
0.0
 11
290.95576186664408
 21
118.78328019380569
 31
0.0
  0
ARC
  5
13B6E
  8
0
 10
290.3700629110503
 20
118.0919968973121
 30
0.0
 40
0.9060440732076388
 50
321.17157652648569
 51
49.726618271562579
  0
ARC
  5
13B70
  8
0
 10
296.73514744366179
 20
114.9499999812414
 30
0.0
 40
0.9500000000000065
 50
270.0
 51
345.0000000000021
  0
ARC
  5
13B71
  8
0
 10
297.55626091698338
 20
118.07692628875211
 30
0.0
 40
0.8398964472702184
 50
145.84039642513869
 51
221.17999740169401
  0
LINE
  5
13B72
  8
0
 10
297.88197921589023
 20
116.526075579226
 30
0.0
 11
296.92411720752722
 21
117.5239160060882
 31
0.0
  0
LINE
  5
13B73
  8
0
 10
297.652777004987
 20
114.7041217759251
 30
0.0
 11
298.00000665709382
 21
116.0000003278255
 31
0.0
  0
LINE
  5
13B80
  8
0
 10
303.50000616163021
 20
149.021087154746
 30
0.0
 11
303.50000616163021
 21
150.80000081658361
 31
0.0
  0
LINE
  5
13B81
  8
0
 10
284.50000677257782
 20
150.80000081658361
 30
0.0
 11
284.50000677257782
 21
149.021087154746
 31
0.0
  0
LINE
  5
13B9C
  8
0
 10
305.47311687842023
 20
150.80000081658361
 30
0.0
 11
282.52689699540582
 21
150.7999999812414
 31
0.0
  0
LINE
  5
13B9E
  8
0
 10
284.58816995844251
 20
166.29999870061869
 30
0.0
 11
303.4118439070881
 21
166.29999870061869
 31
0.0
  0
POLYLINE
  5
13BA0
  8
0
 66
     1
 10
0.0
 20
0.0
 30
0.0
 70
   128
  0
VERTEX
  5
14952
  8
0
 10
297.72303272038698
 20
119.4713203571737
 30
0.0
  0
VERTEX
  5
14953
  8
0
 10
297.9812926612795
 20
119.7703475467861
 30
0.0
  0
VERTEX
  5
14954
  8
0
 10
298.00000665709382
 20
119.8735660277307
 30
0.0
  0
SEQEND
  5
14955
  8
0
  0
LINE
  5
13BA1
  8
0
 10
297.72303272038698
 20
119.4713203571737
 30
0.0
 11
297.46410804800689
 21
119.4713203571737
 31
0.0
  0
POLYLINE
  5
13BA2
  8
0
 66
     1
 10
0.0
 20
0.0
 30
0.0
 70
   128
  0
VERTEX
  5
14956
  8
0
 10
296.47376569919288
 20
117.6999997682869
 30
0.0
  0
VERTEX
  5
14957
  8
0
 10
296.47876806557178
 20
117.85671015828849
 30
0.0
  0
VERTEX
  5
14958
  8
0
 10
296.60265468992299
 20
118.48562297970059
 30
0.0
  0
VERTEX
  5
14959
  8
0
 10
296.86722201295203
 20
119.0247884355485
 30
0.0
  0
VERTEX
  5
1495A
  8
0
 10
297.1299588214606
 20
119.3226510062814
 30
0.0
  0
VERTEX
  5
1495B
  8
0
 10
297.36284092068678
 20
119.45587250962851
 30
0.0
  0
VERTEX
  5
1495C
  8
0
 10
297.46410804800689
 20
119.4713203571737
 30
0.0
  0
SEQEND
  5
1495D
  8
0
  0
LINE
  5
13BA3
  8
0
 10
296.47376569919288
 20
117.6999997682869
 30
0.0
 11
296.47376569919288
 21
116.0000003278255
 31
0.0
  0
LINE
  5
13BA4
  8
0
 10
290.00000627711421
 20
116.0000003278255
 30
0.0
 11
296.47376569919288
 21
116.0000003278255
 31
0.0
  0
POLYLINE
  5
13BA5
  8
0
 66
     1
 10
0.0
 20
0.0
 30
0.0
 70
   128
  0
VERTEX
  5
1495E
  8
0
 10
292.76573932729673
 20
117.612254280597
 30
0.0
  0
VERTEX
  5
1495F
  8
0
 10
291.8266292661429
 20
117.3341804519296
 30
0.0
  0
VERTEX
  5
14960
  8
0
 10
291.03084276430309
 20
117.05179785937069
 30
0.0
  0
VERTEX
  5
14961
  8
0
 10
290.43998285196727
 20
116.7732541784644
 30
0.0
  0
VERTEX
  5
14962
  8
0
 10
290.14239828102291
 20
116.55168881267311
 30
0.0
  0
VERTEX
  5
14963
  8
0
 10
290.00790296122437
 20
116.3334622383118
 30
0.0
  0
VERTEX
  5
14964
  8
0
 10
290.00000627711421
 20
116.2657494992018
 30
0.0
  0
SEQEND
  5
14965
  8
0
  0
LINE
  5
13BA6
  8
0
 10
293.17543080542242
 20
117.612254280597
 30
0.0
 11
292.76573932729673
 21
117.612254280597
 31
0.0
  0
POLYLINE
  5
13BA7
  8
0
 66
     1
 10
0.0
 20
0.0
 30
0.0
 70
   128
  0
VERTEX
  5
14966
  8
0
 10
293.42631682520738
 20
117.54383559897541
 30
0.0
  0
VERTEX
  5
14967
  8
0
 10
293.28535632230353
 20
117.5822419449687
 30
0.0
  0
VERTEX
  5
14968
  8
0
 10
293.17543080542242
 20
117.612254280597
 30
0.0
  0
SEQEND
  5
14969
  8
0
  0
POLYLINE
  5
13BA8
  8
0
 66
     1
 10
0.0
 20
0.0
 30
0.0
 70
   128
  0
VERTEX
  5
1496A
  8
0
 10
294.45190789992921
 20
120.8831550888717
 30
0.0
  0
VERTEX
  5
1496B
  8
0
 10
294.7849353775382
 20
120.69791782274839
 30
0.0
  0
VERTEX
  5
1496C
  8
0
 10
295.10792398359632
 20
120.37327926233409
 30
0.0
  0
VERTEX
  5
1496D
  8
0
 10
295.36686367355293
 20
119.8914921246469
 30
0.0
  0
VERTEX
  5
1496E
  8
0
 10
295.48750452231621
 20
119.2749617025256
 30
0.0
  0
VERTEX
  5
1496F
  8
0
 10
295.41192268952727
 20
118.6275542117655
 30
0.0
  0
VERTEX
  5
14970
  8
0
 10
295.13528635725379
 20
118.041482694447
 30
0.0
  0
VERTEX
  5
14971
  8
0
 10
294.6750852977857
 20
117.60245443880559
 30
0.0
  0
VERTEX
  5
14972
  8
0
 10
294.46658915258018
 20
117.49688250571489
 30
0.0
  0
VERTEX
  5
14973
  8
0
 10
294.07157829409698
 20
117.40729765594
 30
0.0
  0
VERTEX
  5
14974
  8
0
 10
293.6675225035288
 20
117.4503261558711
 30
0.0
  0
VERTEX
  5
14975
  8
0
 10
293.42631682520738
 20
117.54383559897541
 30
0.0
  0
SEQEND
  5
14976
  8
0
  0
LINE
  5
13BA9
  8
0
 10
294.1928281186847
 20
120.9531518965959
 30
0.0
 11
294.45190789992921
 21
120.8831550888717
 31
0.0
  0
POLYLINE
  5
13BAA
  8
0
 66
     1
 10
0.0
 20
0.0
 30
0.0
 70
   128
  0
VERTEX
  5
14977
  8
0
 10
293.75482054892927
 20
121.06981075927609
 30
0.0
  0
VERTEX
  5
14978
  8
0
 10
293.99958221201251
 20
121.00488034635779
 30
0.0
  0
VERTEX
  5
14979
  8
0
 10
294.1928281186847
 20
120.9531518965959
 30
0.0
  0
SEQEND
  5
1497A
  8
0
  0
POLYLINE
  5
13BAB
  8
0
 66
     1
 10
0.0
 20
0.0
 30
0.0
 70
   128
  0
VERTEX
  5
1497B
  8
0
 10
293.30541375093168
 20
121.1548947598785
 30
0.0
  0
VERTEX
  5
1497C
  8
0
 10
293.41739062219858
 20
121.14964815415441
 30
0.0
  0
VERTEX
  5
1497D
  8
0
 10
293.75482054892927
 20
121.06981075927609
 30
0.0
  0
SEQEND
  5
1497E
  8
0
  0
LINE
  5
13BAC
  8
0
 10
293.30541375093168
 20
121.1548947598785
 30
0.0
 11
292.63192585203802
 21
121.1548947598785
 31
0.0
  0
LINE
  5
13BAD
  8
0
 10
292.63192585203802
 20
121.1548947598785
 30
0.0
 11
292.63192585203802
 21
121.14673916809259
 31
0.0
  0
POLYLINE
  5
13BAE
  8
0
 66
     1
 10
0.0
 20
0.0
 30
0.0
 70
   128
  0
VERTEX
  5
1497F
  8
0
 10
292.63192585203802
 20
121.14673916809259
 30
0.0
  0
VERTEX
  5
14980
  8
0
 10
292.44953319430363
 20
121.13088316842909
 30
0.0
  0
VERTEX
  5
14981
  8
0
 10
292.21799708902842
 20
121.0619797334075
 30
0.0
  0
SEQEND
  5
14982
  8
0
  0
POLYLINE
  5
13BAF
  8
0
 66
     1
 10
0.0
 20
0.0
 30
0.0
 70
   128
  0
VERTEX
  5
14983
  8
0
 10
290.05437735468149
 20
119.6955958716571
 30
0.0
  0
VERTEX
  5
14984
  8
0
 10
290.00000627711421
 20
119.8735660277307
 30
0.0
  0
VERTEX
  5
14985
  8
0
 10
290.06432481110102
 20
120.06547296047211
 30
0.0
  0
VERTEX
  5
14986
  8
0
 10
290.40939612314111
 20
120.36211968958381
 30
0.0
  0
VERTEX
  5
14987
  8
0
 10
290.87493028491741
 20
120.59591471776361
 30
0.0
  0
VERTEX
  5
14988
  8
0
 10
291.48701271042228
 20
120.8286769092083
 30
0.0
  0
VERTEX
  5
14989
  8
0
 10
292.21799708902842
 20
121.0619797334075
 30
0.0
  0
SEQEND
  5
1498A
  8
0
  0
POLYLINE
  5
13BB2
  8
0
 66
     1
 10
0.0
 20
0.0
 30
0.0
 70
   128
  0
VERTEX
  5
1498B
  8
0
 10
297.88197921589023
 20
116.526075579226
 30
0.0
  0
VERTEX
  5
1498C
  8
0
 10
298.00000665709382
 20
116.2657494992018
 30
0.0
  0
VERTEX
  5
1498D
  8
0
 10
298.00000665709382
 20
116.2657494992018
 30
0.0
  0
SEQEND
  5
1498E
  8
0
  0
LINE
  5
13BB3
  8
0
 10
296.66561814956373
 20
121.2999999392778
 30
0.0
 11
296.66561814956373
 21
125.54100423445919
 31
0.0
  0
POLYLINE
  5
13BB4
  8
0
 66
     1
 10
0.0
 20
0.0
 30
0.0
 70
   128
  0
VERTEX
  5
1498F
  8
0
 10
297.91561812162399
 20
121.2999999392778
 30
0.0
  0
VERTEX
  5
14990
  8
0
 10
297.90076888166368
 20
120.8978522904217
 30
0.0
  0
VERTEX
  5
14991
  8
0
 10
297.8522805031389
 20
120.541287060827
 30
0.0
  0
VERTEX
  5
14992
  8
0
 10
297.75718641467398
 20
120.25770818442101
 30
0.0
  0
VERTEX
  5
14993
  8
0
 10
297.60392215102911
 20
120.0862903483212
 30
0.0
  0
VERTEX
  5
14994
  8
0
 10
297.4046153947711
 20
120.0554002411663
 30
0.0
  0
VERTEX
  5
14995
  8
0
 10
297.18441697768873
 20
120.15617027506229
 30
0.0
  0
VERTEX
  5
14996
  8
0
 10
296.96555524133151
 20
120.3760443590581
 30
0.0
  0
VERTEX
  5
14997
  8
0
 10
296.78054172545683
 20
120.70629600062961
 30
0.0
  0
VERTEX
  5
14998
  8
0
 10
296.67689716443419
 20
121.1107875555754
 30
0.0
  0
VERTEX
  5
14999
  8
0
 10
296.66561814956373
 20
121.2999999392778
 30
0.0
  0
SEQEND
  5
1499A
  8
0
  0
LINE
  5
13BB5
  8
0
 10
297.91561812162399
 20
125.54100423445919
 30
0.0
 11
297.91561812162399
 21
121.2999999392778
 31
0.0
  0
LINE
  5
13BB6
  8
0
 10
296.37511814944452
 20
114.7041217759251
 30
0.0
 11
296.47376569919288
 21
116.0000003278255
 31
0.0
  0
ARC
  5
13BB9
  8
0
 10
294.86595107219262
 20
114.7408311296539
 30
0.0
 40
1.509613474937316
 50
335.59550185644218
 51
358.60659803753839
  0
POLYLINE
  5
13BBA
  8
0
 66
     1
 10
0.0
 20
0.0
 30
0.0
 70
   128
  0
VERTEX
  5
1499B
  8
0
 10
296.2406824342907
 20
114.1170951873064
 30
0.0
  0
VERTEX
  5
1499C
  8
0
 10
296.19998130947363
 20
114.0276127830148
 30
0.0
  0
VERTEX
  5
1499D
  8
0
 10
296.23282114043838
 20
114.001966021955
 30
0.0
  0
VERTEX
  5
1499E
  8
0
 10
296.30366475321358
 20
114.0
 30
0.0
  0
SEQEND
  5
1499F
  8
0
  0
LINE
  5
13BBB
  8
0
 10
296.73495865465401
 20
114.0
 30
0.0
 11
291.26486550085252
 21
114.0
 31
0.0
  0
POLYLINE
  5
13BD1
  8
0
 66
     1
 10
0.0
 20
0.0
 30
0.0
 70
   128
  0
VERTEX
  5
149A0
  8
0
 10
297.72303272038698
 20
119.4713203571737
 30
0.0
  0
VERTEX
  5
149A1
  8
0
 10
297.29295307770383
 20
119.0159571692347
 30
0.0
  0
VERTEX
  5
149A2
  8
0
 10
296.87135359272361
 20
118.55974554643031
 30
0.0
  0
SEQEND
  5
149A3
  8
0
  0
LINE
  5
13BD2
  8
0
 10
296.87135359272361
 20
118.55974554643031
 30
0.0
 11
296.8612662050873
 21
118.54852823168039
 31
0.0
  0
POLYLINE
  5
13C19
  8
0
 66
     1
 10
0.0
 20
0.0
 30
0.0
 70
   128
  0
VERTEX
  5
149A4
  8
0
 10
285.9463800676167
 20
150.80000081658361
 30
0.0
  0
VERTEX
  5
149A5
  8
0
 10
286.01114237681043
 20
150.8102565407753
 30
0.0
  0
VERTEX
  5
149A6
  8
0
 10
286.0732476226986
 20
150.84060461819169
 30
0.0
  0
VERTEX
  5
149A7
  8
0
 10
286.13014863803988
 20
150.889798939228
 30
0.0
  0
VERTEX
  5
149A8
  8
0
 10
286.1795105971396
 20
150.9558222591877
 30
0.0
  0
VERTEX
  5
149A9
  8
0
 10
286.21930833905941
 20
151.0359662920236
 30
0.0
  0
VERTEX
  5
149AA
  8
0
 10
286.24790878966451
 20
151.1269416064024
 30
0.0
  0
VERTEX
  5
149AB
  8
0
 10
286.26413894817239
 20
151.22501732409
 30
0.0
  0
VERTEX
  5
149AC
  8
0
 10
286.26733338460332
 20
151.32616826891899
 30
0.0
  0
SEQEND
  5
149AD
  8
0
  0
POLYLINE
  5
13C1B
  8
0
 66
     1
 10
0.0
 20
0.0
 30
0.0
 70
   128
  0
VERTEX
  5
149AE
  8
0
 10
291.51870748028159
 20
150.80000081658361
 30
0.0
  0
VERTEX
  5
149AF
  8
0
 10
291.5834700223059
 20
150.8102565407753
 30
0.0
  0
VERTEX
  5
149B0
  8
0
 10
291.64557573385542
 20
150.84060461819169
 30
0.0
  0
VERTEX
  5
149B1
  8
0
 10
291.702476516366
 20
150.889798939228
 30
0.0
  0
VERTEX
  5
149B2
  8
0
 10
291.75183824263519
 20
150.9558222591877
 30
0.0
  0
VERTEX
  5
149B3
  8
0
 10
291.7916357517243
 20
151.0359662920236
 30
0.0
  0
VERTEX
  5
149B4
  8
0
 10
291.8202364351601
 20
151.1269416064024
 30
0.0
  0
VERTEX
  5
149B5
  8
0
 10
291.83646659366792
 20
151.22501732409
 30
0.0
  0
VERTEX
  5
149B6
  8
0
 10
291.83966079726821
 20
151.32616826891899
 30
0.0
  0
SEQEND
  5
149B7
  8
0
  0
ARC
  5
13C1C
  8
0
 10
287.12528829373667
 20
161.44258857941981
 30
0.0
 40
0.9328047667141525
 50
117.3920350707366
 51
183.63491563058071
  0
LINE
  5
13C1D
  8
0
 10
291.40322511084378
 20
164.2817556262016
 30
0.0
 11
286.69612687081099
 21
162.2708066701889
 31
0.0
  0
LINE
  5
13C1E
  8
0
 10
291.83966079726821
 20
151.32616826891899
 30
0.0
 11
291.40322511084378
 21
164.2817556262016
 31
0.0
  0
LINE
  5
13C1F
  8
0
 10
286.19436006993061
 20
161.3834499716759
 30
0.0
 11
286.26733338460332
 21
151.32616826891899
 31
0.0
  0
ARC
  5
13C22
  8
0
 10
285.6447486672551
 20
147.21431251403891
 30
0.0
 40
14.17979298111795
 50
87.778648526783385
 51
92.221351473216615
  0
LINE
  5
13C26
  8
0
 10
285.09513726457959
 20
161.3834499716759
 30
0.0
 11
283.48185187205678
 21
161.3834499716759
 31
0.0
  0
ARC
  5
13C2C
  8
0
 10
283.22211163198472
 20
158.6970271803923
 30
0.0
 40
2.6989502414532769
 50
84.477449936731944
 51
94.216345648675784
  0
ARC
  5
13C30
  8
0
 10
292.60820351214801
 20
151.19049714441479
 30
0.0
 40
2.1505731760992912
 50
349.53832479960198
 51
3.616965153557159
  0
LINE
  5
13C32
  8
0
 10
305.25514548644429
 20
165.01281031966209
 30
0.0
 11
294.70929050585261
 21
165.01281031966209
 31
0.0
  0
LINE
  5
13C33
  8
0
 10
294.70929050585261
 20
165.01281031966209
 30
0.0
 11
294.7544929455035
 21
151.32616826891899
 31
0.0
  0
ARC
  5
13C35
  8
0
 10
294.70207867135099
 20
157.204349564214
 30
0.0
 40
7.8084640858449177
 50
89.947082072262418
 51
114.9907224408675
  0
POLYLINE
  5
13C37
  8
0
 66
     1
 10
0.0
 20
0.0
 30
0.0
 70
   128
  0
VERTEX
  5
149B8
  8
0
 10
284.47904316708451
 20
164.68691074848169
 30
0.0
  0
VERTEX
  5
149B9
  8
0
 10
284.42679410800338
 20
164.84022879600519
 30
0.0
  0
VERTEX
  5
149BA
  8
0
 10
284.23827579244983
 20
164.96679180860519
 30
0.0
  0
VERTEX
  5
149BB
  8
0
 10
283.9175040833652
 20
165.01281031966209
 30
0.0
  0
SEQEND
  5
149BC
  8
0
  0
LINE
  5
13C3A
  8
0
 10
283.9175040833652
 20
165.01281031966209
 30
0.0
 11
282.74486837908631
 21
165.01281031966209
 31
0.0
  0
LINE
  5
13DDB
  8
0
 10
362.15840023242413
 20
237.25532839139649
 30
0.0
 11
360.75299488611989
 21
237.62169485976639
 31
0.0
  0
LINE
  5
13DDC
  8
0
 10
362.25825011961632
 20
237.6389625116224
 30
0.0
 11
362.15840023242413
 21
237.25532839139649
 31
0.0
  0
LINE
  5
13DDD
  8
0
 10
360.85284477331209
 20
238.00532804866981
 30
0.0
 11
362.25825011961632
 21
237.6389625116224
 31
0.0
  0
LINE
  5
13DDE
  8
0
 10
361.13437636986839
 20
239.08565850993341
 30
0.0
 11
360.85284477331209
 21
238.00532804866981
 31
0.0
  0
LINE
  5
13DDF
  8
0
 10
362.93017234884672
 20
238.61794086238089
 30
0.0
 11
361.13437636986839
 21
239.08565850993341
 31
0.0
  0
LINE
  5
13DE0
  8
0
 10
363.03002177037769
 20
239.0015749826068
 30
0.0
 11
362.93017234884672
 21
238.61794086238089
 31
0.0
  0
LINE
  5
13DE1
  8
0
 10
360.75449641094082
 20
239.59391756048149
 30
0.0
 11
363.03002177037769
 21
239.0015749826068
 31
0.0
  0
LINE
  5
13DE2
  8
0
 10
359.99206336446582
 20
236.66664870520779
 30
0.0
 11
360.75449641094082
 21
239.59391756048149
 31
0.0
  0
LINE
  5
13DE3
  8
0
 10
360.75299488611989
 20
237.62169485976639
 30
0.0
 11
360.48735584363811
 21
236.60178395053089
 31
0.0
  0
ARC
  5
13DE9
  8
0
 10
354.89296611515289
 20
237.5579284223501
 30
0.0
 40
1.7402461407165779
 50
332.41128288701327
 51
16.519467041319569
  0
ARC
  5
13DEA
  8
0
 10
354.72302600223531
 20
237.71387866000541
 30
0.0
 40
1.86932664285487
 50
10.4443790316747
 51
55.069762600452528
  0
ARC
  5
13DEB
  8
0
 10
355.02777082646043
 20
238.05865646915629
 30
0.0
 40
1.4131432993781301
 50
57.196125549347236
 51
103.65081465169349
  0
ARC
  5
13DEC
  8
0
 10
354.98426414347369
 20
238.05352381192409
 30
0.0
 40
1.4085347471340499
 50
101.8815048370458
 51
148.4757386879227
  0
ARC
  5
13DED
  8
0
 10
355.35877306782231
 20
237.87555118386919
 30
0.0
 40
1.821362069820035
 50
149.86341960084741
 51
195.73622613498461
  0
ARC
  5
13DEE
  8
0
 10
355.3447466047495
 20
237.68349963058219
 30
0.0
 40
1.7650851019121869
 50
189.84889200786679
 51
233.98279369991451
  0
LINE
  5
13DEF
  8
0
 10
359.32875412282073
 20
237.8881686001057
 30
0.0
 11
357.86929462511102
 21
237.9369680403704
 31
0.0
  0
LINE
  5
13DF0
  8
0
 10
359.34151685096788
 20
238.27180272033161
 30
0.0
 11
359.32875412282073
 21
237.8881686001057
 31
0.0
  0
LINE
  5
13DF1
  8
0
 10
357.88205738963802
 20
238.32060122927371
 30
0.0
 11
359.34151685096788
 21
238.27180272033161
 31
0.0
  0
LINE
  5
13DF2
  8
0
 10
357.91959492808439
 20
239.45723759075349
 30
0.0
 11
357.88205738963802
 21
238.32060122927371
 31
0.0
  0
LINE
  5
13DF3
  8
0
 10
359.78445980463653
 20
239.3949255912537
 30
0.0
 11
357.91959492808439
 21
239.45723759075349
 31
0.0
  0
LINE
  5
13DF4
  8
0
 10
359.79722253278368
 20
239.7785597114796
 30
0.0
 11
359.78445980463653
 21
239.3949255912537
 31
0.0
  0
LINE
  5
13DF5
  8
0
 10
357.45262796290689
 20
239.85663713952249
 30
0.0
 11
359.79722253278368
 21
239.7785597114796
 31
0.0
  0
LINE
  5
13DF6
  8
0
 10
357.35158097696029
 20
236.8073966919417
 30
0.0
 11
357.45262796290689
 21
239.85663713952249
 31
0.0
  0
LINE
  5
13DF7
  8
0
 10
357.86929462511102
 20
237.9369680403704
 30
0.0
 11
357.83245934754149
 21
236.8260371132726
 31
0.0
  0
ARC
  5
13DF8
  8
0
 10
354.64529018668361
 20
237.7470494463445
 30
0.0
 40
1.456683989715396
 50
7.8258258315677667
 51
53.275747883583932
  0
ARC
  5
13DF9
  8
0
 10
354.58191485538629
 20
237.51234591214421
 30
0.0
 40
1.567498368616844
 50
334.00306783767292
 51
16.037558541305408
  0
LINE
  5
13DFA
  8
0
 10
355.8308335416811
 20
236.6273264034624
 30
0.0
 11
355.99080984712123
 21
236.8252752914066
 31
0.0
  0
LINE
  5
13DFB
  8
0
 10
354.65071978278928
 20
236.52047017654129
 30
0.0
 11
354.86932843223678
 21
236.42905155261701
 31
0.0
  0
ARC
  5
13DFC
  8
0
 10
355.53577454818168
 20
237.69646544981549
 30
0.0
 40
1.4718311114075611
 50
188.10566537625041
 51
233.034858621469
  0
ARC
  5
13DFD
  8
0
 10
355.5799977547847
 20
237.92289584797351
 30
0.0
 40
1.562808913507411
 50
153.92560346806309
 51
196.1216556102699
  0
ARC
  5
13DFE
  8
0
 10
354.99972095988818
 20
238.12979837845191
 30
0.0
 40
0.953164760219879
 50
103.3368680027512
 51
149.7617242755272
  0
ARC
  5
13DFF
  8
0
 10
354.98333351224818
 20
238.1352587177654
 30
0.0
 40
0.9441857132766637
 50
55.631752873092132
 51
102.4456501470159
  0
LINE
  5
13ED6
  8
0
 10
375.79113565370312
 20
217.15876200557611
 30
0.0
 11
371.11539676312748
 21
222.73109022424421
 31
0.0
  0
ARC
  5
13ED7
  8
0
 10
358.00000814952421
 20
224.89099582722119
 30
0.0
 40
19.973109937359538
 50
326.19171727294543
 51
330.00000000000011
  0
ARC
  5
13ED8
  8
0
 10
358.00000814952421
 20
224.89099582722119
 30
0.0
 40
19.973109937359538
 50
330.00000000000011
 51
333.80828272705759
  0
LINE
  5
13ED9
  8
0
 10
366.42823557828018
 20
214.6126889088238
 30
0.0
 11
373.59188281915948
 21
213.34954435745681
 31
0.0
  0
ARC
  5
13EDA
  8
0
 10
365.55532536021389
 20
209.66216849725731
 30
0.0
 40
5.0268900626404909
 50
79.999999999999801
 51
116.3869032271988
  0
ARC
  5
13EDB
  8
0
 10
374.96621809246437
 20
225.96231285409601
 30
0.0
 40
5.0268900626404651
 50
183.61309677280229
 51
220.0000000000021
  0
ARC
  5
13EDC
  8
0
 10
358.00000814952421
 20
224.89099582722119
 30
0.0
 40
11.97310993735953
 50
183.61309677280229
 51
296.38690322719879
  0
ARC
  5
13EDD
  8
0
 10
358.00000814952421
 20
224.89099582722119
 30
0.0
 40
11.97310993735953
 50
3.6130967728023071
 51
116.3869032271988
  0
ARC
  5
13EDE
  8
0
 10
350.4446909388343
 20
240.11982315718501
 30
0.0
 40
5.0268900626404838
 50
259.99999999999977
 51
296.38690322719879
  0
ARC
  5
13EDF
  8
0
 10
341.03379820658381
 20
223.8196788003464
 30
0.0
 40
5.0268900626405113
 50
3.6130967728023071
 51
40.000000000002402
  0
LINE
  5
13EE0
  8
0
 10
349.571780720768
 20
235.16930274561841
 30
0.0
 11
342.40813347988882
 21
236.4324472969856
 31
0.0
  0
LINE
  5
13EE1
  8
0
 10
340.20888064534518
 20
232.62322964886619
 30
0.0
 11
344.88461953592071
 21
227.05090143019811
 31
0.0
  0
ARC
  5
13EE2
  8
0
 10
358.00000814952421
 20
224.89099582722119
 30
0.0
 40
19.97310993735951
 50
146.19171727294571
 51
153.80828272705759
  0
CIRCLE
  5
13EE3
  8
0
 10
358.00000814952398
 20
224.8909958272211
 30
0.0
 40
3.000000000000028
  0
LINE
  5
13EE4
  8
0
 10
356.8453075728637
 20
224.8909958559112
 30
0.0
 11
357.42265788604033
 21
223.8909958371039
 31
0.0
  0
LINE
  5
13EE5
  8
0
 10
357.42265788604033
 20
223.8909958371039
 30
0.0
 11
358.57735846270072
 21
223.89099580841381
 31
0.0
  0
LINE
  5
13EE6
  8
0
 10
358.57735846270072
 20
223.89099580841381
 30
0.0
 11
359.15470872618459
 21
224.89099579853101
 31
0.0
  0
LINE
  5
13EE7
  8
0
 10
359.15470872618459
 20
224.89099579853101
 30
0.0
 11
358.57735841300803
 21
225.89099581733839
 31
0.0
  0
LINE
  5
13EE8
  8
0
 10
358.57735841300803
 20
225.89099581733839
 30
0.0
 11
357.42265783634758
 21
225.89099584602849
 31
0.0
  0
LINE
  5
13EE9
  8
0
 10
357.42265783634758
 20
225.89099584602849
 30
0.0
 11
356.8453075728637
 21
224.8909958559112
 31
0.0
  0
CIRCLE
  5
13EEA
  8
0
 10
358.00000814952421
 20
224.89099582722119
 30
0.0
 40
3.5
  0
ARC
  5
13EEB
  8
0
 10
375.02196294449777
 20
216.5153392241117
 30
0.0
 40
1.0021206079840099
 50
333.95566647415421
 51
39.912872497562716
  0
ARC
  5
13EEC
  8
0
 10
373.76451470854892
 20
214.3373840914021
 30
0.0
 40
1.002125383027721
 50
260.08730465185351
 51
326.0441563764262
  0
ARC
  5
13EED
  8
0
 10
340.97805335455001
 20
233.26665243033059
 30
0.0
 40
1.002120607983656
 50
153.9556664741468
 51
219.91287249757389
  0
ARC
  5
13EEE
  8
0
 10
342.23550159049921
 20
235.44460756304031
 30
0.0
 40
1.002125383027588
 50
80.087304651848584
 51
146.0441563764951
  0
LINE
  5
13EEF
  8
0
 10
375.79113565370312
 20
217.15876200557611
 30
0.0
 11
375.79061051498797
 21
217.1583218252182
 31
0.0
  0
LINE
  5
13EF0
  8
0
 10
340.20940578406032
 20
232.6236698292241
 30
0.0
 11
340.20888064534518
 21
232.62322964886619
 31
0.0
  0
LINE
  5
13EF1
  8
0
 10
373.59200145717421
 20
213.35021923110341
 30
0.0
 11
373.59188281915948
 21
213.34954435745681
 31
0.0
  0
LINE
  5
13EF2
  8
0
 10
342.40813347988882
 20
236.4324472969856
 30
0.0
 11
342.40801484187421
 21
236.43177242333891
 31
0.0
  0
LINE
  5
13EF9
  8
0
 10
362.9301723488461
 20
238.61794086238069
 30
0.0
 11
362.14353911810031
 21
238.82282065292529
 31
0.0
  0
LINE
  5
13EFA
  8
0
 10
363.03002177037712
 20
239.00157498260671
 30
0.0
 11
362.9301723488461
 21
238.61794086238069
 31
0.0
  0
LINE
  5
13EFB
  8
0
 10
361.97888780616643
 20
239.27519569238351
 30
0.0
 11
363.03002177037712
 21
239.00157498260671
 31
0.0
  0
POLYLINE
  5
13EFC
  8
0
 66
     1
 10
0.0
 20
0.0
 30
0.0
 70
   128
  0
VERTEX
  5
149BD
  8
0
 10
370.49345024971751
 20
223.66797819525439
 30
0.0
  0
VERTEX
  5
149BE
  8
0
 10
370.85930047788139
 20
224.0338282410026
 30
0.0
  0
VERTEX
  5
149BF
  8
0
 10
372.47989675261488
 20
225.6544248649821
 30
0.0
  0
SEQEND
  5
149C0
  8
0
  0
LINE
  5
13EFD
  8
0
 10
372.47989675261488
 20
225.6544248649821
 30
0.0
 11
370.98197708137752
 21
225.5754494673543
 31
0.0
  0
ARC
  5
13EFE
  8
0
 10
358.00000814952369
 20
224.89099582722119
 30
0.0
 40
13.0
 50
3.0180341906551371
 51
56.981965809342178
  0
LINE
  5
13EFF
  8
0
 10
365.08374683790322
 20
235.7914839505188
 30
0.0
 11
365.90110114075662
 21
237.0492322935693
 31
0.0
  0
POLYLINE
  5
13F00
  8
0
 66
     1
 10
0.0
 20
0.0
 30
0.0
 70
   128
  0
VERTEX
  5
149C1
  8
0
 10
365.90110114075662
 20
237.0492322935693
 30
0.0
  0
VERTEX
  5
149C2
  8
0
 10
363.69010269873257
 20
236.45679751475981
 30
0.0
  0
VERTEX
  5
149C3
  8
0
 10
362.27081945088531
 20
236.0765012874256
 30
0.0
  0
SEQEND
  5
149C4
  8
0
  0
ARC
  5
13F12
  8
0
 10
358.00000814952432
 20
224.89099582722139
 30
0.0
 40
17.000000000000011
 50
160.6192120543042
 51
319.38078794569259
  0
ARC
  5
13F13
  8
0
 10
358.00000814952432
 20
224.89099582722139
 30
0.0
 40
17.000000000000011
 50
340.61921205430423
 51
139.3807879456927
  0
CIRCLE
  5
13F14
  8
0
 10
358.00000814952421
 20
224.89099582722119
 30
0.0
 40
9.4118365096457524
  0
LINE
  5
13F15
  8
1
 10
377.05256703278172
 20
213.89099582722099
 30
0.0
 11
338.94744926626652
 21
235.8909958272211
 31
0.0
  0
LINE
  5
13F16
  8
1
 10
336.00000814952392
 20
224.8909958272211
 30
0.0
 11
380.00000814952392
 21
224.8909958272211
 31
0.0
  0
LINE
  5
13F17
  8
1
 10
358.00000814952432
 20
246.89099582722099
 30
0.0
 11
358.00000814952432
 21
202.8909958272217
 31
0.0
  0
LINE
  5
13F21
  8
0
 10
374.03668534161699
 20
72.641361923832847
 30
0.0
 11
375.79113558668831
 21
74.732233821645082
 31
0.0
  0
LINE
  5
13F22
  8
0
 10
373.59188275214473
 20
78.541451469764453
 30
0.0
 11
370.90390945004481
 21
78.067488936762857
 31
0.0
  0
ARC
  5
13F23
  8
0
 10
358.00000808250951
 20
67.0
 30
0.0
 40
19.973109937359521
 50
26.191717272946129
 51
33.808282727056003
  0
LINE
  5
13F24
  8
0
 10
342.40813341287418
 20
55.458548530235589
 30
0.0
 11
345.09610671497433
 21
55.932511063237143
 31
0.0
  0
LINE
  5
13F25
  8
0
 10
341.96333082340198
 20
61.358638076167153
 30
0.0
 11
340.20888057833059
 21
59.267766178354968
 31
0.0
  0
ARC
  5
13F26
  8
0
 10
358.00000808250951
 20
67.0
 30
0.0
 40
19.973109937359521
 50
206.19171727294591
 51
210.00000000000011
  0
ARC
  5
13F27
  8
0
 10
358.00000808250951
 20
67.0
 30
0.0
 40
19.973109937359521
 50
210.00000000000011
 51
213.80828272705421
  0
LINE
  5
13F28
  8
0
 10
366.25000803780603
 20
79.846043333411217
 30
0.0
 11
365.00000829857629
 21
80.567731715738773
 31
0.0
  0
LINE
  5
13F29
  8
0
 10
363.75000809368538
 20
79.846043333411217
 30
0.0
 11
365.00000829857629
 21
80.567731715738773
 31
0.0
  0
LINE
  5
13F2A
  8
0
 10
363.75000809368538
 20
79.846043333411217
 30
0.0
 11
363.75000809368538
 21
78.402667500078664
 31
0.0
  0
LINE
  5
13F2B
  8
0
 10
363.75000809368538
 20
78.402667500078664
 30
0.0
 11
365.00000829857629
 21
77.680980049073696
 31
0.0
  0
LINE
  5
13F2C
  8
0
 10
366.25000803780603
 20
78.402667500078664
 30
0.0
 11
365.00000829857629
 21
77.680980049073696
 31
0.0
  0
LINE
  5
13F2D
  8
0
 10
366.25000803780603
 20
78.402667500078664
 30
0.0
 11
366.25000803780603
 21
79.846043333411217
 31
0.0
  0
CIRCLE
  5
13F2E
  8
0
 10
365.0000080825094
 20
79.12435565298216
 30
0.0
 40
2.750000000000016
  0
LINE
  5
13F2F
  8
0
 10
342.75000791114621
 20
67.721687858458608
 30
0.0
 11
342.75000791114621
 21
66.278312141541392
 31
0.0
  0
LINE
  5
13F30
  8
0
 10
344.00000765037578
 20
65.556624283082783
 30
0.0
 11
342.75000791114621
 21
66.278312141541392
 31
0.0
  0
LINE
  5
13F31
  8
0
 10
344.00000765037578
 20
65.556624283082783
 30
0.0
 11
345.25000832092809
 21
66.278312141541392
 31
0.0
  0
LINE
  5
13F32
  8
0
 10
345.25000832092809
 20
66.278312141541392
 30
0.0
 11
345.25000832092809
 21
67.721687858458608
 31
0.0
  0
LINE
  5
13F33
  8
0
 10
344.00000765037578
 20
68.443375716917217
 30
0.0
 11
345.25000832092809
 21
67.721687858458608
 31
0.0
  0
LINE
  5
13F34
  8
0
 10
344.00000765037578
 20
68.443375716917217
 30
0.0
 11
342.75000791114621
 21
67.721687858458608
 31
0.0
  0
CIRCLE
  5
13F35
  8
0
 10
344.00000808250951
 20
67.0
 30
0.0
 40
2.75
  0
LINE
  5
13F36
  8
0
 10
365.00000829857629
 20
53.43226828426122
 30
0.0
 11
366.25000803780603
 21
54.153956666588783
 31
0.0
  0
LINE
  5
13F37
  8
0
 10
366.25000803780603
 20
55.597332499921322
 30
0.0
 11
366.25000803780603
 21
54.153956666588783
 31
0.0
  0
LINE
  5
13F38
  8
0
 10
366.25000803780603
 20
55.597332499921322
 30
0.0
 11
365.00000829857629
 21
56.319019950926297
 31
0.0
  0
LINE
  5
13F39
  8
0
 10
365.00000829857629
 20
56.319019950926297
 30
0.0
 11
363.75000809368538
 21
55.597332499921322
 31
0.0
  0
LINE
  5
13F3A
  8
0
 10
363.75000809368538
 20
54.153956666588783
 30
0.0
 11
363.75000809368538
 21
55.597332499921322
 31
0.0
  0
LINE
  5
13F3B
  8
0
 10
363.75000809368538
 20
54.153956666588783
 30
0.0
 11
365.00000829857629
 21
53.43226828426122
 31
0.0
  0
CIRCLE
  5
13F3C
  8
0
 10
365.00000808250951
 20
54.875644347017897
 30
0.0
 40
2.750000000000012
  0
ARC
  5
13F3D
  8
0
 10
375.02399380139877
 20
75.374776628772452
 30
0.0
 40
0.9999984330534388
 50
320.05113844076823
 51
26.140620025080889
  0
ARC
  5
13F3E
  8
0
 10
373.76476802928693
 20
77.555810576221859
 30
0.0
 40
1.0000031859674481
 50
33.859557124580931
 51
99.948684409575733
  0
ARC
  5
13F3F
  8
0
 10
340.97602236362007
 20
58.625223371227662
 30
0.0
 40
0.9999984330534445
 50
140.05113844076641
 51
206.1406200250789
  0
ARC
  5
13F40
  8
0
 10
342.23524813573209
 20
56.444189423778198
 30
0.0
 40
1.0000031859674461
 50
213.8595571245809
 51
279.94868440957572
  0
POLYLINE
  5
13F41
  8
0
 66
     1
 10
0.0
 20
0.0
 30
0.0
 70
   128
  0
VERTEX
  5
149C5
  8
0
 10
357.19625106935348
 20
70.089204212020832
 30
0.0
  0
VERTEX
  5
149C6
  8
0
 10
357.26854227621737
 20
70.358998668976881
 30
0.0
  0
VERTEX
  5
149C7
  8
0
 10
357.31951010388661
 20
70.549213191389697
 30
0.0
  0
VERTEX
  5
149C8
  8
0
 10
357.33068680520557
 20
70.590924890521137
 30
0.0
  0
SEQEND
  5
149C9
  8
0
  0
POLYLINE
  5
13F42
  8
0
 66
     1
 10
0.0
 20
0.0
 30
0.0
 70
   128
  0
VERTEX
  5
149CA
  8
0
 10
360.77517962213068
 20
64.624888325300901
 30
0.0
  0
VERTEX
  5
149CB
  8
0
 10
360.64182240421599
 20
64.660621284145975
 30
0.0
  0
VERTEX
  5
149CC
  8
0
 10
360.4292780466871
 20
64.717572373101689
 30
0.0
  0
VERTEX
  5
149CD
  8
0
 10
360.27345890101941
 20
64.75932390212671
 30
0.0
  0
SEQEND
  5
149CE
  8
0
  0
ARC
  5
13F43
  8
0
 10
359.96287604770072
 20
63.600212672072757
 30
0.0
 40
1.2000002301719661
 50
75.000002984488106
 51
114.0147677627868
  0
ARC
  5
13F44
  8
0
 10
356.0371395733651
 20
70.399787391159919
 30
0.0
 40
1.200000571373508
 50
305.9852380085814
 51
344.99999124414552
  0
POLYLINE
  5
13F45
  8
0
 66
     1
 10
0.0
 20
0.0
 30
0.0
 70
   128
  0
VERTEX
  5
149CF
  8
0
 10
358.80376509566543
 20
63.910795787979218
 30
0.0
  0
VERTEX
  5
149D0
  8
0
 10
358.7314738888017
 20
63.641001331023183
 30
0.0
  0
VERTEX
  5
149D1
  8
0
 10
358.68050606113252
 20
63.450786808610353
 30
0.0
  0
VERTEX
  5
149D2
  8
0
 10
358.66932935981328
 20
63.40907510947892
 30
0.0
  0
SEQEND
  5
149D3
  8
0
  0
POLYLINE
  5
13F46
  8
0
 66
     1
 10
0.0
 20
0.0
 30
0.0
 70
   128
  0
VERTEX
  5
149D4
  8
0
 10
355.22483654288823
 20
69.375111674699156
 30
0.0
  0
VERTEX
  5
149D5
  8
0
 10
355.35819376080292
 20
69.339378715854025
 30
0.0
  0
VERTEX
  5
149D6
  8
0
 10
355.57073811833192
 20
69.282427626898368
 30
0.0
  0
VERTEX
  5
149D7
  8
0
 10
355.7265572639995
 20
69.240676097873347
 30
0.0
  0
SEQEND
  5
149D8
  8
0
  0
ARC
  5
13F47
  8
0
 10
356.0371401173183
 20
70.399787327927299
 30
0.0
 40
1.2000002301719459
 50
255.00000298448811
 51
294.0147677627873
  0
ARC
  5
13F48
  8
0
 10
359.96287659165392
 20
63.600212608840138
 30
0.0
 40
1.200000571373528
 50
125.9852380085814
 51
164.9999912441439
  0
ARC
  5
13F49
  8
0
 10
356.03714011686549
 20
70.399787045044832
 30
0.0
 40
1.200000000000004
 50
294.01477351360307
 51
305.9852264863971
  0
ARC
  5
13F4A
  8
0
 10
359.96287604815359
 20
63.600212954955218
 30
0.0
 40
1.200000000000004
 50
114.0147735136031
 51
125.9852264863971
  0
LINE
  5
13F4B
  8
0
 10
357.33068680520557
 20
70.590924890521137
 30
0.0
 11
357.42933415676453
 21
70.959082136623465
 31
0.0
  0
LINE
  5
13F4C
  8
0
 10
360.77517962213068
 20
64.624888325300901
 30
0.0
 11
361.14333682562199
 21
64.526240814715777
 31
0.0
  0
LINE
  5
13F4D
  8
0
 10
354.85667933939692
 20
69.47375918528428
 30
0.0
 11
355.22483654288823
 21
69.375111674699156
 31
0.0
  0
LINE
  5
13F4E
  8
0
 10
358.57068200825449
 20
63.040917863376592
 30
0.0
 11
358.66932935981328
 21
63.40907510947892
 31
0.0
  0
CIRCLE
  5
13F4F
  8
0
 10
358.00000808250951
 20
67.0
 30
0.0
 40
8.0
  0
CIRCLE
  5
13F50
  8
0
 10
358.00000808250951
 20
67.0
 30
0.0
 40
9.0
  0
CIRCLE
  5
13F51
  8
0
 10
358.00000808250951
 20
67.0
 30
0.0
 40
4.4999999999999849
  0
CIRCLE
  5
13F52
  8
0
 10
358.00000808250951
 20
67.0
 30
0.0
 40
3.9999999999999849
  0
CIRCLE
  5
13F53
  8
0
 10
358.00000808250951
 20
67.0
 30
0.0
 40
17.0
  0
LINE
  5
13F54
  8
1
 10
338.94744919925182
 20
56.0
 30
0.0
 11
377.05256696576708
 21
78.0
 31
0.0
  0
LINE
  5
13F55
  8
1
 10
380.00000808250951
 20
67.0
 30
0.0
 11
336.00000808250951
 21
67.0
 31
0.0
  0
CIRCLE
  5
13F56
  8
1
 10
358.00000808250951
 20
67.0
 30
0.0
 40
14.000000000000011
  0
LINE
  5
13F57
  8
1
 10
362.6250080825094
 20
75.010734985006025
 30
0.0
 11
367.3750080825094
 21
83.23797632095841
 31
0.0
  0
LINE
  5
13F58
  8
1
 10
362.62500808250951
 20
58.989265014993968
 30
0.0
 11
367.37500808250951
 21
50.762023679041818
 31
0.0
  0
LINE
  5
13F5A
  8
1
 10
358.00000808250991
 20
89.0
 30
0.0
 11
358.00000808250991
 21
45.000000000000682
 31
0.0
  0
LINE
  5
13F62
  8
0
 10
367.75000851601368
 20
125.54100423445919
 30
0.0
 11
367.75000851601368
 21
128.54100431874389
 31
0.0
  0
LINE
  5
13F63
  8
0
 10
362.250008545816
 20
128.54100431874389
 30
0.0
 11
362.250008545816
 21
125.54100423445919
 31
0.0
  0
LINE
  5
13F64
  8
0
 10
366.500008776784
 20
128.54100431874389
 30
0.0
 11
366.500008776784
 21
134.04100382328031
 31
0.0
  0
LINE
  5
13F65
  8
0
 10
363.50000828504568
 20
134.04100382328031
 30
0.0
 11
363.50000828504568
 21
128.54100431874389
 31
0.0
  0
LINE
  5
13F66
  8
0
 10
346.75000786781322
 20
125.54100423445919
 30
0.0
 11
346.75000786781322
 21
128.54100431874389
 31
0.0
  0
LINE
  5
13F67
  8
0
 10
341.25000789761549
 20
128.54100431874389
 30
0.0
 11
341.25000789761549
 21
125.54100423445919
 31
0.0
  0
LINE
  5
13F68
  8
0
 10
345.50000812858349
 20
128.54100431874389
 30
0.0
 11
345.50000812858349
 21
134.04100382328031
 31
0.0
  0
LINE
  5
13F69
  8
0
 10
342.5000085681678
 20
134.04100382328031
 30
0.0
 11
342.5000085681678
 21
128.54100431874389
 31
0.0
  0
LINE
  5
13F74
  8
0
 10
341.00000739097601
 20
134.54100390523669
 30
0.0
 11
341.50000840425503
 21
134.04100382328031
 31
0.0
  0
LINE
  5
13F75
  8
0
 10
374.50000822544098
 20
134.04100382328031
 30
0.0
 11
375.00000923872
 21
134.54100390523669
 31
0.0
  0
ARC
  5
13F76
  8
0
 10
342.000008314848
 20
145.31101991550429
 30
0.0
 40
1.0
 50
110.0
 51
180.0
  0
ARC
  5
13F77
  8
0
 10
374.000008314848
 20
145.31101991550429
 30
0.0
 40
1.0
 50
0.0
 51
69.999999999999943
  0
LINE
  5
13F78
  8
0
 10
375.00000923872
 20
134.54100390523669
 30
0.0
 11
375.00000923872
 21
145.31102025508881
 31
0.0
  0
LINE
  5
13F79
  8
0
 10
341.00000739097601
 20
145.31102025508881
 30
0.0
 11
341.00000739097601
 21
134.54100390523669
 31
0.0
  0
LINE
  5
13F7A
  8
0
 10
374.34202797710901
 20
146.25071169435981
 30
0.0
 11
367.76320028254031
 21
148.6452101685725
 31
0.0
  0
LINE
  5
13F7B
  8
0
 10
348.2368159294129
 20
148.6452109515667
 30
0.0
 11
341.65798865258699
 21
146.25071169435981
 31
0.0
  0
ARC
  5
13F7C
  8
0
 10
367.90000831484798
 20
149.02108722599439
 30
0.0
 40
0.4000000000000111
 50
180.0
 51
250.0000000000035
  0
ARC
  5
13F7D
  8
0
 10
348.10000831484803
 20
149.02108722599439
 30
0.0
 40
0.4000000000000208
 50
290.00000000000392
 51
0.0
  0
ARC
  5
13F80
  8
0
 10
367.20000831484811
 20
133.64100421071049
 30
0.0
 40
0.4000000000000341
 50
90.0
 51
180.0
  0
ARC
  5
13F81
  8
0
 10
348.80000831484801
 20
133.64100421071049
 30
0.0
 40
0.4000000000000057
 50
0.0
 51
90.0
  0
LINE
  5
13F82
  8
0
 10
349.00000870227819
 20
126.541004223749
 30
0.0
 11
350.00000793486839
 21
125.54100423445919
 31
0.0
  0
LINE
  5
13F83
  8
0
 10
367.00000792741781
 20
130.69459417462349
 30
0.0
 11
366.80000826716429
 21
131.04100426286459
 31
0.0
  0
LINE
  5
13F84
  8
0
 10
349.20000836253172
 20
131.04100426286459
 30
0.0
 11
349.00000870227819
 21
130.69459417462349
 31
0.0
  0
LINE
  5
13F85
  8
0
 10
367.00000792741781
 20
128.54100431874389
 30
0.0
 11
367.00000792741781
 21
130.69459417462349
 31
0.0
  0
LINE
  5
13F86
  8
0
 10
349.00000870227819
 20
130.69459417462349
 30
0.0
 11
349.00000870227819
 21
126.541004223749
 31
0.0
  0
LINE
  5
13F87
  8
0
 10
366.80000826716429
 20
131.04100426286459
 30
0.0
 11
366.80000826716429
 21
133.64100450277331
 31
0.0
  0
LINE
  5
13F88
  8
0
 10
349.20000836253172
 20
131.65363570302719
 30
0.0
 11
349.20000836253172
 21
131.04100426286459
 31
0.0
  0
LINE
  5
13F89
  8
0
 10
367.75000851601368
 20
125.54100423445919
 30
0.0
 11
362.250008545816
 21
125.54100423445919
 31
0.0
  0
LINE
  5
13F8A
  8
0
 10
367.75000851601368
 20
128.54100431874389
 30
0.0
 11
362.250008545816
 21
128.54100431874389
 31
0.0
  0
LINE
  5
13F8B
  8
0
 10
346.75000786781322
 20
125.54100423445919
 30
0.0
 11
341.25000789761549
 21
125.54100423445919
 31
0.0
  0
LINE
  5
13F8C
  8
0
 10
346.75000786781322
 20
128.54100431874389
 30
0.0
 11
341.25000789761549
 21
128.54100431874389
 31
0.0
  0
LINE
  5
13F8F
  8
0
 10
374.50000822544098
 20
134.04100382328031
 30
0.0
 11
341.50000840425503
 21
134.04100382328031
 31
0.0
  0
ARC
  5
13F90
  8
0
 10
362.55505733645123
 20
127.3342175130408
 30
0.0
 40
21.601801274488611
 50
67.885048323726693
 51
72.428162180561614
  0
ARC
  5
13F91
  8
0
 10
368.45197063343659
 20
146.18154899269541
 30
0.0
 40
1.8548728383888571
 50
70.318680707170444
 51
85.704062131890936
  0
POLYLINE
  5
13F92
  8
0
 66
     1
 10
0.0
 20
0.0
 30
0.0
 70
   128
  0
VERTEX
  5
149D9
  8
0
 10
368.60598802566528
 20
147.92812795937061
 30
0.0
  0
VERTEX
  5
149DA
  8
0
 10
368.5479517281056
 20
147.97142887115481
 30
0.0
  0
VERTEX
  5
149DB
  8
0
 10
368.52620162069798
 20
148.0148713439703
 30
0.0
  0
VERTEX
  5
149DC
  8
0
 10
368.59091550111782
 20
148.0312104672193
 30
0.0
  0
SEQEND
  5
149DD
  8
0
  0
ARC
  5
13F93
  8
0
 10
372.73417001344211
 20
155.42505578164611
 30
0.0
 40
8.5583767909933783
 50
241.1606289284864
 51
250.71578203620419
  0
ARC
  5
13F94
  8
0
 10
376.01995141088668
 20
162.2913304700794
 30
0.0
 40
16.14608580548116
 50
247.75563587962409
 51
253.7457066878961
  0
ARC
  5
13F95
  8
0
 10
372.066318729035
 20
148.6022723922373
 30
0.0
 40
1.8979101691413991
 50
252.65948137967089
 51
266.65474062930952
  0
POLYLINE
  5
13F96
  8
0
 66
     1
 10
0.0
 20
0.0
 30
0.0
 70
   128
  0
VERTEX
  5
149DE
  8
0
 10
371.97132866829639
 20
146.79056958854201
 30
0.0
  0
VERTEX
  5
149DF
  8
0
 10
372.02054440975201
 20
146.7533427625894
 30
0.0
  0
VERTEX
  5
149E0
  8
0
 10
372.02537238597881
 20
146.7181164175272
 30
0.0
  0
VERTEX
  5
149E1
  8
0
 10
371.9555706903339
 20
146.70759619772431
 30
0.0
  0
SEQEND
  5
149E2
  8
0
  0
ARC
  5
13F97
  8
0
 10
367.10016877087219
 20
137.3062807438946
 30
0.0
 40
10.662079236010911
 50
62.814828441949828
 51
70.339398554148715
  0
POLYLINE
  5
13F98
  8
0
 66
     1
 10
0.0
 20
0.0
 30
0.0
 70
   128
  0
VERTEX
  5
149E3
  8
0
 10
369.227412082255
 20
148.01306457817549
 30
0.0
  0
VERTEX
  5
149E4
  8
0
 10
370.8593006432057
 20
147.50793570280069
 30
0.0
  0
VERTEX
  5
149E5
  8
0
 10
371.71648249030119
 20
147.19756872951979
 30
0.0
  0
SEQEND
  5
149E6
  8
0
  0
LINE
  5
13F99
  8
0
 10
369.5000083371998
 20
148.01306457817549
 30
0.0
 11
369.227412082255
 21
148.01306457817549
 31
0.0
  0
LINE
  5
13F9A
  8
0
 10
370.53469933569443
 20
146.70413354039189
 30
0.0
 11
370.2078945189715
 21
146.71372057497501
 31
0.0
  0
LINE
  5
13F9B
  8
0
 10
367.66676038503653
 20
148.01949256658551
 30
0.0
 11
370.53469933569443
 21
146.70413354039189
 31
0.0
  0
LINE
  5
13F9C
  8
0
 10
367.39613573998218
 20
148.03056226670739
 30
0.0
 11
367.66676038503653
 21
148.01949256658551
 31
0.0
  0
LINE
  5
13F9D
  8
0
 10
369.55085761845118
 20
147.0403093248606
 30
0.0
 11
367.39613573998218
 21
148.03056226670739
 31
0.0
  0
LINE
  5
13F9E
  8
0
 10
369.53989595174801
 20
147.04052352905271
 30
0.0
 11
369.55085761845118
 21
147.0403093248606
 31
0.0
  0
LINE
  5
13F9F
  8
0
 10
366.80007532238972
 20
148.03294458985329
 30
0.0
 11
369.53989595174801
 21
147.04052352905271
 31
0.0
  0
LINE
  5
13FA0
  8
0
 10
366.48491762578487
 20
148.0220648795366
 30
0.0
 11
366.80007532238972
 21
148.03294458985329
 31
0.0
  0
LINE
  5
13FA1
  8
0
 10
369.35285657644278
 20
146.70609490573409
 30
0.0
 11
366.48491762578487
 21
148.0220648795366
 31
0.0
  0
LINE
  5
13FA2
  8
0
 10
369.62348122149712
 20
146.71358832716939
 30
0.0
 11
369.35285657644278
 21
146.70609490573409
 31
0.0
  0
LINE
  5
13FA3
  8
0
 10
367.50025667250162
 20
147.68960507214069
 30
0.0
 11
369.62348122149712
 21
146.71358832716939
 31
0.0
  0
LINE
  5
13FA4
  8
0
 10
370.2078945189715
 20
146.71372057497501
 30
0.0
 11
367.50025667250162
 21
147.68960507214069
 31
0.0
  0
LINE
  5
13FA5
  8
0
 10
362.250008545816
 20
125.54100423445919
 30
0.0
 11
350.00000793486839
 21
125.54100423445919
 31
0.0
  0
LINE
  5
13FA6
  8
0
 10
349.00000870227808
 20
126.541004223749
 30
0.0
 11
362.250008545816
 21
126.541004223749
 31
0.0
  0
LINE
  5
13FA7
  8
0
 10
367.00000792741781
 20
130.69459417462349
 30
0.0
 11
366.500008776784
 21
130.69459417462349
 31
0.0
  0
LINE
  5
13FA8
  8
0
 10
363.50000828504568
 20
130.69459417462349
 30
0.0
 11
349.00000870227819
 21
130.69459417462349
 31
0.0
  0
LINE
  5
13FA9
  8
0
 10
366.80000826716429
 20
131.04100426286459
 30
0.0
 11
366.500008776784
 21
131.04100426286459
 31
0.0
  0
LINE
  5
13FAA
  8
0
 10
363.50000828504568
 20
131.04100426286459
 30
0.0
 11
349.20000836253172
 21
131.0410042628645
 31
0.0
  0
POLYLINE
  5
13FAB
  8
0
 66
     1
 10
0.0
 20
0.0
 30
0.0
 70
   128
  0
VERTEX
  5
149E7
  8
0
 10
349.20143049210321
 20
131.65363570302719
 30
0.0
  0
VERTEX
  5
149E8
  8
0
 10
349.2007301375271
 20
131.64737395569679
 30
0.0
  0
VERTEX
  5
149E9
  8
0
 10
349.21068038791418
 20
131.7397383376956
 30
0.0
  0
VERTEX
  5
149EA
  8
0
 10
349.22836992889648
 20
131.93273445218799
 30
0.0
  0
VERTEX
  5
149EB
  8
0
 10
349.24622058868408
 20
132.2064869441092
 30
0.0
  0
VERTEX
  5
149EC
  8
0
 10
349.25630215555441
 20
132.52968847379091
 30
0.0
  0
VERTEX
  5
149ED
  8
0
 10
349.25417408347141
 20
132.86376831680531
 30
0.0
  0
VERTEX
  5
149EE
  8
0
 10
349.24090646207338
 20
133.17190942913291
 30
0.0
  0
VERTEX
  5
149EF
  8
0
 10
349.222216680646
 20
133.42178979516029
 30
0.0
  0
VERTEX
  5
149F0
  8
0
 10
349.20621935278177
 20
133.58478800952429
 30
0.0
  0
VERTEX
  5
149F1
  8
0
 10
349.20000836253172
 20
133.64100450277331
 30
0.0
  0
SEQEND
  5
149F2
  8
0
  0
ARC
  5
13FAC
  8
0
 10
375.52195305274262
 20
160.40674588129201
 30
0.0
 40
14.143711585537529
 50
247.3246264031082
 51
252.81203720011209
  0
ARC
  5
13FAD
  8
0
 10
371.74319734140829
 20
148.11724271371821
 30
0.0
 40
1.2865838222466079
 50
251.84827963408949
 51
264.9584994802355
  0
ARC
  5
13FAE
  8
0
 10
373.59344080863281
 20
157.11218260467999
 30
0.0
 40
10.372859169739559
 50
243.4782420018623
 51
250.13927344331421
  0
POLYLINE
  5
13FAF
  8
0
 66
     1
 10
0.0
 20
0.0
 30
0.0
 70
   128
  0
VERTEX
  5
149F3
  8
0
 10
368.94101455807692
 20
147.89353863894939
 30
0.0
  0
VERTEX
  5
149F4
  8
0
 10
368.91047649085527
 20
147.88337045907971
 30
0.0
  0
VERTEX
  5
149F5
  8
0
 10
368.92792388796812
 20
147.85655954480171
 30
0.0
  0
VERTEX
  5
149F6
  8
0
 10
368.96156884729868
 20
147.83091278374189
 30
0.0
  0
SEQEND
  5
149F7
  8
0
  0
ARC
  5
13FB0
  8
0
 10
368.84168310832882
 20
146.70315307156599
 30
0.0
 40
1.1945227230754689
 50
70.744267907448403
 51
85.230017556930363
  0
ARC
  5
13FB1
  8
0
 10
364.04677170602997
 20
131.73285224331039
 30
0.0
 40
16.91359362637429
 50
67.47657423540339
 51
72.134377031038881
  0
ARC
  5
13FB2
  8
0
 10
366.16882389300707
 20
135.54442488280449
 30
0.0
 40
12.58981809044286
 50
64.36099327942857
 51
69.753214127717712
  0
POLYLINE
  5
13FB3
  8
0
 66
     1
 10
0.0
 20
0.0
 30
0.0
 70
   128
  0
VERTEX
  5
149F8
  8
0
 10
371.63013584911829
 20
146.8356362879276
 30
0.0
  0
VERTEX
  5
149F9
  8
0
 10
371.6590590029956
 20
146.83968381583691
 30
0.0
  0
VERTEX
  5
149FA
  8
0
 10
371.65999870747328
 20
146.85990655422211
 30
0.0
  0
VERTEX
  5
149FB
  8
0
 10
371.61643330007797
 20
146.8946262598038
 30
0.0
  0
SEQEND
  5
149FC
  8
0
  0
LINE
  5
13FCB
  8
0
 10
341.65798865258699
 20
146.25071169435981
 30
0.0
 11
374.34202797710901
 21
146.25071169435981
 31
0.0
  0
LINE
  5
13FCC
  8
0
 10
348.500008314848
 20
149.021087154746
 30
0.0
 11
367.5000080093742
 21
149.021087154746
 31
0.0
  0
LINE
  5
13FCD
  8
0
 10
366.80000826716429
 20
133.64100450277331
 30
0.0
 11
366.500008776784
 21
133.64100450277331
 31
0.0
  0
LINE
  5
13FCE
  8
0
 10
363.50000828504568
 20
133.64100450277331
 30
0.0
 11
349.20000836253172
 21
133.64100450277331
 31
0.0
  0
LINE
  5
13FCF
  8
1
 10
358.00000808250951
 20
171.29999870061869
 30
0.0
 11
358.00000808250951
 21
109.0
 31
0.0
  0
LINE
  5
13FD0
  8
3
 10
345.22950788271442
 20
130.04100426053631
 30
0.0
 11
345.22950788271442
 21
134.04100382328039
 31
0.0
  0
LINE
  5
13FD1
  8
3
 10
342.7705078827143
 20
130.04100426053631
 30
0.0
 11
342.7705078827143
 21
134.04100382328039
 31
0.0
  0
LINE
  5
13FD2
  8
3
 10
345.22950788271498
 20
130.04100426053611
 30
0.0
 11
345.50000788271433
 21
129.5724845170902
 31
0.0
  0
LINE
  5
13FD3
  8
3
 10
342.77050788271362
 20
130.04100426053611
 30
0.0
 11
342.50000788271433
 21
129.5724845170902
 31
0.0
  0
LINE
  5
13FD4
  8
0
 10
342.50000788271433
 20
130.04100426053611
 30
0.0
 11
345.50000788271433
 21
130.04100426053611
 31
0.0
  0
LINE
  5
13FD5
  8
1
 10
344.00000788271433
 20
136.04100382328039
 30
0.0
 11
344.00000788271433
 21
123.54100423445919
 31
0.0
  0
LINE
  5
13FD6
  8
3
 10
366.22950853091493
 20
130.04100426053631
 30
0.0
 11
366.22950853091493
 21
134.04100382328039
 31
0.0
  0
LINE
  5
13FD7
  8
3
 10
363.77050853091481
 20
130.04100426053631
 30
0.0
 11
363.77050853091481
 21
134.04100382328039
 31
0.0
  0
LINE
  5
13FD8
  8
3
 10
366.22950853091561
 20
130.04100426053611
 30
0.0
 11
366.5000085309149
 21
129.5724845170902
 31
0.0
  0
LINE
  5
13FD9
  8
3
 10
363.77050853091413
 20
130.04100426053611
 30
0.0
 11
363.50000853091478
 21
129.5724845170902
 31
0.0
  0
LINE
  5
13FDA
  8
0
 10
363.50000853091478
 20
130.04100426053611
 30
0.0
 11
366.5000085309149
 21
130.04100426053611
 31
0.0
  0
LINE
  5
13FDB
  8
1
 10
365.00000853091478
 20
136.04100382328039
 30
0.0
 11
365.00000853091478
 21
123.54100423445919
 31
0.0
  0
LINE
  5
13FE5
  8
0
 10
308.87436233460909
 20
125.54100423445919
 30
0.0
 11
308.87436233460909
 21
128.54100431874389
 31
0.0
  0
LINE
  5
13FE6
  8
0
 10
303.37436236441141
 20
128.54100431874389
 30
0.0
 11
303.37436236441141
 21
125.54100423445919
 31
0.0
  0
LINE
  5
13FE7
  8
0
 10
307.62436166405678
 20
128.54100431874389
 30
0.0
 11
307.62436166405678
 21
134.04100382328031
 31
0.0
  0
LINE
  5
13FE8
  8
0
 10
304.62436210364109
 20
134.04100382328031
 30
0.0
 11
304.62436210364109
 21
128.54100431874389
 31
0.0
  0
LINE
  5
13FE9
  8
0
 10
296.7500064522028
 20
125.54100423445919
 30
0.0
 11
296.7500064522028
 21
128.54100431874389
 31
0.0
  0
LINE
  5
13FEA
  8
0
 10
291.25000648200518
 20
128.54100431874389
 30
0.0
 11
291.25000648200518
 21
125.54100423445919
 31
0.0
  0
LINE
  5
13FEB
  8
0
 10
295.50000648014247
 20
128.54100431874389
 30
0.0
 11
295.50000648014247
 21
134.04100382328031
 31
0.0
  0
LINE
  5
13FEC
  8
0
 10
292.5000064540655
 20
134.04100382328031
 30
0.0
 11
292.5000064540655
 21
128.54100431874389
 31
0.0
  0
LINE
  5
13FED
  8
0
 10
284.62565056979662
 20
125.54100423445919
 30
0.0
 11
284.62565056979662
 21
128.54100431874389
 31
0.0
  0
LINE
  5
13FEE
  8
0
 10
279.12565059959888
 20
128.54100431874389
 30
0.0
 11
279.12565059959888
 21
125.54100423445919
 31
0.0
  0
LINE
  5
13FEF
  8
0
 10
283.37565083056688
 20
128.54100431874389
 30
0.0
 11
283.37565083056688
 21
134.04100382328031
 31
0.0
  0
LINE
  5
13FF0
  8
0
 10
280.3756512701512
 20
134.04100382328031
 30
0.0
 11
280.3756512701512
 21
128.54100431874389
 31
0.0
  0
ARC
  5
13FFB
  8
0
 10
278.00000646710401
 20
145.31101991550429
 30
0.0
 40
1.0
 50
110.0
 51
180.0
  0
ARC
  5
13FFC
  8
0
 10
310.00000646710401
 20
145.31101991550429
 30
0.0
 40
1.0
 50
0.0
 51
69.999999999999943
  0
LINE
  5
13FFD
  8
0
 10
277.00000554323202
 20
134.54100390523669
 30
0.0
 11
277.50000655651098
 21
134.04100382328031
 31
0.0
  0
LINE
  5
13FFE
  8
0
 10
310.50000637769699
 20
134.04100382328031
 30
0.0
 11
311.00000739097601
 21
134.54100390523669
 31
0.0
  0
LINE
  5
13FFF
  8
0
 10
311.00000739097601
 20
134.54100390523669
 30
0.0
 11
311.00000739097601
 21
145.31102025508881
 31
0.0
  0
LINE
  5
14000
  8
0
 10
277.00000554323202
 20
145.31102025508881
 30
0.0
 11
277.00000554323202
 21
134.54100390523669
 31
0.0
  0
LINE
  5
14001
  8
0
 10
310.34202612936502
 20
146.25071169435981
 30
0.0
 11
303.76319885253912
 21
148.6452109515667
 31
0.0
  0
LINE
  5
14002
  8
0
 10
284.23681408166891
 20
148.6452109515667
 30
0.0
 11
277.6579864898855
 21
146.2507125967482
 31
0.0
  0
ARC
  5
14003
  8
0
 10
303.90000646710399
 20
149.02108722599439
 30
0.0
 40
0.400000000000016
 50
180.0
 51
249.99999999999989
  0
ARC
  5
14004
  8
0
 10
284.10000646710398
 20
149.02108722599439
 30
0.0
 40
0.400000000000016
 50
290.0
 51
0.0
  0
ARC
  5
14007
  8
0
 10
303.200006467104
 20
133.64100421071049
 30
0.0
 40
0.4000000000000057
 50
90.0
 51
180.0
  0
ARC
  5
14008
  8
0
 10
284.80000646710403
 20
133.64100421071049
 30
0.0
 40
0.4000000000000057
 50
0.0
 51
90.0
  0
LINE
  5
14009
  8
0
 10
303.00000607967382
 20
130.69459417462349
 30
0.0
 11
302.8000064194203
 21
131.04100426286459
 31
0.0
  0
LINE
  5
1400A
  8
0
 10
285.20000651478767
 20
131.04100426286459
 30
0.0
 11
285.00000685453421
 21
130.69459417462349
 31
0.0
  0
LINE
  5
1400B
  8
0
 10
303.00000607967382
 20
126.541004223749
 30
0.0
 11
303.00000607967382
 21
130.69459417462349
 31
0.0
  0
LINE
  5
1400C
  8
0
 10
285.00000685453421
 20
130.69459417462349
 30
0.0
 11
285.00000685453421
 21
126.541004223749
 31
0.0
  0
LINE
  5
1400D
  8
0
 10
285.00000685453421
 20
126.541004223749
 30
0.0
 11
286.0000060871244
 21
125.54100423445919
 31
0.0
  0
LINE
  5
1400E
  8
0
 10
302.00000684708363
 20
125.54100423445919
 30
0.0
 11
303.00000607967382
 21
126.541004223749
 31
0.0
  0
LINE
  5
1400F
  8
0
 10
302.8000064194203
 20
131.04100426286459
 30
0.0
 11
302.8000064194203
 21
133.64100450277331
 31
0.0
  0
LINE
  5
14010
  8
0
 10
285.20000651478767
 20
133.64100450277331
 30
0.0
 11
285.20000651478767
 21
131.04100426286459
 31
0.0
  0
LINE
  5
14011
  8
0
 10
308.87436233460909
 20
125.54100423445919
 30
0.0
 11
303.37436236441141
 21
125.54100423445919
 31
0.0
  0
LINE
  5
14012
  8
0
 10
308.87436233460909
 20
128.54100431874389
 30
0.0
 11
303.37436236441141
 21
128.541004318744
 31
0.0
  0
LINE
  5
14013
  8
0
 10
296.7500064522028
 20
125.54100423445919
 30
0.0
 11
291.25000648200518
 21
125.54100423445919
 31
0.0
  0
LINE
  5
14014
  8
0
 10
296.7500064522028
 20
128.54100431874389
 30
0.0
 11
291.25000648200518
 21
128.54100431874389
 31
0.0
  0
LINE
  5
14015
  8
0
 10
284.62565056979662
 20
125.54100423445919
 30
0.0
 11
279.12565059959888
 21
125.54100423445919
 31
0.0
  0
LINE
  5
14016
  8
0
 10
284.62565056979662
 20
128.541004318744
 30
0.0
 11
279.12565059959888
 21
128.54100431874389
 31
0.0
  0
LINE
  5
14019
  8
0
 10
310.50000637769699
 20
134.04100382328031
 30
0.0
 11
277.50000655651098
 21
134.04100382328031
 31
0.0
  0
LINE
  5
1401A
  8
0
 10
277.00000554323202
 20
134.54100390523669
 30
0.0
 11
311.00000739097601
 21
134.54100390523669
 31
0.0
  0
ARC
  5
1401B
  8
0
 10
296.30984955916489
 20
106.1075670920747
 30
0.0
 40
44.076745489017327
 50
108.6072063656751
 51
110.5494101318571
  0
ARC
  5
1401C
  8
0
 10
289.72538339743659
 20
122.91992500548611
 30
0.0
 40
26.024254438413362
 50
109.96793750331921
 51
112.7905014591602
  0
POLYLINE
  5
1401D
  8
0
 66
     1
 10
0.0
 20
0.0
 30
0.0
 70
   128
  0
VERTEX
  5
149FD
  8
0
 10
279.45912089198828
 20
146.7712278813124
 30
0.0
  0
VERTEX
  5
149FE
  8
0
 10
279.42029219120741
 20
146.77942538261411
 30
0.0
  0
VERTEX
  5
149FF
  8
0
 10
279.47458922863012
 20
146.82919339835641
 30
0.0
  0
VERTEX
  5
14A00
  8
0
 10
279.64455652982002
 20
146.91239775717261
 30
0.0
  0
SEQEND
  5
14A01
  8
0
  0
ARC
  5
1401E
  8
0
 10
279.02011454256052
 20
150.3008508871406
 30
0.0
 40
3.5568195256591322
 50
277.08990637177311
 51
287.69166997178661
  0
ARC
  5
1401F
  8
0
 10
274.93834891492361
 20
164.8345300762293
 30
0.0
 40
18.65103923852265
 50
286.06949035590708
 51
290.62907885852621
  0
ARC
  5
14020
  8
0
 10
277.80865894987681
 20
157.8664082133113
 30
0.0
 40
11.120854633769669
 50
289.43740098017508
 51
296.10691751105583
  0
POLYLINE
  5
14021
  8
0
 66
     1
 10
0.0
 20
0.0
 30
0.0
 70
   128
  0
VERTEX
  5
14A02
  8
0
 10
282.88779985159641
 20
148.05098989605901
 30
0.0
  0
VERTEX
  5
14A03
  8
0
 10
282.92662855237728
 20
148.0404827147722
 30
0.0
  0
VERTEX
  5
14A04
  8
0
 10
282.87439532577997
 20
147.98052789270881
 30
0.0
  0
VERTEX
  5
14A05
  8
0
 10
282.70236421376472
 20
147.88016484677789
 30
0.0
  0
SEQEND
  5
14A06
  8
0
  0
ARC
  5
14022
  8
0
 10
283.37311413783152
 20
144.9328529261017
 30
0.0
 40
3.1556787098559309
 50
98.846672125034587
 51
110.9283088202654
  0
LINE
  5
14023
  8
0
 10
303.00000607967382
 20
130.69459417462349
 30
0.0
 11
295.50000648014247
 21
130.69459417462349
 31
0.0
  0
LINE
  5
14024
  8
0
 10
292.5000064540655
 20
130.69459417462349
 30
0.0
 11
285.00000685453421
 21
130.69459417462349
 31
0.0
  0
LINE
  5
14025
  8
0
 10
302.8000064194203
 20
131.04100426286459
 30
0.0
 11
295.50000648014247
 21
131.04100426286459
 31
0.0
  0
LINE
  5
14026
  8
0
 10
292.5000064540655
 20
131.04100426286459
 30
0.0
 11
285.20000651478767
 21
131.04100426286459
 31
0.0
  0
LINE
  5
14027
  8
0
 10
285.00000685453421
 20
126.541004223749
 30
0.0
 11
291.25000648200518
 21
126.541004223749
 31
0.0
  0
LINE
  5
14028
  8
0
 10
296.7500064522028
 20
126.541004223749
 30
0.0
 11
303.00000607967382
 21
126.541004223749
 31
0.0
  0
LINE
  5
14029
  8
0
 10
302.00000684708363
 20
125.54100423445919
 30
0.0
 11
296.7500064522028
 21
125.54100423445919
 31
0.0
  0
LINE
  5
1402A
  8
0
 10
291.25000648200518
 20
125.54100423445919
 30
0.0
 11
286.0000060871244
 21
125.54100423445919
 31
0.0
  0
ARC
  5
1402B
  8
0
 10
286.68412759032202
 20
131.3968368049637
 30
0.0
 40
16.9977710176328
 50
109.7309798236504
 51
113.2425681796168
  0
ARC
  5
1402C
  8
0
 10
291.99622177970042
 20
118.0139640310383
 30
0.0
 40
31.391998143684908
 50
108.4416312970064
 51
110.61092295562889
  0
ARC
  5
1402D
  8
0
 10
282.83726977505847
 20
145.76593934227799
 30
0.0
 40
2.1697424871393132
 50
98.570372278432487
 51
110.8297226190557
  0
POLYLINE
  5
1402E
  8
0
 66
     1
 10
0.0
 20
0.0
 30
0.0
 70
   128
  0
VERTEX
  5
14A07
  8
0
 10
282.37053211778408
 20
147.79389271140101
 30
0.0
  0
VERTEX
  5
14A08
  8
0
 10
282.5177239254117
 20
147.8794719427824
 30
0.0
  0
VERTEX
  5
14A09
  8
0
 10
282.53653757274151
 20
147.9028369635343
 30
0.0
  0
VERTEX
  5
14A0A
  8
0
 10
282.51392599195248
 20
147.9114535599947
 30
0.0
  0
SEQEND
  5
14A0B
  8
0
  0
ARC
  5
1402F
  8
0
 10
277.85857931371419
 20
157.4096864538356
 30
0.0
 40
10.62173278722449
 50
289.48785268787918
 51
295.13705562462849
  0
ARC
  5
14030
  8
0
 10
275.15017980580478
 20
163.9366405102997
 30
0.0
 40
17.682307257145311
 50
286.86860089535412
 51
290.7056571501023
  0
ARC
  5
14031
  8
0
 10
279.5368979836727
 20
149.20147742286349
 30
0.0
 40
2.309541854095126
 50
277.38470491238911
 51
288.80022837329813
  0
POLYLINE
  5
14032
  8
0
 66
     1
 10
0.0
 20
0.0
 30
0.0
 70
   128
  0
VERTEX
  5
14A0C
  8
0
 10
279.97638769447809
 20
147.0151095986366
 30
0.0
  0
VERTEX
  5
14A0D
  8
0
 10
279.82937749475241
 20
146.93867781758311
 30
0.0
  0
VERTEX
  5
14A0E
  8
0
 10
279.81113381683832
 20
146.91844204068181
 30
0.0
  0
VERTEX
  5
14A0F
  8
0
 10
279.83374539762741
 20
146.911092042923
 30
0.0
  0
SEQEND
  5
14A10
  8
0
  0
LINE
  5
14046
  8
0
 10
277.65798680484301
 20
146.25071169435981
 30
0.0
 11
310.34202612936502
 21
146.25071169435981
 31
0.0
  0
LINE
  5
14047
  8
0
 10
284.50000677257782
 20
149.021087154746
 30
0.0
 11
303.50000616163021
 21
149.021087154746
 31
0.0
  0
LINE
  5
14048
  8
0
 10
292.5000064540655
 20
133.64100450277331
 30
0.0
 11
285.20000651478767
 21
133.64100450277331
 31
0.0
  0
LINE
  5
14049
  8
0
 10
302.8000064194203
 20
133.64100450277331
 30
0.0
 11
295.50000648014247
 21
133.64100450277331
 31
0.0
  0
LINE
  5
1404A
  8
1
 10
294.0000069327653
 20
171.29999870061869
 30
0.0
 11
294.0000069327653
 21
109.0
 31
0.0
  0
LINE
  5
1404B
  8
3
 10
283.1051505846977
 20
130.04100426053631
 30
0.0
 11
283.1051505846977
 21
134.04100382328031
 31
0.0
  0
LINE
  5
1404C
  8
3
 10
280.64615058469781
 20
130.04100426053631
 30
0.0
 11
280.64615058469781
 21
134.04100382328031
 31
0.0
  0
LINE
  5
1404D
  8
3
 10
283.10515058469849
 20
130.04100426053611
 30
0.0
 11
283.37565058469778
 21
129.5724845170902
 31
0.0
  0
LINE
  5
1404E
  8
3
 10
280.64615058469701
 20
130.04100426053611
 30
0.0
 11
280.37565058469778
 21
129.5724845170902
 31
0.0
  0
LINE
  5
1404F
  8
0
 10
280.37565058469778
 20
130.04100426053611
 30
0.0
 11
283.37565058469772
 21
130.04100426053611
 31
0.0
  0
LINE
  5
14050
  8
1
 10
281.87565058469778
 20
134.04100382328031
 30
0.0
 11
281.87565058469778
 21
123.54100423445919
 31
0.0
  0
LINE
  5
14051
  8
3
 10
295.22950646710387
 20
130.04100426053631
 30
0.0
 11
295.22950646710387
 21
134.04100382328031
 31
0.0
  0
LINE
  5
14052
  8
3
 10
292.77050646710398
 20
130.04100426053631
 30
0.0
 11
292.77050646710398
 21
134.04100382328031
 31
0.0
  0
LINE
  5
14053
  8
3
 10
295.22950646710478
 20
130.04100426053611
 30
0.0
 11
295.50000646710401
 21
129.5724845170902
 31
0.0
  0
LINE
  5
14054
  8
3
 10
292.77050646710319
 20
130.04100426053611
 30
0.0
 11
292.50000646710401
 21
129.5724845170902
 31
0.0
  0
LINE
  5
14055
  8
0
 10
292.50000646710401
 20
130.04100426053611
 30
0.0
 11
295.5000064671039
 21
130.04100426053611
 31
0.0
  0
LINE
  5
14056
  8
3
 10
307.35386234951022
 20
130.04100426053631
 30
0.0
 11
307.35386234951022
 21
134.04100382328031
 31
0.0
  0
LINE
  5
14057
  8
3
 10
304.89486234951022
 20
130.04100426053631
 30
0.0
 11
304.89486234951022
 21
134.04100382328031
 31
0.0
  0
LINE
  5
14058
  8
3
 10
307.35386234951102
 20
130.04100426053611
 30
0.0
 11
307.62436234951019
 21
129.5724845170902
 31
0.0
  0
LINE
  5
14059
  8
3
 10
304.89486234950942
 20
130.04100426053611
 30
0.0
 11
304.62436234951031
 21
129.5724845170902
 31
0.0
  0
LINE
  5
1405A
  8
0
 10
304.62436234951031
 20
130.04100426053611
 30
0.0
 11
307.62436234951019
 21
130.04100426053611
 31
0.0
  0
LINE
  5
1405B
  8
1
 10
306.12436234951019
 20
134.04100382328031
 30
0.0
 11
306.12436234951019
 21
123.54100423445919
 31
0.0
  0
LINE
  5
14060
  8
0
 10
432.59853975847358
 20
165.9001670181751
 30
0.0
 11
431.58285705372691
 21
166.26984620094299
 31
0.0
  0
LINE
  5
14061
  8
0
 10
412.41716420277947
 20
166.26984620094299
 30
0.0
 11
411.40148149803281
 21
165.9001670181751
 31
0.0
  0
POLYLINE
  5
14062
  8
0
 66
     1
 10
0.0
 20
0.0
 30
0.0
 70
   128
  0
VERTEX
  5
14A11
  8
0
 10
411.02374358102679
 20
161.38866910338399
 30
0.0
  0
VERTEX
  5
14A12
  8
0
 10
410.77944556251168
 20
157.15128922462461
 30
0.0
  0
VERTEX
  5
14A13
  8
0
 10
410.44469004496932
 20
151.32906840741629
 30
0.0
  0
SEQEND
  5
14A14
  8
0
  0
ARC
  5
14063
  8
0
 10
410.94337106550762
 20
151.2999999812414
 30
0.0
 40
0.5000000000000089
 50
176.39310528614641
 51
270.00575941097537
  0
ARC
  5
14064
  8
0
 10
414.14271015730651
 20
161.3873314350142
 30
0.0
 40
3.1173341036921549
 50
154.82151245839719
 51
179.98308263121589
  0
ARC
  5
14065
  8
0
 10
441.3061264236473
 20
146.34415220165971
 30
0.0
 40
34.168074384248669
 50
147.5312786984953
 51
151.3634859776158
  0
ARC
  5
14066
  8
0
 10
433.4731205656127
 20
151.2999999812414
 30
0.0
 40
0.5
 50
270.0
 51
2.9999999999990679
  0
LINE
  5
14067
  8
0
 10
433.97243520244962
 20
151.32616826891899
 30
0.0
 11
433.25514918193221
 21
165.01281031966209
 31
0.0
  0
ARC
  5
14068
  8
0
 10
432.25651920115638
 20
164.96047560626161
 30
0.0
 40
1.0000000000000191
 50
2.9999999999990679
 51
69.999999999999943
  0
ARC
  5
14069
  8
0
 10
431.41184713789897
 20
165.7999999812414
 30
0.0
 40
0.5000000000000071
 50
70.000000000003425
 51
90.0
  0
ARC
  5
1406A
  8
0
 10
412.58817411860741
 20
165.7999999812414
 30
0.0
 40
0.5000000000000071
 50
90.0
 51
109.9999999999965
  0
LINE
  5
1406B
  8
0
 10
410.74487207457418
 20
165.01281031966209
 30
0.0
 11
410.02758605405688
 21
151.32616826891899
 31
0.0
  0
ARC
  5
1406C
  8
0
 10
410.5269006908938
 20
151.2999999812414
 30
0.0
 40
0.5
 50
177.00000000000091
 51
270.0
  0
ARC
  5
1406D
  8
0
 10
411.74350205535012
 20
164.96047560626161
 30
0.0
 40
1.0000000000000231
 50
110.0
 51
177.00000000000091
  0
LINE
  5
1406E
  8
0
 10
426.00001035258168
 20
119.8735660277307
 30
0.0
 11
426.00001035258168
 21
125.54100423445919
 31
0.0
  0
LINE
  5
1406F
  8
0
 10
426.00001035258168
 20
116.0000003278255
 30
0.0
 11
426.00001035258168
 21
116.2657494992018
 31
0.0
  0
LINE
  5
14070
  8
0
 10
418.00000997260207
 20
116.2657494992018
 30
0.0
 11
418.00000997260207
 21
116.0000003278255
 31
0.0
  0
LINE
  5
14071
  8
0
 10
418.00000997260207
 20
125.54100423445919
 30
0.0
 11
418.00000997260207
 21
119.8735660277307
 31
0.0
  0
LINE
  5
14072
  8
0
 10
418.00000997260207
 20
116.0000003278255
 30
0.0
 11
418.34723962470889
 21
114.7041217759251
 31
0.0
  0
ARC
  5
14073
  8
0
 10
419.26486918603422
 20
114.9499999812414
 30
0.0
 40
0.9500000000000065
 50
195.00000000000111
 51
270.0
  0
LINE
  5
14074
  8
0
 10
419.07589942216867
 20
117.5239160060882
 30
0.0
 11
418.14240197651088
 21
116.55168881267311
 31
0.0
  0
LINE
  5
14075
  8
0
 10
418.05438105016952
 20
119.6969588622451
 30
0.0
 11
418.955765562132
 21
118.78328019380569
 31
0.0
  0
ARC
  5
14076
  8
0
 10
418.37006660653822
 20
118.0919968973121
 30
0.0
 40
0.9060440732076388
 50
321.17157652648569
 51
49.726618271562529
  0
ARC
  5
14077
  8
0
 10
424.73515113914982
 20
114.9499999812414
 30
0.0
 40
0.9500000000000065
 50
270.0
 51
345.0000000000021
  0
ARC
  5
14078
  8
0
 10
425.55626461247141
 20
118.07692628875211
 30
0.0
 40
0.8398964472702184
 50
145.84039642513869
 51
221.17999740169449
  0
LINE
  5
14079
  8
0
 10
425.88198291137809
 20
116.526075579226
 30
0.0
 11
424.92412090301508
 21
117.5239160060882
 31
0.0
  0
LINE
  5
1407A
  8
0
 10
425.65278070047498
 20
114.7041217759251
 30
0.0
 11
426.00001035258168
 21
116.0000003278255
 31
0.0
  0
LINE
  5
1407B
  8
0
 10
431.50000985711807
 20
149.021087154746
 30
0.0
 11
431.50000985711807
 21
150.80000081658361
 31
0.0
  0
LINE
  5
1407C
  8
0
 10
412.50001046806568
 20
150.80000081658361
 30
0.0
 11
412.50001046806568
 21
149.021087154746
 31
0.0
  0
LINE
  5
1407D
  8
0
 10
433.47312057390809
 20
150.80000081658361
 30
0.0
 11
410.5269006908938
 21
150.7999999812414
 31
0.0
  0
LINE
  5
1407E
  8
0
 10
412.58817365393043
 20
166.29999870061869
 30
0.0
 11
431.41184760257602
 21
166.29999870061869
 31
0.0
  0
POLYLINE
  5
1407F
  8
0
 66
     1
 10
0.0
 20
0.0
 30
0.0
 70
   128
  0
VERTEX
  5
14A15
  8
0
 10
425.72303641587501
 20
119.4713203571737
 30
0.0
  0
VERTEX
  5
14A16
  8
0
 10
425.98129635676742
 20
119.7703475467861
 30
0.0
  0
VERTEX
  5
14A17
  8
0
 10
426.00001035258168
 20
119.8735660277307
 30
0.0
  0
SEQEND
  5
14A18
  8
0
  0
LINE
  5
14080
  8
0
 10
425.72303641587501
 20
119.4713203571737
 30
0.0
 11
425.46411174349493
 21
119.4713203571737
 31
0.0
  0
POLYLINE
  5
14081
  8
0
 66
     1
 10
0.0
 20
0.0
 30
0.0
 70
   128
  0
VERTEX
  5
14A19
  8
0
 10
424.47376939468091
 20
117.6999997682869
 30
0.0
  0
VERTEX
  5
14A1A
  8
0
 10
424.47877176105982
 20
117.85671015828849
 30
0.0
  0
VERTEX
  5
14A1B
  8
0
 10
424.6026583854109
 20
118.48562297970059
 30
0.0
  0
VERTEX
  5
14A1C
  8
0
 10
424.86722570843989
 20
119.0247884355485
 30
0.0
  0
VERTEX
  5
14A1D
  8
0
 10
425.12996251694858
 20
119.3226510062814
 30
0.0
  0
VERTEX
  5
14A1E
  8
0
 10
425.3628446161747
 20
119.45587250962851
 30
0.0
  0
VERTEX
  5
14A1F
  8
0
 10
425.46411174349493
 20
119.4713203571737
 30
0.0
  0
SEQEND
  5
14A20
  8
0
  0
LINE
  5
14082
  8
0
 10
424.47376939468091
 20
117.6999997682869
 30
0.0
 11
424.47376939468091
 21
116.0000003278255
 31
0.0
  0
LINE
  5
14083
  8
0
 10
418.00000997260207
 20
116.0000003278255
 30
0.0
 11
424.47376939468091
 21
116.0000003278255
 31
0.0
  0
POLYLINE
  5
14084
  8
0
 66
     1
 10
0.0
 20
0.0
 30
0.0
 70
   128
  0
VERTEX
  5
14A21
  8
0
 10
420.76574302278459
 20
117.612254280597
 30
0.0
  0
VERTEX
  5
14A22
  8
0
 10
419.82663296163082
 20
117.3341804519296
 30
0.0
  0
VERTEX
  5
14A23
  8
0
 10
419.03084645979112
 20
117.05179785937069
 30
0.0
  0
VERTEX
  5
14A24
  8
0
 10
418.43998654745519
 20
116.7732541784644
 30
0.0
  0
VERTEX
  5
14A25
  8
0
 10
418.14240197651088
 20
116.55168881267311
 30
0.0
  0
VERTEX
  5
14A26
  8
0
 10
418.00790665671229
 20
116.3334622383118
 30
0.0
  0
VERTEX
  5
14A27
  8
0
 10
418.00000997260207
 20
116.2657494992018
 30
0.0
  0
SEQEND
  5
14A28
  8
0
  0
LINE
  5
14085
  8
0
 10
421.17543450091028
 20
117.612254280597
 30
0.0
 11
420.76574302278459
 21
117.612254280597
 31
0.0
  0
POLYLINE
  5
14086
  8
0
 66
     1
 10
0.0
 20
0.0
 30
0.0
 70
   128
  0
VERTEX
  5
14A29
  8
0
 10
421.4263205206953
 20
117.54383559897541
 30
0.0
  0
VERTEX
  5
14A2A
  8
0
 10
421.28536001779139
 20
117.5822419449687
 30
0.0
  0
VERTEX
  5
14A2B
  8
0
 10
421.17543450091028
 20
117.612254280597
 30
0.0
  0
SEQEND
  5
14A2C
  8
0
  0
POLYLINE
  5
14087
  8
0
 66
     1
 10
0.0
 20
0.0
 30
0.0
 70
   128
  0
VERTEX
  5
14A2D
  8
0
 10
422.45191159541719
 20
120.8831550888717
 30
0.0
  0
VERTEX
  5
14A2E
  8
0
 10
422.78493907302618
 20
120.69791782274839
 30
0.0
  0
VERTEX
  5
14A2F
  8
0
 10
423.10792767908418
 20
120.37327926233409
 30
0.0
  0
VERTEX
  5
14A30
  8
0
 10
423.3668673690409
 20
119.8914921246469
 30
0.0
  0
VERTEX
  5
14A31
  8
0
 10
423.48750821780408
 20
119.2749617025256
 30
0.0
  0
VERTEX
  5
14A32
  8
0
 10
423.41192638501531
 20
118.6275542117655
 30
0.0
  0
VERTEX
  5
14A33
  8
0
 10
423.13529005274182
 20
118.041482694447
 30
0.0
  0
VERTEX
  5
14A34
  8
0
 10
422.67508899327368
 20
117.60245443880559
 30
0.0
  0
VERTEX
  5
14A35
  8
0
 10
422.4665928480681
 20
117.49688250571489
 30
0.0
  0
VERTEX
  5
14A36
  8
0
 10
422.07158198958501
 20
117.40729765594
 30
0.0
  0
VERTEX
  5
14A37
  8
0
 10
421.66752619901672
 20
117.4503261558711
 30
0.0
  0
VERTEX
  5
14A38
  8
0
 10
421.4263205206953
 20
117.54383559897541
 30
0.0
  0
SEQEND
  5
14A39
  8
0
  0
LINE
  5
14088
  8
0
 10
422.19283181417268
 20
120.9531518965959
 30
0.0
 11
422.45191159541719
 21
120.8831550888717
 31
0.0
  0
POLYLINE
  5
14089
  8
0
 66
     1
 10
0.0
 20
0.0
 30
0.0
 70
   128
  0
VERTEX
  5
14A3A
  8
0
 10
421.75482424441731
 20
121.06981075927609
 30
0.0
  0
VERTEX
  5
14A3B
  8
0
 10
421.99958590750038
 20
121.00488034635779
 30
0.0
  0
VERTEX
  5
14A3C
  8
0
 10
422.19283181417268
 20
120.9531518965959
 30
0.0
  0
SEQEND
  5
14A3D
  8
0
  0
POLYLINE
  5
1408A
  8
0
 66
     1
 10
0.0
 20
0.0
 30
0.0
 70
   128
  0
VERTEX
  5
14A3E
  8
0
 10
421.3054174464196
 20
121.1548947598785
 30
0.0
  0
VERTEX
  5
14A3F
  8
0
 10
421.41739431768661
 20
121.14964815415441
 30
0.0
  0
VERTEX
  5
14A40
  8
0
 10
421.75482424441731
 20
121.06981075927609
 30
0.0
  0
SEQEND
  5
14A41
  8
0
  0
LINE
  5
1408B
  8
0
 10
421.3054174464196
 20
121.1548947598785
 30
0.0
 11
420.63192954752589
 21
121.1548947598785
 31
0.0
  0
LINE
  5
1408C
  8
0
 10
420.63192954752589
 20
121.1548947598785
 30
0.0
 11
420.63192954752589
 21
121.14673916809259
 31
0.0
  0
POLYLINE
  5
1408D
  8
0
 66
     1
 10
0.0
 20
0.0
 30
0.0
 70
   128
  0
VERTEX
  5
14A42
  8
0
 10
420.63192954752589
 20
121.14673916809259
 30
0.0
  0
VERTEX
  5
14A43
  8
0
 10
420.44953688979149
 20
121.13088316842909
 30
0.0
  0
VERTEX
  5
14A44
  8
0
 10
420.21800078451628
 20
121.0619797334075
 30
0.0
  0
SEQEND
  5
14A45
  8
0
  0
POLYLINE
  5
1408E
  8
0
 66
     1
 10
0.0
 20
0.0
 30
0.0
 70
   128
  0
VERTEX
  5
14A46
  8
0
 10
418.05438105016952
 20
119.6955958716571
 30
0.0
  0
VERTEX
  5
14A47
  8
0
 10
418.00000997260207
 20
119.8735660277307
 30
0.0
  0
VERTEX
  5
14A48
  8
0
 10
418.06432850658888
 20
120.06547296047211
 30
0.0
  0
VERTEX
  5
14A49
  8
0
 10
418.40939981862903
 20
120.36211968958381
 30
0.0
  0
VERTEX
  5
14A4A
  8
0
 10
418.87493398040527
 20
120.59591471776361
 30
0.0
  0
VERTEX
  5
14A4B
  8
0
 10
419.48701640591031
 20
120.8286769092083
 30
0.0
  0
VERTEX
  5
14A4C
  8
0
 10
420.21800078451628
 20
121.0619797334075
 30
0.0
  0
SEQEND
  5
14A4D
  8
0
  0
POLYLINE
  5
1408F
  8
0
 66
     1
 10
0.0
 20
0.0
 30
0.0
 70
   128
  0
VERTEX
  5
14A4E
  8
0
 10
425.88198291137809
 20
116.526075579226
 30
0.0
  0
VERTEX
  5
14A4F
  8
0
 10
426.00001035258168
 20
116.2657494992018
 30
0.0
  0
VERTEX
  5
14A50
  8
0
 10
426.00001035258168
 20
116.2657494992018
 30
0.0
  0
SEQEND
  5
14A51
  8
0
  0
LINE
  5
14090
  8
0
 10
424.66562184505159
 20
121.2999999392778
 30
0.0
 11
424.66562184505159
 21
125.54100423445919
 31
0.0
  0
POLYLINE
  5
14091
  8
0
 66
     1
 10
0.0
 20
0.0
 30
0.0
 70
   128
  0
VERTEX
  5
14A52
  8
0
 10
425.91562181711203
 20
121.2999999392778
 30
0.0
  0
VERTEX
  5
14A53
  8
0
 10
425.90077257715171
 20
120.8978522904217
 30
0.0
  0
VERTEX
  5
14A54
  8
0
 10
425.85228419862688
 20
120.541287060827
 30
0.0
  0
VERTEX
  5
14A55
  8
0
 10
425.7571901101619
 20
120.25770818442101
 30
0.0
  0
VERTEX
  5
14A56
  8
0
 10
425.60392584651709
 20
120.0862903483212
 30
0.0
  0
VERTEX
  5
14A57
  8
0
 10
425.40461909025908
 20
120.0554002411663
 30
0.0
  0
VERTEX
  5
14A58
  8
0
 10
425.18442067317659
 20
120.15617027506229
 30
0.0
  0
VERTEX
  5
14A59
  8
0
 10
424.96555893681938
 20
120.3760443590581
 30
0.0
  0
VERTEX
  5
14A5A
  8
0
 10
424.78054542094469
 20
120.70629600062961
 30
0.0
  0
VERTEX
  5
14A5B
  8
0
 10
424.67690085992223
 20
121.1107875555754
 30
0.0
  0
VERTEX
  5
14A5C
  8
0
 10
424.66562184505159
 20
121.2999999392778
 30
0.0
  0
SEQEND
  5
14A5D
  8
0
  0
LINE
  5
14092
  8
0
 10
425.91562181711203
 20
125.54100423445919
 30
0.0
 11
425.91562181711203
 21
121.2999999392778
 31
0.0
  0
LINE
  5
14093
  8
0
 10
424.37512184493238
 20
114.7041217759251
 30
0.0
 11
424.47376939468091
 21
116.0000003278255
 31
0.0
  0
ARC
  5
14094
  8
0
 10
422.86595476768048
 20
114.7408311296539
 30
0.0
 40
1.509613474937316
 50
335.59550185644218
 51
358.60659803753839
  0
POLYLINE
  5
14095
  8
0
 66
     1
 10
0.0
 20
0.0
 30
0.0
 70
   128
  0
VERTEX
  5
14A5E
  8
0
 10
424.24068612977862
 20
114.1170951873064
 30
0.0
  0
VERTEX
  5
14A5F
  8
0
 10
424.19998500496149
 20
114.0276127830148
 30
0.0
  0
VERTEX
  5
14A60
  8
0
 10
424.23282483592629
 20
114.001966021955
 30
0.0
  0
VERTEX
  5
14A61
  8
0
 10
424.3036684487015
 20
114.0
 30
0.0
  0
SEQEND
  5
14A62
  8
0
  0
LINE
  5
14096
  8
0
 10
424.73496235014198
 20
114.0
 30
0.0
 11
419.26486919634038
 21
114.0
 31
0.0
  0
POLYLINE
  5
14097
  8
0
 66
     1
 10
0.0
 20
0.0
 30
0.0
 70
   128
  0
VERTEX
  5
14A63
  8
0
 10
425.72303641587501
 20
119.4713203571737
 30
0.0
  0
VERTEX
  5
14A64
  8
0
 10
425.29295677319169
 20
119.0159571692347
 30
0.0
  0
VERTEX
  5
14A65
  8
0
 10
424.87135728821158
 20
118.55974554643031
 30
0.0
  0
SEQEND
  5
14A66
  8
0
  0
LINE
  5
14098
  8
0
 10
424.87135728821158
 20
118.55974554643031
 30
0.0
 11
424.86126990057528
 21
118.54852823168039
 31
0.0
  0
POLYLINE
  5
14099
  8
0
 66
     1
 10
0.0
 20
0.0
 30
0.0
 70
   128
  0
VERTEX
  5
14A67
  8
0
 10
413.94638376310468
 20
150.80000081658361
 30
0.0
  0
VERTEX
  5
14A68
  8
0
 10
414.01114607229829
 20
150.8102565407753
 30
0.0
  0
VERTEX
  5
14A69
  8
0
 10
414.07325131818652
 20
150.84060461819169
 30
0.0
  0
VERTEX
  5
14A6A
  8
0
 10
414.1301523335278
 20
150.889798939228
 30
0.0
  0
VERTEX
  5
14A6B
  8
0
 10
414.17951429262757
 20
150.9558222591877
 30
0.0
  0
VERTEX
  5
14A6C
  8
0
 10
414.21931203454727
 20
151.0359662920236
 30
0.0
  0
VERTEX
  5
14A6D
  8
0
 10
414.24791248515248
 20
151.1269416064024
 30
0.0
  0
VERTEX
  5
14A6E
  8
0
 10
414.26414264366031
 20
151.22501732409
 30
0.0
  0
VERTEX
  5
14A6F
  8
0
 10
414.26733708009118
 20
151.32616826891899
 30
0.0
  0
SEQEND
  5
14A70
  8
0
  0
POLYLINE
  5
1409A
  8
0
 66
     1
 10
0.0
 20
0.0
 30
0.0
 70
   128
  0
VERTEX
  5
14A71
  8
0
 10
419.51871117576962
 20
150.80000081658361
 30
0.0
  0
VERTEX
  5
14A72
  8
0
 10
419.58347371779382
 20
150.8102565407753
 30
0.0
  0
VERTEX
  5
14A73
  8
0
 10
419.64557942934329
 20
150.84060461819169
 30
0.0
  0
VERTEX
  5
14A74
  8
0
 10
419.70248021185398
 20
150.889798939228
 30
0.0
  0
VERTEX
  5
14A75
  8
0
 10
419.75184193812311
 20
150.9558222591877
 30
0.0
  0
VERTEX
  5
14A76
  8
0
 10
419.79163944721222
 20
151.0359662920236
 30
0.0
  0
VERTEX
  5
14A77
  8
0
 10
419.82024013064802
 20
151.1269416064024
 30
0.0
  0
VERTEX
  5
14A78
  8
0
 10
419.83647028915578
 20
151.22501732409
 30
0.0
  0
VERTEX
  5
14A79
  8
0
 10
419.83966449275613
 20
151.32616826891899
 30
0.0
  0
SEQEND
  5
14A7A
  8
0
  0
ARC
  5
1409B
  8
0
 10
415.12529198922459
 20
161.44258857941981
 30
0.0
 40
0.9328047667141525
 50
117.3920350707358
 51
183.63491563058071
  0
LINE
  5
1409C
  8
0
 10
419.40322880633181
 20
164.2817556262016
 30
0.0
 11
414.69613056629902
 21
162.2708066701889
 31
0.0
  0
LINE
  5
1409D
  8
0
 10
419.83966449275613
 20
151.32616826891899
 30
0.0
 11
419.40322880633181
 21
164.2817556262016
 31
0.0
  0
LINE
  5
1409E
  8
0
 10
414.19436376541847
 20
161.3834499716759
 30
0.0
 11
414.26733708009118
 21
151.32616826891899
 31
0.0
  0
ARC
  5
1409F
  8
0
 10
413.64475236274302
 20
147.21431251403891
 30
0.0
 40
14.17979298111795
 50
87.778648526783385
 51
92.221351473216615
  0
LINE
  5
140A0
  8
0
 10
413.09514096006751
 20
161.3834499716759
 30
0.0
 11
411.4818555675447
 21
161.3834499716759
 31
0.0
  0
ARC
  5
140A1
  8
0
 10
411.22211532747258
 20
158.6970271803923
 30
0.0
 40
2.6989502414532769
 50
84.477449936731944
 51
94.216345648675784
  0
ARC
  5
140A2
  8
0
 10
420.60820720763599
 20
151.19049714441479
 30
0.0
 40
2.1505731760992912
 50
349.53832479960198
 51
3.616965153557159
  0
LINE
  5
140A3
  8
0
 10
433.25514918193221
 20
165.01281031966209
 30
0.0
 11
422.70929420134053
 21
165.01281031966209
 31
0.0
  0
LINE
  5
140A4
  8
0
 10
422.70929420134053
 20
165.01281031966209
 30
0.0
 11
422.75449664099142
 21
151.32616826891899
 31
0.0
  0
ARC
  5
140A5
  8
0
 10
422.70208236683891
 20
157.204349564214
 30
0.0
 40
7.8084640858449177
 50
89.947082072262418
 51
114.9907224408682
  0
POLYLINE
  5
140A6
  8
0
 66
     1
 10
0.0
 20
0.0
 30
0.0
 70
   128
  0
VERTEX
  5
14A7B
  8
0
 10
412.47904686257237
 20
164.68691074848169
 30
0.0
  0
VERTEX
  5
14A7C
  8
0
 10
412.42679780349141
 20
164.84022879600519
 30
0.0
  0
VERTEX
  5
14A7D
  8
0
 10
412.23827948793769
 20
164.96679180860519
 30
0.0
  0
VERTEX
  5
14A7E
  8
0
 10
411.91750777885318
 20
165.01281031966209
 30
0.0
  0
SEQEND
  5
14A7F
  8
0
  0
LINE
  5
140A7
  8
0
 10
411.91750777885318
 20
165.01281031966209
 30
0.0
 11
410.74487207457418
 21
165.01281031966209
 31
0.0
  0
LINE
  5
140A8
  8
0
 10
436.87436603009701
 20
125.54100423445919
 30
0.0
 11
436.87436603009701
 21
128.54100431874389
 31
0.0
  0
LINE
  5
140A9
  8
0
 10
431.37436605989927
 20
128.54100431874389
 30
0.0
 11
431.37436605989927
 21
125.54100423445919
 31
0.0
  0
LINE
  5
140AA
  8
0
 10
435.62436535954481
 20
128.54100431874389
 30
0.0
 11
435.62436535954481
 21
134.04100382328031
 31
0.0
  0
LINE
  5
140AB
  8
0
 10
432.62436579912901
 20
134.04100382328031
 30
0.0
 11
432.62436579912901
 21
128.54100431874389
 31
0.0
  0
LINE
  5
140B0
  8
0
 10
412.62565426528448
 20
125.54100423445919
 30
0.0
 11
412.62565426528448
 21
128.54100431874389
 31
0.0
  0
LINE
  5
140B1
  8
0
 10
407.12565429508692
 20
128.54100431874389
 30
0.0
 11
407.12565429508692
 21
125.54100423445919
 31
0.0
  0
LINE
  5
140B2
  8
0
 10
411.37565452605492
 20
128.54100431874389
 30
0.0
 11
411.37565452605492
 21
134.04100382328031
 31
0.0
  0
LINE
  5
140B3
  8
0
 10
408.37565496563911
 20
134.04100382328031
 30
0.0
 11
408.37565496563911
 21
128.54100431874389
 31
0.0
  0
ARC
  5
140B4
  8
0
 10
406.00001016259188
 20
145.31101991550429
 30
0.0
 40
1.0
 50
110.0
 51
180.0
  0
ARC
  5
140B5
  8
0
 10
438.00001016259199
 20
145.31101991550429
 30
0.0
 40
1.0
 50
0.0
 51
69.999999999999943
  0
LINE
  5
140B6
  8
0
 10
405.00000923871988
 20
134.54100390523669
 30
0.0
 11
405.5000102519989
 21
134.04100382328031
 31
0.0
  0
LINE
  5
140B7
  8
0
 10
438.50001007318502
 20
134.04100382328031
 30
0.0
 11
439.00001108646393
 21
134.54100390523669
 31
0.0
  0
LINE
  5
140B8
  8
0
 10
439.00001108646393
 20
134.54100390523669
 30
0.0
 11
439.00001108646393
 21
145.31102025508881
 31
0.0
  0
LINE
  5
140B9
  8
0
 10
405.00000923871988
 20
145.31102025508881
 30
0.0
 11
405.00000923871988
 21
134.54100390523669
 31
0.0
  0
LINE
  5
140BA
  8
0
 10
438.34202982485289
 20
146.25071169435981
 30
0.0
 11
431.76320254802698
 21
148.6452109515667
 31
0.0
  0
LINE
  5
140BB
  8
0
 10
412.23681777715677
 20
148.6452109515667
 30
0.0
 11
405.65799018537342
 21
146.2507125967482
 31
0.0
  0
ARC
  5
140BC
  8
0
 10
431.90001016259203
 20
149.02108722599439
 30
0.0
 40
0.400000000000016
 50
180.0
 51
249.99999999999989
  0
ARC
  5
140BD
  8
0
 10
412.10001016259201
 20
149.02108722599439
 30
0.0
 40
0.400000000000016
 50
290.0
 51
0.0
  0
ARC
  5
140BE
  8
0
 10
431.20001016259198
 20
133.64100421071049
 30
0.0
 40
0.4000000000000057
 50
90.0
 51
180.0
  0
ARC
  5
140BF
  8
0
 10
412.80001016259189
 20
133.64100421071049
 30
0.0
 40
0.4000000000000057
 50
0.0
 51
90.0
  0
LINE
  5
140C0
  8
0
 10
431.00000977516169
 20
130.69459417462349
 30
0.0
 11
430.80001011490822
 21
131.04100426286459
 31
0.0
  0
LINE
  5
140C1
  8
0
 10
413.20001021027571
 20
131.04100426286459
 30
0.0
 11
413.00001055002213
 21
130.69459417462349
 31
0.0
  0
LINE
  5
140C2
  8
0
 10
431.00000977516169
 20
126.541004223749
 30
0.0
 11
431.00000977516169
 21
130.69459417462349
 31
0.0
  0
LINE
  5
140C3
  8
0
 10
413.00001055002213
 20
130.69459417462349
 30
0.0
 11
413.00001055002213
 21
126.541004223749
 31
0.0
  0
LINE
  5
140C4
  8
0
 10
413.00001055002213
 20
126.541004223749
 30
0.0
 11
414.00000978261232
 21
125.54100423445919
 31
0.0
  0
LINE
  5
140C5
  8
0
 10
430.00001054257149
 20
125.54100423445919
 30
0.0
 11
431.00000977516169
 21
126.541004223749
 31
0.0
  0
LINE
  5
140C6
  8
0
 10
430.80001011490822
 20
131.04100426286459
 30
0.0
 11
430.80001011490822
 21
133.64100450277331
 31
0.0
  0
LINE
  5
140C7
  8
0
 10
413.20001021027571
 20
133.64100450277331
 30
0.0
 11
413.20001021027571
 21
131.04100426286459
 31
0.0
  0
LINE
  5
140C8
  8
0
 10
436.87436603009701
 20
125.54100423445919
 30
0.0
 11
431.37436605989927
 21
125.54100423445919
 31
0.0
  0
LINE
  5
140C9
  8
0
 10
436.87436603009701
 20
128.54100431874389
 30
0.0
 11
431.37436605989927
 21
128.541004318744
 31
0.0
  0
LINE
  5
140CC
  8
0
 10
412.62565426528448
 20
125.54100423445919
 30
0.0
 11
407.12565429508692
 21
125.54100423445919
 31
0.0
  0
LINE
  5
140CD
  8
0
 10
412.62565426528448
 20
128.541004318744
 30
0.0
 11
407.12565429508692
 21
128.54100431874389
 31
0.0
  0
LINE
  5
140CE
  8
0
 10
438.50001007318502
 20
134.04100382328031
 30
0.0
 11
405.5000102519989
 21
134.04100382328031
 31
0.0
  0
LINE
  5
140CF
  8
0
 10
405.00000923871988
 20
134.54100390523669
 30
0.0
 11
439.00001108646393
 21
134.54100390523669
 31
0.0
  0
LINE
  5
140D9
  8
0
 10
431.00000977516169
 20
130.69459417462349
 30
0.0
 11
413.00001055002213
 21
130.69459417462349
 31
0.0
  0
LINE
  5
140DB
  8
0
 10
430.80001011490828
 20
131.04100426286459
 30
0.0
 11
413.20001021027571
 21
131.04100426286459
 31
0.0
  0
LINE
  5
140DC
  8
0
 10
413.00001055002213
 20
126.541004223749
 30
0.0
 11
431.00000977516169
 21
126.541004223749
 31
0.0
  0
LINE
  5
140DF
  8
0
 10
430.0000105425716
 20
125.54100423445919
 30
0.0
 11
414.00000978261232
 21
125.54100423445919
 31
0.0
  0
LINE
  5
140E8
  8
0
 10
405.65799050033092
 20
146.25071169435981
 30
0.0
 11
438.34202982485289
 21
146.25071169435981
 31
0.0
  0
LINE
  5
140E9
  8
0
 10
412.50001046806568
 20
149.021087154746
 30
0.0
 11
431.50000985711807
 21
149.021087154746
 31
0.0
  0
LINE
  5
140EA
  8
0
 10
430.800010162592
 20
133.64100450277331
 30
0.0
 11
413.20001021027571
 21
133.64100450277331
 31
0.0
  0
LINE
  5
140EC
  8
1
 10
422.00001062825322
 20
171.29999870061869
 30
0.0
 11
422.00001062825322
 21
109.0
 31
0.0
  0
LINE
  5
140ED
  8
3
 10
411.10515428018562
 20
130.04100426053631
 30
0.0
 11
411.10515428018562
 21
134.04100382328031
 31
0.0
  0
LINE
  5
140EE
  8
3
 10
408.64615428018573
 20
130.04100426053631
 30
0.0
 11
408.64615428018573
 21
134.04100382328031
 31
0.0
  0
LINE
  5
140EF
  8
3
 10
411.10515428018641
 20
130.04100426053611
 30
0.0
 11
411.3756542801857
 21
129.5724845170902
 31
0.0
  0
LINE
  5
140F0
  8
3
 10
408.64615428018487
 20
130.04100426053611
 30
0.0
 11
408.3756542801857
 21
129.5724845170902
 31
0.0
  0
LINE
  5
140F1
  8
0
 10
408.3756542801857
 20
130.04100426053611
 30
0.0
 11
411.37565428018559
 21
130.04100426053611
 31
0.0
  0
LINE
  5
140F2
  8
1
 10
409.8756542801857
 20
134.04100382328031
 30
0.0
 11
409.8756542801857
 21
123.54100423445919
 31
0.0
  0
LINE
  5
140F8
  8
3
 10
435.35386604499809
 20
130.04100426053631
 30
0.0
 11
435.35386604499809
 21
134.04100382328031
 31
0.0
  0
LINE
  5
140F9
  8
3
 10
432.8948660449982
 20
130.04100426053631
 30
0.0
 11
432.8948660449982
 21
134.04100382328031
 31
0.0
  0
LINE
  5
140FA
  8
3
 10
435.35386604499888
 20
130.04100426053611
 30
0.0
 11
435.62436604499823
 21
129.5724845170902
 31
0.0
  0
LINE
  5
140FB
  8
3
 10
432.8948660449974
 20
130.04100426053611
 30
0.0
 11
432.62436604499823
 21
129.5724845170902
 31
0.0
  0
LINE
  5
140FC
  8
0
 10
432.62436604499823
 20
130.04100426053611
 30
0.0
 11
435.62436604499811
 21
130.04100426053611
 31
0.0
  0
LINE
  5
140FD
  8
1
 10
434.12436604499823
 20
134.04100382328031
 30
0.0
 11
434.12436604499823
 21
123.54100423445919
 31
0.0
  0
POLYLINE
  5
140FE
  8
0
 66
     1
 10
0.0
 20
0.0
 30
0.0
 70
   128
  0
VERTEX
  5
14A80
  8
0
 10
418.12913621775812
 20
147.92806090414521
 30
0.0
  0
VERTEX
  5
14A81
  8
0
 10
418.2033977843821
 20
147.79183635115621
 30
0.0
  0
VERTEX
  5
14A82
  8
0
 10
418.15119505859911
 20
147.63324888050559
 30
0.0
  0
VERTEX
  5
14A83
  8
0
 10
417.90921067818999
 20
147.34678336977959
 30
0.0
  0
SEQEND
  5
14A84
  8
0
  0
ARC
  5
140FF
  8
0
 10
417.71749606098308
 20
147.18155868968279
 30
0.0
 40
0.8524747356180787
 50
61.126549344376507
 51
94.66411237907495
  0
ARC
  5
14100
  8
0
 10
417.64988402058623
 20
145.813113519615
 30
0.0
 40
2.218097603898106
 50
90.044075420059414
 51
107.5362864022772
  0
ARC
  5
14101
  8
0
 10
417.67913805284849
 20
145.6537565174047
 30
0.0
 40
2.3789483197375301
 50
107.0516685114236
 51
134.62595662782459
  0
POLYLINE
  5
14102
  8
0
 66
     1
 10
0.0
 20
0.0
 30
0.0
 70
   128
  0
VERTEX
  5
14A85
  8
0
 10
415.79422554001212
 20
146.79062174260619
 30
0.0
  0
VERTEX
  5
14A86
  8
0
 10
415.7192200794816
 20
146.9191870987415
 30
0.0
  0
VERTEX
  5
14A87
  8
0
 10
415.7722388766706
 20
147.07120874524119
 30
0.0
  0
VERTEX
  5
14A88
  8
0
 10
416.0079850256443
 20
147.34687277674669
 30
0.0
  0
SEQEND
  5
14A89
  8
0
  0
ARC
  5
14103
  8
0
 10
416.1985805203974
 20
147.7044627900558
 30
0.0
 40
0.9993039628493287
 50
246.13164195585759
 51
274.00256058673318
  0
ARC
  5
14104
  8
0
 10
416.29247486683619
 20
149.28638062030211
 30
0.0
 40
2.5788974249207381
 50
269.46362823799609
 51
284.58339029642121
  0
ARC
  5
14105
  8
0
 10
416.35945814976031
 20
148.92281647453521
 30
0.0
 40
2.210342336983202
 50
285.27593472286833
 51
314.51828730293181
  0
LINE
  5
14106
  8
0
 10
434.36434272676712
 20
147.450772985816
 30
0.0
 11
434.73070919513702
 21
147.45802240073681
 31
0.0
  0
LINE
  5
14107
  8
0
 10
434.74797684699303
 20
147.30682963132861
 30
0.0
 11
434.36434272676712
 21
147.450772985816
 31
0.0
  0
LINE
  5
14108
  8
0
 10
435.11434238404041
 20
147.3138611167669
 30
0.0
 11
434.74797684699303
 21
147.30682963132861
 31
0.0
  0
LINE
  5
14109
  8
0
 10
436.19467284530401
 20
146.90783241391179
 30
0.0
 11
435.11434238404041
 21
147.3138611167669
 31
0.0
  0
LINE
  5
1410A
  8
0
 10
435.72695519775152
 20
146.89004974067211
 30
0.0
 11
436.19467284530401
 21
146.90783241391179
 31
0.0
  0
LINE
  5
1410B
  8
0
 10
436.11058931797737
 20
146.7463373541832
 30
0.0
 11
435.72695519775152
 21
146.89004974067211
 31
0.0
  0
LINE
  5
1410C
  8
0
 10
436.70293189585209
 20
146.7541958540678
 30
0.0
 11
436.11058931797737
 21
146.7463373541832
 31
0.0
  0
LINE
  5
1410D
  8
0
 10
433.36509320884937
 20
148.00565125048161
 30
0.0
 11
436.70293189585209
 21
146.7541958540678
 31
0.0
  0
LINE
  5
1410E
  8
0
 10
433.24046920984978
 20
148.0179651975632
 30
0.0
 11
433.36509320884937
 21
148.00565125048161
 31
0.0
  0
LINE
  5
1410F
  8
0
 10
434.73070919513702
 20
147.45802240073681
 30
0.0
 11
433.24046920984978
 21
148.0179651975632
 31
0.0
  0
POLYLINE
  5
14110
  8
0
 66
     1
 10
0.0
 20
0.0
 30
0.0
 70
   128
  0
VERTEX
  5
14A8A
  8
0
 10
419.51095465570688
 20
148.01306457817549
 30
0.0
  0
VERTEX
  5
14A8B
  8
0
 10
421.14284257637343
 20
147.50793570280069
 30
0.0
  0
VERTEX
  5
14A8C
  8
0
 10
422.76343920035288
 20
146.921152189374
 30
0.0
  0
SEQEND
  5
14A8D
  8
0
  0
LINE
  5
14111
  8
0
 10
422.76343920035288
 20
146.921152189374
 30
0.0
 11
422.68446380272508
 21
147.4671083837747
 31
0.0
  0
LINE
  5
14112
  8
0
 10
422.68446380272508
 20
147.4671083837747
 30
0.0
 11
432.90049828588963
 21
147.4671083837747
 31
0.0
  0
LINE
  5
14113
  8
0
 10
432.90049828588963
 20
147.4671083837747
 30
0.0
 11
434.15824662894011
 21
146.921152189374
 31
0.0
  0
POLYLINE
  5
14114
  8
0
 66
     1
 10
0.0
 20
0.0
 30
0.0
 70
   128
  0
VERTEX
  5
14A8E
  8
0
 10
434.15824662894011
 20
146.921152189374
 30
0.0
  0
VERTEX
  5
14A8F
  8
0
 10
433.56581185013061
 20
147.50724652409551
 30
0.0
  0
VERTEX
  5
14A90
  8
0
 10
432.96775467693811
 20
148.01306457817549
 30
0.0
  0
SEQEND
  5
14A91
  8
0
  0
LINE
  5
14115
  8
0
 10
432.96775467693811
 20
148.01306457817549
 30
0.0
 11
419.51095465570688
 21
148.01306457817549
 31
0.0
  0
LINE
  5
14116
  8
0
 10
434.9971829354763
 20
147.44348073005679
 30
0.0
 11
435.04161261022091
 21
147.4495417773723
 31
0.0
  0
LINE
  5
14117
  8
0
 10
435.38081705570221
 20
147.30409154295921
 30
0.0
 11
434.9971829354763
 21
147.44348073005679
 31
0.0
  0
LINE
  5
14118
  8
0
 10
435.42567327618599
 20
147.3100333809852
 30
0.0
 11
435.38081705570221
 21
147.30409154295921
 31
0.0
  0
LINE
  5
14119
  8
0
 10
436.5039399266243
 20
146.87991881370539
 30
0.0
 11
436.56356692314148
 21
146.89622813463211
 31
0.0
  0
LINE
  5
1411A
  8
0
 10
436.8875740468502
 20
146.7407512813806
 30
0.0
 11
436.5039399266243
 21
146.87991881370539
 31
0.0
  0
LINE
  5
1411B
  8
0
 10
436.94742828607559
 20
146.74633176624769
 30
0.0
 11
436.8875740468502
 21
146.7407512813806
 31
0.0
  0
LINE
  5
1411C
  8
0
 10
413.58702037483448
 20
146.70413354039189
 30
0.0
 11
413.16429771482939
 21
146.71372057497501
 31
0.0
  0
LINE
  5
1411D
  8
0
 10
415.80340418964619
 20
148.01949256658551
 30
0.0
 11
413.58702037483448
 21
146.70413354039189
 31
0.0
  0
LINE
  5
1411E
  8
0
 10
415.4533046670258
 20
148.03056226670739
 30
0.0
 11
415.80340418964619
 21
148.01949256658551
 31
0.0
  0
LINE
  5
1411F
  8
0
 10
413.78776229917997
 20
147.0403093248606
 30
0.0
 11
415.4533046670258
 21
148.03056226670739
 31
0.0
  0
LINE
  5
14120
  8
0
 10
413.7733742967248
 20
147.04052352905271
 30
0.0
 11
413.78776229917997
 21
147.0403093248606
 31
0.0
  0
LINE
  5
14121
  8
0
 10
414.68185199424619
 20
148.03294458985329
 30
0.0
 11
413.7733742967248
 21
147.04052352905271
 31
0.0
  0
LINE
  5
14122
  8
0
 10
414.27420185878867
 20
148.0220648795366
 30
0.0
 11
414.68185199424619
 21
148.03294458985329
 31
0.0
  0
LINE
  5
14123
  8
0
 10
412.05781850963831
 20
146.70609490573409
 30
0.0
 11
414.27420185878867
 21
148.0220648795366
 31
0.0
  0
LINE
  5
14124
  8
0
 10
412.40791756659752
 20
146.71358832716939
 30
0.0
 11
412.05781850963831
 21
146.70609490573409
 31
0.0
  0
LINE
  5
14125
  8
0
 10
414.04859129339462
 20
147.68960507214069
 30
0.0
 11
412.40791756659752
 21
146.71358832716939
 31
0.0
  0
LINE
  5
14126
  8
0
 10
413.16429771482939
 20
146.71372057497501
 30
0.0
 11
414.04859129339462
 21
147.68960507214069
 31
0.0
  0
LINE
  5
14127
  8
0
 10
422.68446380272508
 20
147.4564670920372
 30
0.0
 11
422.76343920035288
 21
146.91051089763641
 31
0.0
  0
LINE
  5
14128
  8
0
 10
422.68446380272508
 20
147.4564670920372
 30
0.0
 11
422.68446380272508
 21
147.4671083837747
 31
0.0
  0
ARC
  5
14129
  8
0
 10
416.38514897426518
 20
148.37489445562031
 30
0.0
 40
1.539349667004374
 50
270.6247122956392
 51
285.92551795096529
  0
ARC
  5
1412A
  8
0
 10
416.3777674919769
 20
147.34080820126829
 30
0.0
 40
0.5057495576439266
 50
241.89688889357271
 51
272.7386811107479
  0
POLYLINE
  5
1412B
  8
0
 66
     1
 10
0.0
 20
0.0
 30
0.0
 70
   128
  0
VERTEX
  5
14A92
  8
0
 10
416.4019326120615
 20
147.35628844797611
 30
0.0
  0
VERTEX
  5
14A93
  8
0
 10
416.1880199238658
 20
147.12456049025059
 30
0.0
  0
VERTEX
  5
14A94
  8
0
 10
416.11777305603027
 20
147.0074951052666
 30
0.0
  0
VERTEX
  5
14A95
  8
0
 10
416.11314065754408
 20
146.9239629209041
 30
0.0
  0
VERTEX
  5
14A96
  8
0
 10
416.13952921703458
 20
146.89468586444849
 30
0.0
  0
SEQEND
  5
14A97
  8
0
  0
ARC
  5
1412C
  8
0
 10
417.77424198863531
 20
146.06635885010601
 30
0.0
 40
1.8833882744919139
 50
110.4620473660077
 51
136.77238333862371
  0
ARC
  5
1412D
  8
0
 10
417.5404321307517
 20
146.43288822055769
 30
0.0
 40
1.4610804483938811
 50
91.39014658222635
 51
106.89420621430401
  0
ARC
  5
1412E
  8
0
 10
417.53361411328427
 20
147.36936922433549
 30
0.0
 40
0.5249506139744832
 50
61.533104016916411
 51
93.126174512975865
  0
POLYLINE
  5
1412F
  8
0
 66
     1
 10
0.0
 20
0.0
 30
0.0
 70
   128
  0
VERTEX
  5
14A98
  8
0
 10
417.51526309177279
 20
147.35632756352419
 30
0.0
  0
VERTEX
  5
14A99
  8
0
 10
417.73295368999243
 20
147.59258361160749
 30
0.0
  0
VERTEX
  5
14A9A
  8
0
 10
417.80450021848083
 20
147.71293842792511
 30
0.0
  0
VERTEX
  5
14A9B
  8
0
 10
417.81079083681112
 20
147.79872068762779
 30
0.0
  0
VERTEX
  5
14A9C
  8
0
 10
417.78383230790502
 20
147.83084945380691
 30
0.0
  0
SEQEND
  5
14A9D
  8
0
  0
ARC
  5
14130
  8
0
 10
416.19107328522779
 20
148.6128704466542
 30
0.0
 40
1.8254803918154581
 50
289.73645081851811
 51
316.50150997961663
  0
LINE
  5
141DC
  8
0
 10
171.2499997853034
 20
-108.1447660169392
 30
0.0
 11
171.2499997853034
 21
-105.14476593265449
 31
0.0
  0
LINE
  5
141DD
  8
0
 10
165.7499998151057
 20
-105.14476593265449
 30
0.0
 11
165.7499998151057
 21
-108.1447660169392
 31
0.0
  0
LINE
  5
141DE
  8
0
 10
170.00000004607369
 20
-105.14476593265449
 30
0.0
 11
170.00000004607369
 21
-99.644766428118174
 31
0.0
  0
LINE
  5
141DF
  8
0
 10
167.00000048565801
 20
-99.644766428118174
 30
0.0
 11
167.00000048565801
 21
-105.14476593265449
 31
0.0
  0
LINE
  5
141E0
  8
0
 10
193.09852936255871
 20
-56.194597162847927
 30
0.0
 11
192.0828466578119
 21
-55.824917980080059
 31
0.0
  0
LINE
  5
141E1
  8
0
 10
172.9171538068646
 20
-55.824917980080059
 30
0.0
 11
171.9014711021178
 21
-56.194597162847927
 31
0.0
  0
ARC
  5
141E2
  8
0
 10
171.0268902949787
 20
-70.794766040687946
 30
0.0
 40
0.5
 50
177.00000000000091
 51
270.0
  0
ARC
  5
141E3
  8
0
 10
193.97311016969769
 20
-70.794766040687946
 30
0.0
 40
0.5
 50
270.0
 51
2.9999999999990909
  0
LINE
  5
141E4
  8
0
 10
171.2448616786593
 20
-57.081953861360958
 30
0.0
 11
170.5275756581419
 21
-70.76859963739436
 31
0.0
  0
LINE
  5
141E5
  8
0
 10
194.4724248065346
 20
-70.76859963739436
 30
0.0
 11
193.7551387860172
 21
-57.081953861360958
 31
0.0
  0
ARC
  5
141E6
  8
0
 10
191.9118367419841
 20
-56.294766040687954
 30
0.0
 40
0.5
 50
70.000000000003539
 51
90.0
  0
ARC
  5
141E7
  8
0
 10
173.0881637226924
 20
-56.294766040687954
 30
0.0
 40
0.5
 50
90.0
 51
109.9999999999964
  0
ARC
  5
141E8
  8
0
 10
172.24349165943511
 20
-57.13429041566782
 30
0.0
 40
0.9999999999999959
 50
110.0
 51
177.00000000000091
  0
ARC
  5
141E9
  8
0
 10
192.7565088052414
 20
-57.13429041566782
 30
0.0
 40
0.9999999999999959
 50
2.9999999999990909
 51
69.999999999999844
  0
LINE
  5
141EA
  8
0
 10
165.4999993084663
 20
-99.144766346161774
 30
0.0
 11
166.0000003217452
 21
-99.644766428118174
 31
0.0
  0
LINE
  5
141EB
  8
0
 10
199.0000001429313
 20
-99.644766428118174
 30
0.0
 11
199.50000115621029
 21
-99.144766346161774
 31
0.0
  0
ARC
  5
141EC
  8
0
 10
166.50000023233821
 20
-88.374750335894205
 30
0.0
 40
1.0
 50
110.0
 51
180.0
  0
ARC
  5
141ED
  8
0
 10
198.50000023233821
 20
-88.374750335894205
 30
0.0
 40
1.0
 50
0.0
 51
69.999999999999844
  0
LINE
  5
141EE
  8
0
 10
199.50000115621029
 20
-99.144766346161774
 30
0.0
 11
199.50000115621029
 21
-88.374749996309674
 31
0.0
  0
LINE
  5
141EF
  8
0
 10
165.4999993084663
 20
-88.374749996309674
 30
0.0
 11
165.4999993084663
 21
-99.144766346161774
 31
0.0
  0
LINE
  5
141F0
  8
0
 10
198.8420198945993
 20
-87.435058557038715
 30
0.0
 11
192.26319220003049
 21
-85.040560082825962
 31
0.0
  0
LINE
  5
141F1
  8
0
 10
172.7368078469031
 20
-85.040559299831784
 30
0.0
 11
166.1579805700772
 21
-87.435058557038715
 31
0.0
  0
ARC
  5
141F2
  8
0
 10
192.40000023233819
 20
-84.664683025404116
 30
0.0
 40
0.4000000000000111
 50
180.0
 51
250.0000000000035
  0
ARC
  5
141F3
  8
0
 10
172.60000023233829
 20
-84.664683025404116
 30
0.0
 40
0.4000000000000208
 50
290.00000000000341
 51
0.0
  0
LINE
  5
141F4
  8
0
 10
191.99999992686449
 20
-84.664683096652425
 30
0.0
 11
191.99999992686449
 21
-71.294767089729717
 31
0.0
  0
LINE
  5
141F5
  8
0
 10
173.0000005378121
 20
-71.294767089729717
 30
0.0
 11
173.0000005378121
 21
-84.664683096652425
 31
0.0
  0
ARC
  5
141F6
  8
0
 10
191.70000023233831
 20
-100.044766040688
 30
0.0
 40
0.4000000000000341
 50
90.0
 51
180.0
  0
ARC
  5
141F7
  8
0
 10
173.30000023233819
 20
-100.044766040688
 30
0.0
 40
0.4000000000000057
 50
0.0
 51
90.0
  0
LINE
  5
141F8
  8
0
 10
173.5000006197684
 20
-107.1447660276494
 30
0.0
 11
174.4999998523586
 21
-108.1447660169392
 31
0.0
  0
LINE
  5
141FA
  8
0
 10
173.70000028002201
 20
-102.6447659885339
 30
0.0
 11
173.5000006197684
 21
-102.99117607677501
 31
0.0
  0
LINE
  5
141FC
  8
0
 10
173.5000006197684
 20
-100.6447664281182
 30
0.0
 11
173.5000006197684
 21
-107.6447664281181
 31
0.0
  0
LINE
  5
141FD
  8
0
 10
191.30000018465449
 20
-102.6447659885339
 30
0.0
 11
191.30000018465449
 21
-100.0447657486252
 31
0.0
  0
LINE
  5
14201
  8
0
 10
171.2499997853034
 20
-108.1447660169392
 30
0.0
 11
165.7499998151057
 21
-108.1447660169392
 31
0.0
  0
LINE
  5
14202
  8
0
 10
171.2499997853034
 20
-105.14476593265449
 30
0.0
 11
165.7499998151057
 21
-105.14476593265449
 31
0.0
  0
LINE
  5
14203
  8
0
 10
193.97311016969769
 20
-71.294766040687946
 30
0.0
 11
171.0268902866834
 21
-71.294767089729717
 31
0.0
  0
LINE
  5
14204
  8
0
 10
173.0881632580155
 20
-55.794765480404308
 30
0.0
 11
191.9118367419841
 21
-55.794766040687939
 31
0.0
  0
LINE
  5
14205
  8
0
 10
209.50000115621029
 20
-99.644766428118174
 30
0.0
 11
155.49999930846619
 21
-99.644766428118174
 31
0.0
  0
LINE
  5
1421B
  8
0
 10
190.500000147641
 20
-108.1447660169392
 30
0.0
 11
174.4999998523586
 21
-108.1447660169392
 31
0.0
  0
LINE
  5
1421C
  8
0
 10
173.5000006197684
 20
-107.1447660276494
 30
0.0
 11
191.49999938023109
 21
-107.1447660276494
 31
0.0
  0
LINE
  5
1421E
  8
0
 10
191.49999938023089
 20
-102.99117607677491
 30
0.0
 11
173.5000006197684
 21
-102.99117607677501
 31
0.0
  0
LINE
  5
14220
  8
0
 10
191.30000018465449
 20
-102.6447659885339
 30
0.0
 11
173.70000028002201
 21
-102.6447659885339
 31
0.0
  0
ARC
  5
1422A
  8
0
 10
183.87671650687349
 20
-69.632237965986874
 30
0.0
 40
8.9320262632649854
 50
87.142468578804554
 51
92.857531421195446
  0
LINE
  5
1422B
  8
0
 10
184.3220017659211
 20
-60.711317934637478
 30
0.0
 11
184.69860929015209
 21
-70.76859963739436
 31
0.0
  0
ARC
  5
1422C
  8
0
 10
184.2127470026216
 20
-70.807624834446656
 30
0.0
 40
0.4874270493616077
 50
271.95870685265493
 51
4.5922253350879814
  0
ARC
  5
1422D
  8
0
 10
181.12328395780301
 20
-69.632237965986874
 30
0.0
 40
8.9320262632649836
 50
87.142468578804554
 51
92.857531421195446
  0
LINE
  5
1422E
  8
0
 10
180.30139117452441
 20
-70.76859963739436
 30
0.0
 11
180.67799869875549
 21
-60.711317934637478
 31
0.0
  0
ARC
  5
1422F
  8
0
 10
180.78725346205491
 20
-70.807624834446656
 30
0.0
 40
0.4874270493616077
 50
175.40777466491201
 51
268.04129314734831
  0
LINE
  5
14230
  8
0
 10
183.431431247826
 20
-60.711317934637478
 30
0.0
 11
181.56856921685051
 21
-60.711317934637478
 31
0.0
  0
ARC
  5
14231
  8
0
 10
179.24804515496041
 20
-60.558603433137947
 30
0.0
 40
1.4380851353032369
 50
353.90409819560142
 51
30.72029783354251
  0
ARC
  5
14232
  8
0
 10
185.6330345321669
 20
-60.532647987914757
 30
0.0
 40
1.3231514894493479
 50
147.61503950319491
 51
187.76056446766759
  0
ARC
  5
14233
  8
0
 10
186.70065534931209
 20
-70.807625046219925
 30
0.0
 40
0.4874268378355715
 50
271.9587081279833
 51
4.5922523058062881
  0
ARC
  5
14234
  8
0
 10
178.29934511536439
 20
-70.807625046219925
 30
0.0
 40
0.487426837835569
 50
175.40774769419369
 51
268.04129187201988
  0
POLYLINE
  5
14235
  8
0
 66
     1
 10
0.0
 20
0.0
 30
0.0
 70
   128
  0
VERTEX
  5
14A9E
  8
0
 10
186.54849112915929
 20
-57.813012280111721
 30
0.0
  0
VERTEX
  5
14A9F
  8
0
 10
185.5285266688758
 20
-58.79524467194598
 30
0.0
  0
VERTEX
  5
14AA0
  8
0
 10
184.51567471909459
 20
-59.823961236124447
 30
0.0
  0
SEQEND
  5
14AA1
  8
0
  0
LINE
  5
14236
  8
0
 10
187.1865174076253
 20
-70.76859963739436
 30
0.0
 11
186.54849112915929
 21
-57.813012280111721
 31
0.0
  0
POLYLINE
  5
14237
  8
0
 66
     1
 10
0.0
 20
0.0
 30
0.0
 70
   128
  0
VERTEX
  5
14AA2
  8
0
 10
180.48432574558191
 20
-59.823961236124447
 30
0.0
  0
VERTEX
  5
14AA3
  8
0
 10
179.47170569512181
 20
-58.795475639944478
 30
0.0
  0
VERTEX
  5
14AA4
  8
0
 10
178.45150933551719
 20
-57.813012280111721
 30
0.0
  0
SEQEND
  5
14AA5
  8
0
  0
LINE
  5
14238
  8
0
 10
178.45150933551719
 20
-57.813012280111721
 30
0.0
 11
177.8134830570512
 21
-70.76859963739436
 31
0.0
  0
POLYLINE
  5
14239
  8
0
 66
     1
 10
0.0
 20
0.0
 30
0.0
 70
   128
  0
VERTEX
  5
14AA6
  8
0
 10
189.12771821904121
 20
-70.76859963739436
 30
0.0
  0
VERTEX
  5
14AA7
  8
0
 10
189.1249670921558
 20
-70.869748719578197
 30
0.0
  0
VERTEX
  5
14AA8
  8
0
 10
189.1109893372946
 20
-70.967824437265804
 30
0.0
  0
VERTEX
  5
14AA9
  8
0
 10
189.08635818350251
 20
-71.058799751644543
 30
0.0
  0
VERTEX
  5
14AAA
  8
0
 10
189.05208365011151
 20
-71.138941921835354
 30
0.0
  0
VERTEX
  5
14AAB
  8
0
 10
189.0095720342093
 20
-71.204965241794994
 30
0.0
  0
VERTEX
  5
14AAC
  8
0
 10
188.9605681686395
 20
-71.254161425476482
 30
0.0
  0
VERTEX
  5
14AAD
  8
0
 10
188.9070813818567
 20
-71.284511365538052
 30
0.0
  0
VERTEX
  5
14AAE
  8
0
 10
188.85130633550821
 20
-71.294767089729717
 30
0.0
  0
SEQEND
  5
14AAF
  8
0
  0
POLYLINE
  5
1423A
  8
0
 66
     1
 10
0.0
 20
0.0
 30
0.0
 70
   128
  0
VERTEX
  5
14AB0
  8
0
 10
176.14869412916829
 20
-71.294767089729717
 30
0.0
  0
VERTEX
  5
14AB1
  8
0
 10
176.0929190828198
 20
-71.284511365538052
 30
0.0
  0
VERTEX
  5
14AB2
  8
0
 10
176.03943229603701
 20
-71.254161425476482
 30
0.0
  0
VERTEX
  5
14AB3
  8
0
 10
175.9904284304672
 20
-71.204965241794994
 30
0.0
  0
VERTEX
  5
14AB4
  8
0
 10
175.94791681456499
 20
-71.138941921835354
 30
0.0
  0
VERTEX
  5
14AB5
  8
0
 10
175.91364228117399
 20
-71.058799751644543
 30
0.0
  0
VERTEX
  5
14AB6
  8
0
 10
175.88901112738191
 20
-70.967824437265804
 30
0.0
  0
VERTEX
  5
14AB7
  8
0
 10
175.8750333725207
 20
-70.869748719578197
 30
0.0
  0
VERTEX
  5
14AB8
  8
0
 10
175.87228224563529
 20
-70.76859963739436
 30
0.0
  0
SEQEND
  5
14AB9
  8
0
  0
ARC
  5
1423B
  8
0
 10
176.5147052495106
 20
-59.971915611281823
 30
0.0
 40
2.9003575057067481
 50
48.103956569547947
 51
94.852546473055199
  0
LINE
  5
1423C
  8
0
 10
175.87228224563529
 20
-70.76859963739436
 30
0.0
 11
176.2693590759032
 21
-57.081953861360958
 31
0.0
  0
ARC
  5
1423D
  8
0
 10
188.49554234590201
 20
-60.002502467848231
 30
0.0
 40
2.9299958571324951
 50
85.397713961867538
 51
131.6457829955327
  0
LINE
  5
1423E
  8
0
 10
188.73064138877331
 20
-57.081953861360958
 30
0.0
 11
189.12771821904121
 21
-70.76859963739436
 31
0.0
  0
LINE
  5
1423F
  8
0
 10
176.2693590759032
 20
-57.081953861360958
 30
0.0
 11
171.2448616786593
 21
-57.081953861360958
 31
0.0
  0
LINE
  5
14240
  8
0
 10
193.7551387860172
 20
-57.081953861360958
 30
0.0
 11
188.73064138877331
 21
-57.081953861360958
 31
0.0
  0
LINE
  5
14241
  8
0
 10
166.1579805700772
 20
-87.435058557038715
 30
0.0
 11
198.8420198945993
 21
-87.435058557038715
 31
0.0
  0
LINE
  5
14242
  8
0
 10
173.00000023233821
 20
-84.664683096652425
 30
0.0
 11
191.99999992686449
 21
-84.664683096652425
 31
0.0
  0
LINE
  5
14244
  8
0
 10
191.30000018465449
 20
-100.0447657486252
 30
0.0
 11
173.70000028002201
 21
-100.0447657486252
 31
0.0
  0
LINE
  5
14245
  8
1
 10
182.49999999999969
 20
-50.794765760546127
 30
0.0
 11
182.49999999999969
 21
-113.1447660169392
 31
0.0
  0
LINE
  5
14246
  8
3
 10
169.72949980020459
 20
-103.6447659908622
 30
0.0
 11
169.72949980020459
 21
-99.644766428118103
 31
0.0
  0
LINE
  5
14247
  8
3
 10
167.2704998002045
 20
-103.6447659908622
 30
0.0
 11
167.2704998002045
 21
-99.644766428118103
 31
0.0
  0
LINE
  5
14248
  8
3
 10
169.7294998002053
 20
-103.6447659908623
 30
0.0
 11
169.99999980020459
 21
-104.11328573430831
 31
0.0
  0
LINE
  5
14249
  8
3
 10
167.27049980020379
 20
-103.6447659908623
 30
0.0
 11
166.99999980020459
 21
-104.11328573430831
 31
0.0
  0
LINE
  5
1424A
  8
0
 10
166.99999980020459
 20
-103.6447659908623
 30
0.0
 11
169.99999980020459
 21
-103.6447659908623
 31
0.0
  0
LINE
  5
1424B
  8
1
 10
168.49999980020459
 20
-97.644766428118103
 30
0.0
 11
168.49999980020459
 21
-110.6447664281181
 31
0.0
  0
LINE
  5
14254
  8
0
 10
191.49999938023109
 20
-107.1447660276494
 30
0.0
 11
190.50000014764089
 21
-108.1447660169392
 31
0.0
  0
LINE
  5
14255
  8
0
 10
191.29999971997759
 20
-102.6447659885339
 30
0.0
 11
191.49999938023109
 21
-102.99117607677501
 31
0.0
  0
LINE
  5
14256
  8
0
 10
191.49999938023109
 20
-100.6447664281181
 30
0.0
 11
191.49999938023109
 21
-107.6447664281182
 31
0.0
  0
LINE
  5
14257
  8
0
 10
173.699999815345
 20
-102.6447659885339
 30
0.0
 11
173.699999815345
 21
-100.0447657486252
 31
0.0
  0
LINE
  5
14258
  8
0
 10
209.50000115621029
 20
-108.6447664281181
 30
0.0
 11
155.49999930846619
 21
-108.6447664281181
 31
0.0
  0
LINE
  5
14259
  8
0
 10
172.5000006197684
 20
-99.644766428118174
 30
0.0
 11
173.5000006197684
 21
-100.6447664281181
 31
0.0
  0
LINE
  5
1425A
  8
0
 10
192.49999938023109
 20
-99.644766428118174
 30
0.0
 11
191.49999938023109
 21
-100.6447664281181
 31
0.0
  0
LINE
  5
1425B
  8
0
 10
172.5000006197684
 20
-108.6447664281181
 30
0.0
 11
173.5000006197684
 21
-107.6447664281181
 31
0.0
  0
LINE
  5
1425C
  8
0
 10
192.49999938023109
 20
-108.6447664281181
 30
0.0
 11
191.49999938023109
 21
-107.6447664281181
 31
0.0
  0
LINE
  5
1425D
  8
0
 10
173.5000006197684
 20
-100.6447664281181
 30
0.0
 11
173.699999815345
 21
-100.6447664281181
 31
0.0
  0
LINE
  5
1425E
  8
0
 10
191.30000018465441
 20
-100.6447664281182
 30
0.0
 11
191.49999938023109
 21
-100.6447664281182
 31
0.0
  0
LINE
  5
1425F
  8
0
 10
173.5000006197684
 20
-107.6447664281182
 30
0.0
 11
174.000000641887
 21
-107.6447664281182
 31
0.0
  0
LINE
  5
14260
  8
0
 10
190.9999993581124
 20
-107.6447664281182
 30
0.0
 11
191.49999938023109
 21
-107.6447664281182
 31
0.0
  0
LINE
  5
14276
  8
0
 10
166.80000023233819
 20
-100.1447664281181
 30
0.0
 11
166.30000023233819
 21
-99.644766428118174
 31
0.0
  0
LINE
  5
14277
  8
0
 10
171.75000023233821
 20
-105.1447664281181
 30
0.0
 11
165.25000023233821
 21
-105.1447664281181
 31
0.0
  0
LINE
  5
14279
  8
0
 10
165.25000023233821
 20
-108.1447664281181
 30
0.0
 11
164.75000023233829
 21
-108.6447664281181
 31
0.0
  0
LINE
  5
1427F
  8
0
 10
165.25000023233821
 20
-105.1447664281181
 30
0.0
 11
165.25000023233821
 21
-108.1447664281181
 31
0.0
  0
LINE
  5
14280
  8
0
 10
166.80000023233819
 20
-105.14476593265449
 30
0.0
 11
166.80000023233819
 21
-100.1447664281181
 31
0.0
  0
LINE
  5
14281
  8
0
 10
170.2000002323382
 20
-105.14476593265449
 30
0.0
 11
170.2000002323382
 21
-100.1447664281181
 31
0.0
  0
LINE
  5
14282
  8
0
 10
171.75000023233821
 20
-105.1447664281181
 30
0.0
 11
171.75000023233821
 21
-108.1447664281181
 31
0.0
  0
LINE
  5
14283
  8
0
 10
170.2000002323382
 20
-100.1447664281181
 30
0.0
 11
170.7000002323382
 21
-99.644766428118174
 31
0.0
  0
LINE
  5
14284
  8
0
 10
171.75000023233821
 20
-108.1447664281181
 30
0.0
 11
172.25000023233821
 21
-108.6447664281181
 31
0.0
  0
LINE
  5
14285
  8
0
 10
166.80000023233819
 20
-100.1447664281181
 30
0.0
 11
167.00000048565801
 21
-100.1447664281182
 31
0.0
  0
LINE
  5
14286
  8
0
 10
170.00000004607369
 20
-100.1447664281182
 30
0.0
 11
170.2000002323382
 21
-100.1447664281181
 31
0.0
  0
LINE
  5
14287
  8
0
 10
165.25000023233821
 20
-108.1447664281181
 30
0.0
 11
165.7499998151057
 21
-108.1447664281181
 31
0.0
  0
LINE
  5
14288
  8
0
 10
171.2499997853034
 20
-108.1447664281181
 30
0.0
 11
171.75000023233821
 21
-108.1447664281181
 31
0.0
  0
LINE
  5
14294
  8
0
 10
243.50000038743019
 20
-100.6447664281182
 30
0.0
 11
243.50000038743019
 21
-107.6447664281181
 31
0.0
  0
LINE
  5
14297
  8
0
 10
241.24999955296511
 20
-105.14476593265449
 30
0.0
 11
235.74999958276749
 21
-105.14476593265449
 31
0.0
  0
LINE
  5
14298
  8
0
 10
279.50000092387199
 20
-99.644766428118174
 30
0.0
 11
225.49999907612801
 21
-99.644766428118174
 31
0.0
  0
LINE
  5
14299
  8
0
 10
279.50000092387199
 20
-108.6447664281181
 30
0.0
 11
225.49999907612801
 21
-108.6447664281181
 31
0.0
  0
LINE
  5
1429F
  8
1
 10
252.49999976766151
 20
-96.64476642811816
 30
0.0
 11
252.49999976766151
 21
-111.6447664281181
 31
0.0
  0
LINE
  5
142A5
  8
1
 10
238.4999995678663
 20
-97.644766428118103
 30
0.0
 11
238.4999995678663
 21
-110.6447664281181
 31
0.0
  0
LINE
  5
142A8
  8
0
 10
261.49999914789282
 20
-100.6447664281181
 30
0.0
 11
261.49999914789282
 21
-107.6447664281182
 31
0.0
  0
LINE
  5
142AA
  8
0
 10
242.50000038743019
 20
-99.644766428118174
 30
0.0
 11
243.50000038743019
 21
-100.6447664281181
 31
0.0
  0
LINE
  5
142AB
  8
0
 10
262.49999914789282
 20
-99.644766428118174
 30
0.0
 11
261.49999914789282
 21
-100.6447664281181
 31
0.0
  0
LINE
  5
142AC
  8
0
 10
242.50000038743019
 20
-108.6447664281181
 30
0.0
 11
243.50000038743019
 21
-107.6447664281181
 31
0.0
  0
LINE
  5
142AD
  8
0
 10
262.49999914789282
 20
-108.6447664281181
 30
0.0
 11
261.49999914789282
 21
-107.6447664281181
 31
0.0
  0
LINE
  5
142AF
  8
0
 10
243.50000038743019
 20
-100.6447664281182
 30
0.0
 11
261.49999914789282
 21
-100.6447664281182
 31
0.0
  0
LINE
  5
142B1
  8
0
 10
243.50000038743019
 20
-107.6447664281182
 30
0.0
 11
261.49999914789282
 21
-107.6447664281182
 31
0.0
  0
LINE
  5
142B2
  8
0
 10
236.7999999999999
 20
-100.1447664281181
 30
0.0
 11
236.2999999999999
 21
-99.644766428118174
 31
0.0
  0
LINE
  5
142B3
  8
0
 10
241.75
 20
-105.1447664281181
 30
0.0
 11
235.25
 21
-105.1447664281181
 31
0.0
  0
LINE
  5
142B4
  8
0
 10
235.25
 20
-108.1447664281181
 30
0.0
 11
234.75
 21
-108.6447664281181
 31
0.0
  0
LINE
  5
142B5
  8
0
 10
235.25
 20
-105.1447664281181
 30
0.0
 11
235.25
 21
-108.1447664281181
 31
0.0
  0
LINE
  5
142B6
  8
0
 10
236.7999999999999
 20
-105.14476593265449
 30
0.0
 11
236.7999999999999
 21
-100.1447664281181
 31
0.0
  0
LINE
  5
142B7
  8
0
 10
240.1999999999999
 20
-105.14476593265449
 30
0.0
 11
240.1999999999999
 21
-100.1447664281181
 31
0.0
  0
LINE
  5
142B8
  8
0
 10
241.75
 20
-105.1447664281181
 30
0.0
 11
241.75
 21
-108.1447664281181
 31
0.0
  0
LINE
  5
142B9
  8
0
 10
240.1999999999999
 20
-100.1447664281181
 30
0.0
 11
240.69999999999999
 21
-99.644766428118174
 31
0.0
  0
LINE
  5
142BA
  8
0
 10
241.75
 20
-108.1447664281181
 30
0.0
 11
242.25
 21
-108.6447664281181
 31
0.0
  0
LINE
  5
142BB
  8
0
 10
236.7999999999999
 20
-100.1447664281181
 30
0.0
 11
240.19999999999979
 21
-100.1447664281186
 31
0.0
  0
LINE
  5
142BD
  8
0
 10
235.25
 20
-108.1447664281181
 30
0.0
 11
241.75
 21
-108.1447664281181
 31
0.0
  0
LINE
  5
142D3
  8
0
 10
114.000001847744
 20
134.54100390523669
 30
0.0
 11
148.000003695488
 21
134.54100390523669
 31
0.0
  0
LINE
  5
142D4
  8
0
 10
341.00000739097601
 20
134.54100390523669
 30
0.0
 11
375.00000923872
 21
134.54100390523669
 31
0.0
  0
LINE
  5
142DC
  8
1
 10
252.5
 20
-71.094764855300554
 30
0.0
 11
252.5
 21
-33.094764855300546
 31
0.0
  0
LINE
  5
142DD
  8
1
 10
271.5
 20
-52.094764855300539
 30
0.0
 11
233.5
 21
-52.094764855300539
 31
0.0
  0
CIRCLE
  5
142DE
  8
0
 10
252.5
 20
-52.094764855300539
 30
0.0
 40
9.0
  0
CIRCLE
  5
142DF
  8
1
 10
252.5
 20
-52.094764855300539
 30
0.0
 40
14.0
  0
CIRCLE
  5
142E0
  8
0
 10
238.5
 20
-52.094764855300539
 30
0.0
 40
1.7
  0
CIRCLE
  5
142E1
  8
2
 10
238.5
 20
-52.094764855300539
 30
0.0
 40
3.25
  0
LINE
  5
142E2
  8
1
 10
256.875
 20
-59.672487138414382
 30
0.0
 11
262.125
 21
-68.765753878150946
 31
0.0
  0
CIRCLE
  5
142E3
  8
0
 10
259.5
 20
-64.219120508282657
 30
0.0
 40
1.6999999999999991
  0
CIRCLE
  5
142E4
  8
2
 10
259.5
 20
-64.219120508282657
 30
0.0
 40
3.2499999999999991
  0
LINE
  5
142E5
  8
1
 10
256.875
 20
-44.517042572186732
 30
0.0
 11
262.125
 21
-35.423775832450133
 31
0.0
  0
CIRCLE
  5
142E6
  8
0
 10
259.5
 20
-39.97040920231845
 30
0.0
 40
1.6999999999999991
  0
CIRCLE
  5
142E7
  8
2
 10
259.5
 20
-39.97040920231845
 30
0.0
 40
3.2499999999999991
  0
LINE
  5
142F7
  8
0
 10
326.24999955296488
 20
-114.1447660169392
 30
0.0
 11
326.24999955296488
 21
-111.14476593265449
 31
0.0
  0
LINE
  5
142F8
  8
0
 10
320.74999958276732
 20
-111.14476593265449
 30
0.0
 11
320.74999958276732
 21
-114.1447660169392
 31
0.0
  0
LINE
  5
142F9
  8
0
 10
324.99999981373531
 20
-111.14476593265449
 30
0.0
 11
324.99999981373531
 21
-105.6447664281181
 31
0.0
  0
LINE
  5
142FA
  8
0
 10
322.00000025331951
 20
-105.6447664281181
 30
0.0
 11
322.00000025331951
 21
-111.14476593265449
 31
0.0
  0
LINE
  5
142FB
  8
0
 10
348.09852913022019
 20
-62.19459716284792
 30
0.0
 11
347.08284642547352
 21
-61.824917980080059
 31
0.0
  0
LINE
  5
142FC
  8
0
 10
327.91715357452608
 20
-61.824917980080059
 30
0.0
 11
326.90147086977942
 21
-62.19459716284792
 31
0.0
  0
ARC
  5
142FD
  8
0
 10
326.02689006264018
 20
-76.794766040687946
 30
0.0
 40
0.5
 50
177.00000000000091
 51
270.0
  0
ARC
  5
142FE
  8
0
 10
348.97310993735931
 20
-76.794766040687946
 30
0.0
 40
0.5
 50
270.0
 51
2.999999999999079
  0
LINE
  5
142FF
  8
0
 10
326.24486144632078
 20
-63.081953861360951
 30
0.0
 11
325.52757542580338
 21
-76.76859963739436
 31
0.0
  0
LINE
  5
14300
  8
0
 10
349.47242457419611
 20
-76.76859963739436
 30
0.0
 11
348.75513855367882
 21
-63.081953861360951
 31
0.0
  0
ARC
  5
14301
  8
0
 10
346.91183650964558
 20
-62.294766040687939
 30
0.0
 40
0.5
 50
70.000000000003425
 51
90.0
  0
ARC
  5
14302
  8
0
 10
328.08816349035402
 20
-62.294766040687939
 30
0.0
 40
0.5
 50
90.0
 51
109.9999999999965
  0
ARC
  5
14303
  8
0
 10
327.24349142709661
 20
-63.13429041566782
 30
0.0
 40
0.9999999999999959
 50
110.0
 51
177.00000000000091
  0
ARC
  5
14304
  8
0
 10
347.75650857290287
 20
-63.13429041566782
 30
0.0
 40
0.9999999999999959
 50
2.999999999999079
 51
69.999999999999972
  0
LINE
  5
14305
  8
0
 10
320.49999907612778
 20
-105.1447663461617
 30
0.0
 11
321.00000008940668
 21
-105.6447664281181
 31
0.0
  0
LINE
  5
14306
  8
0
 10
353.99999991059281
 20
-105.6447664281181
 30
0.0
 11
354.50000092387182
 21
-105.1447663461617
 31
0.0
  0
ARC
  5
14307
  8
0
 10
321.49999999999977
 20
-94.374750335894205
 30
0.0
 40
1.0
 50
110.0
 51
180.0
  0
ARC
  5
14308
  8
0
 10
353.49999999999977
 20
-94.374750335894205
 30
0.0
 40
1.0
 50
0.0
 51
69.999999999999972
  0
LINE
  5
14309
  8
0
 10
354.50000092387182
 20
-105.1447663461617
 30
0.0
 11
354.50000092387182
 21
-94.374749996309689
 31
0.0
  0
LINE
  5
1430A
  8
0
 10
320.49999907612778
 20
-94.374749996309689
 30
0.0
 11
320.49999907612778
 21
-105.1447663461617
 31
0.0
  0
LINE
  5
1430B
  8
0
 10
353.84201966226078
 20
-93.435058557038715
 30
0.0
 11
347.26319196769202
 21
-91.040560082825948
 31
0.0
  0
LINE
  5
1430C
  8
0
 10
327.73680761456473
 20
-91.040559299831799
 30
0.0
 11
321.15798033773882
 21
-93.435058557038715
 31
0.0
  0
ARC
  5
1430D
  8
0
 10
347.39999999999969
 20
-90.664683025404102
 30
0.0
 40
0.4000000000000111
 50
180.0
 51
250.0000000000035
  0
ARC
  5
1430E
  8
0
 10
327.5999999999998
 20
-90.664683025404102
 30
0.0
 40
0.4000000000000208
 50
290.00000000000341
 51
0.0
  0
LINE
  5
1430F
  8
0
 10
346.99999969452602
 20
-90.664683096652439
 30
0.0
 11
346.99999969452602
 21
-77.294767089729703
 31
0.0
  0
LINE
  5
14310
  8
0
 10
328.00000030547358
 20
-77.294767089729703
 30
0.0
 11
328.00000030547358
 21
-90.664683096652439
 31
0.0
  0
ARC
  5
14311
  8
0
 10
346.69999999999982
 20
-106.044766040688
 30
0.0
 40
0.4000000000000341
 50
90.0
 51
180.0
  0
ARC
  5
14312
  8
0
 10
328.29999999999973
 20
-106.044766040688
 30
0.0
 40
0.4000000000000057
 50
0.0
 51
90.0
  0
LINE
  5
14313
  8
0
 10
328.50000038743002
 20
-113.1447660276494
 30
0.0
 11
329.49999962002022
 21
-114.1447660169392
 31
0.0
  0
LINE
  5
14314
  8
0
 10
328.70000004768349
 20
-108.6447659885339
 30
0.0
 11
328.50000038743002
 21
-108.99117607677501
 31
0.0
  0
LINE
  5
14315
  8
0
 10
328.50000038743002
 20
-106.6447664281182
 30
0.0
 11
328.50000038743002
 21
-113.644766428118
 31
0.0
  0
LINE
  5
14316
  8
0
 10
346.29999995231611
 20
-108.6447659885339
 30
0.0
 11
346.29999995231611
 21
-106.0447657486252
 31
0.0
  0
LINE
  5
14317
  8
0
 10
326.24999955296488
 20
-114.1447660169392
 30
0.0
 11
320.74999958276732
 21
-114.1447660169392
 31
0.0
  0
LINE
  5
14318
  8
0
 10
326.24999955296488
 20
-111.14476593265449
 30
0.0
 11
320.74999958276732
 21
-111.14476593265449
 31
0.0
  0
LINE
  5
14319
  8
0
 10
348.97310993735931
 20
-77.294766040687946
 30
0.0
 11
326.0268900543449
 21
-77.294767089729703
 31
0.0
  0
LINE
  5
1431A
  8
0
 10
328.08816302567698
 20
-61.794765480404308
 30
0.0
 11
346.91183650964558
 21
-61.794766040687954
 31
0.0
  0
LINE
  5
1431B
  8
0
 10
364.50000092387182
 20
-99.644766428118146
 30
0.0
 11
354.50000092387188
 21
-99.644766428118146
 31
0.0
  0
LINE
  5
1431D
  8
0
 10
345.49999991530251
 20
-114.1447660169392
 30
0.0
 11
329.49999962002022
 21
-114.1447660169392
 31
0.0
  0
LINE
  5
1431E
  8
0
 10
328.50000038743002
 20
-113.1447660276494
 30
0.0
 11
346.49999914789259
 21
-113.1447660276494
 31
0.0
  0
LINE
  5
1431F
  8
0
 10
346.49999914789248
 20
-108.99117607677491
 30
0.0
 11
328.50000038743002
 21
-108.99117607677501
 31
0.0
  0
LINE
  5
14320
  8
0
 10
346.29999995231611
 20
-108.6447659885339
 30
0.0
 11
328.70000004768349
 21
-108.6447659885339
 31
0.0
  0
ARC
  5
14321
  8
0
 10
338.87671627453511
 20
-75.632237965986874
 30
0.0
 40
8.9320262632649854
 50
87.142468578804554
 51
92.857531421195446
  0
LINE
  5
14322
  8
0
 10
339.32200153358258
 20
-66.711317934637464
 30
0.0
 11
339.69860905781371
 21
-76.76859963739436
 31
0.0
  0
ARC
  5
14323
  8
0
 10
339.2127467702831
 20
-76.807624834446656
 30
0.0
 40
0.4874270493616077
 50
271.95870685265493
 51
4.5922253350879654
  0
ARC
  5
14324
  8
0
 10
336.12328372546449
 20
-75.632237965986874
 30
0.0
 40
8.9320262632649836
 50
87.142468578804554
 51
92.857531421195446
  0
LINE
  5
14325
  8
0
 10
335.30139094218589
 20
-76.76859963739436
 30
0.0
 11
335.67799846641702
 21
-66.711317934637464
 31
0.0
  0
ARC
  5
14326
  8
0
 10
335.78725322971638
 20
-76.807624834446656
 30
0.0
 40
0.4874270493616077
 50
175.40777466491201
 51
268.04129314734831
  0
LINE
  5
14327
  8
0
 10
338.43143101548748
 20
-66.711317934637464
 30
0.0
 11
336.56856898451201
 21
-66.711317934637464
 31
0.0
  0
ARC
  5
14328
  8
0
 10
334.24804492262189
 20
-66.558603433137947
 30
0.0
 40
1.4380851353032369
 50
353.90409819560142
 51
30.72029783354251
  0
ARC
  5
14329
  8
0
 10
340.63303429982841
 20
-66.532647987914757
 30
0.0
 40
1.3231514894493479
 50
147.61503950319559
 51
187.76056446766759
  0
ARC
  5
1432A
  8
0
 10
341.70065511697362
 20
-76.80762504621994
 30
0.0
 40
0.4874268378355715
 50
271.9587081279833
 51
4.5922523058062996
  0
ARC
  5
1432B
  8
0
 10
333.29934488302592
 20
-76.80762504621994
 30
0.0
 40
0.487426837835569
 50
175.40774769419369
 51
268.04129187201988
  0
POLYLINE
  5
1432C
  8
0
 66
     1
 10
0.0
 20
0.0
 30
0.0
 70
   128
  0
VERTEX
  5
14ABA
  8
0
 10
341.54849089682079
 20
-63.813012280111721
 30
0.0
  0
VERTEX
  5
14ABB
  8
0
 10
340.52852643653728
 20
-64.79524467194598
 30
0.0
  0
VERTEX
  5
14ABC
  8
0
 10
339.5156744867561
 20
-65.823961236124447
 30
0.0
  0
SEQEND
  5
14ABD
  8
0
  0
LINE
  5
1432D
  8
0
 10
342.18651717528678
 20
-76.76859963739436
 30
0.0
 11
341.54849089682079
 21
-63.813012280111721
 31
0.0
  0
POLYLINE
  5
1432E
  8
0
 66
     1
 10
0.0
 20
0.0
 30
0.0
 70
   128
  0
VERTEX
  5
14ABE
  8
0
 10
335.48432551324339
 20
-65.823961236124447
 30
0.0
  0
VERTEX
  5
14ABF
  8
0
 10
334.47170546278329
 20
-64.795475639944485
 30
0.0
  0
VERTEX
  5
14AC0
  8
0
 10
333.45150910317881
 20
-63.813012280111721
 30
0.0
  0
SEQEND
  5
14AC1
  8
0
  0
LINE
  5
1432F
  8
0
 10
333.45150910317881
 20
-63.813012280111721
 30
0.0
 11
332.81348282471282
 21
-76.76859963739436
 31
0.0
  0
POLYLINE
  5
14330
  8
0
 66
     1
 10
0.0
 20
0.0
 30
0.0
 70
   128
  0
VERTEX
  5
14AC2
  8
0
 10
344.12771798670269
 20
-76.76859963739436
 30
0.0
  0
VERTEX
  5
14AC3
  8
0
 10
344.12496685981728
 20
-76.869748719578183
 30
0.0
  0
VERTEX
  5
14AC4
  8
0
 10
344.11098910495622
 20
-76.967824437265804
 30
0.0
  0
VERTEX
  5
14AC5
  8
0
 10
344.08635795116402
 20
-77.058799751644543
 30
0.0
  0
VERTEX
  5
14AC6
  8
0
 10
344.05208341777302
 20
-77.138941921835354
 30
0.0
  0
VERTEX
  5
14AC7
  8
0
 10
344.00957180187078
 20
-77.204965241794994
 30
0.0
  0
VERTEX
  5
14AC8
  8
0
 10
343.960567936301
 20
-77.254161425476482
 30
0.0
  0
VERTEX
  5
14AC9
  8
0
 10
343.90708114951832
 20
-77.284511365538052
 30
0.0
  0
VERTEX
  5
14ACA
  8
0
 10
343.85130610316969
 20
-77.294767089729703
 30
0.0
  0
SEQEND
  5
14ACB
  8
0
  0
POLYLINE
  5
14331
  8
0
 66
     1
 10
0.0
 20
0.0
 30
0.0
 70
   128
  0
VERTEX
  5
14ACC
  8
0
 10
331.14869389682991
 20
-77.294767089729703
 30
0.0
  0
VERTEX
  5
14ACD
  8
0
 10
331.09291885048128
 20
-77.284511365538052
 30
0.0
  0
VERTEX
  5
14ACE
  8
0
 10
331.03943206369848
 20
-77.254161425476482
 30
0.0
  0
VERTEX
  5
14ACF
  8
0
 10
330.99042819812871
 20
-77.204965241794994
 30
0.0
  0
VERTEX
  5
14AD0
  8
0
 10
330.94791658222653
 20
-77.138941921835354
 30
0.0
  0
VERTEX
  5
14AD1
  8
0
 10
330.91364204883553
 20
-77.058799751644543
 30
0.0
  0
VERTEX
  5
14AD2
  8
0
 10
330.88901089504338
 20
-76.967824437265804
 30
0.0
  0
VERTEX
  5
14AD3
  8
0
 10
330.87503314018232
 20
-76.869748719578183
 30
0.0
  0
VERTEX
  5
14AD4
  8
0
 10
330.87228201329691
 20
-76.76859963739436
 30
0.0
  0
SEQEND
  5
14AD5
  8
0
  0
ARC
  5
14332
  8
0
 10
331.5147050171721
 20
-65.97191561128183
 30
0.0
 40
2.9003575057067481
 50
48.103956569547513
 51
94.852546473055199
  0
LINE
  5
14333
  8
0
 10
330.87228201329691
 20
-76.76859963739436
 30
0.0
 11
331.26935884356482
 21
-63.081953861360951
 31
0.0
  0
ARC
  5
14334
  8
0
 10
343.49554211356349
 20
-66.002502467848231
 30
0.0
 40
2.9299958571324951
 50
85.397713961867538
 51
131.64578299553341
  0
LINE
  5
14335
  8
0
 10
343.73064115643479
 20
-63.081953861360951
 30
0.0
 11
344.12771798670269
 21
-76.76859963739436
 31
0.0
  0
LINE
  5
14336
  8
0
 10
331.26935884356482
 20
-63.081953861360951
 30
0.0
 11
326.24486144632078
 21
-63.081953861360951
 31
0.0
  0
LINE
  5
14337
  8
0
 10
348.75513855367882
 20
-63.081953861360951
 30
0.0
 11
343.73064115643479
 21
-63.081953861360951
 31
0.0
  0
LINE
  5
14338
  8
0
 10
321.15798033773882
 20
-93.435058557038715
 30
0.0
 11
353.84201966226078
 21
-93.435058557038715
 31
0.0
  0
LINE
  5
14339
  8
0
 10
327.99999999999977
 20
-90.664683096652439
 30
0.0
 11
346.99999969452602
 21
-90.664683096652439
 31
0.0
  0
LINE
  5
1433A
  8
0
 10
346.29999995231611
 20
-106.0447657486252
 30
0.0
 11
328.70000004768349
 21
-106.0447657486252
 31
0.0
  0
LINE
  5
1433B
  8
1
 10
337.49999984726293
 20
-56.794765760546127
 30
0.0
 11
337.49999984726293
 21
-119.1447660169392
 31
0.0
  0
LINE
  5
1433C
  8
3
 10
324.72949956786613
 20
-109.6447659908622
 30
0.0
 11
324.72949956786613
 21
-105.6447664281181
 31
0.0
  0
LINE
  5
1433D
  8
3
 10
322.27049956786612
 20
-109.6447659908622
 30
0.0
 11
322.27049956786612
 21
-105.6447664281181
 31
0.0
  0
LINE
  5
1433E
  8
3
 10
324.72949956786681
 20
-109.6447659908623
 30
0.0
 11
324.9999995678661
 21
-110.11328573430831
 31
0.0
  0
LINE
  5
1433F
  8
3
 10
322.27049956786539
 20
-109.6447659908623
 30
0.0
 11
321.9999995678661
 21
-110.11328573430831
 31
0.0
  0
LINE
  5
14340
  8
0
 10
321.9999995678661
 20
-109.6447659908623
 30
0.0
 11
324.9999995678661
 21
-109.6447659908623
 31
0.0
  0
LINE
  5
14341
  8
1
 10
323.4999995678661
 20
-103.6447664281181
 30
0.0
 11
323.4999995678661
 21
-116.6447664281181
 31
0.0
  0
LINE
  5
14342
  8
0
 10
346.49999914789259
 20
-113.1447660276494
 30
0.0
 11
345.4999999153024
 21
-114.1447660169392
 31
0.0
  0
LINE
  5
14343
  8
0
 10
346.29999948763913
 20
-108.6447659885339
 30
0.0
 11
346.49999914789259
 21
-108.99117607677501
 31
0.0
  0
LINE
  5
14344
  8
0
 10
346.49999914789259
 20
-106.6447664281181
 30
0.0
 11
346.49999914789259
 21
-113.6447664281182
 31
0.0
  0
LINE
  5
14345
  8
0
 10
328.6999995830065
 20
-108.6447659885339
 30
0.0
 11
328.6999995830065
 21
-106.0447657486252
 31
0.0
  0
LINE
  5
14346
  8
0
 10
327.50000038743002
 20
-105.6447664281181
 30
0.0
 11
328.50000038743002
 21
-106.6447664281181
 31
0.0
  0
LINE
  5
14347
  8
0
 10
347.49999914789259
 20
-105.6447664281181
 30
0.0
 11
346.49999914789259
 21
-106.6447664281181
 31
0.0
  0
LINE
  5
14348
  8
0
 10
327.50000038743002
 20
-114.6447664281181
 30
0.0
 11
328.50000038743002
 21
-113.6447664281181
 31
0.0
  0
LINE
  5
14349
  8
0
 10
347.49999914789259
 20
-114.6447664281181
 30
0.0
 11
346.49999914789259
 21
-113.6447664281181
 31
0.0
  0
LINE
  5
1434A
  8
0
 10
328.50000038743002
 20
-106.6447664281181
 30
0.0
 11
328.6999995830065
 21
-106.6447664281181
 31
0.0
  0
LINE
  5
1434B
  8
0
 10
346.29999995231589
 20
-106.6447664281182
 30
0.0
 11
346.49999914789259
 21
-106.6447664281182
 31
0.0
  0
LINE
  5
1434C
  8
0
 10
328.50000038743002
 20
-113.6447664281182
 30
0.0
 11
329.00000040954848
 21
-113.6447664281182
 31
0.0
  0
LINE
  5
1434D
  8
0
 10
345.99999912577391
 20
-113.6447664281182
 30
0.0
 11
346.49999914789259
 21
-113.6447664281182
 31
0.0
  0
LINE
  5
1434E
  8
0
 10
321.79999999999973
 20
-106.1447664281181
 30
0.0
 11
321.29999999999973
 21
-105.6447664281181
 31
0.0
  0
LINE
  5
1434F
  8
0
 10
326.74999999999977
 20
-111.1447664281181
 30
0.0
 11
320.24999999999977
 21
-111.1447664281181
 31
0.0
  0
LINE
  5
14350
  8
0
 10
320.24999999999977
 20
-114.1447664281181
 30
0.0
 11
319.74999999999977
 21
-114.6447664281181
 31
0.0
  0
LINE
  5
14351
  8
0
 10
320.24999999999977
 20
-111.1447664281181
 30
0.0
 11
320.24999999999977
 21
-114.1447664281181
 31
0.0
  0
LINE
  5
14352
  8
0
 10
321.79999999999973
 20
-111.14476593265449
 30
0.0
 11
321.79999999999973
 21
-106.1447664281181
 31
0.0
  0
LINE
  5
14353
  8
0
 10
325.1999999999997
 20
-111.14476593265449
 30
0.0
 11
325.1999999999997
 21
-106.1447664281181
 31
0.0
  0
LINE
  5
14354
  8
0
 10
326.74999999999977
 20
-111.1447664281181
 30
0.0
 11
326.74999999999977
 21
-114.1447664281181
 31
0.0
  0
LINE
  5
14355
  8
0
 10
325.1999999999997
 20
-106.1447664281181
 30
0.0
 11
325.6999999999997
 21
-105.6447664281181
 31
0.0
  0
LINE
  5
14356
  8
0
 10
326.74999999999977
 20
-114.1447664281181
 30
0.0
 11
327.24999999999977
 21
-114.6447664281181
 31
0.0
  0
LINE
  5
14357
  8
0
 10
321.79999999999973
 20
-106.1447664281181
 30
0.0
 11
322.00000025331951
 21
-106.1447664281182
 31
0.0
  0
LINE
  5
14358
  8
0
 10
324.99999981373531
 20
-106.1447664281182
 30
0.0
 11
325.1999999999997
 21
-106.1447664281181
 31
0.0
  0
LINE
  5
14359
  8
0
 10
320.24999999999977
 20
-114.1447664281181
 30
0.0
 11
320.74999958276732
 21
-114.1447664281181
 31
0.0
  0
LINE
  5
1435A
  8
0
 10
326.24999955296488
 20
-114.1447664281181
 30
0.0
 11
326.74999999999977
 21
-114.1447664281181
 31
0.0
  0
LINE
  5
14373
  8
1
 10
407.49999884378991
 20
-74.594764855300525
 30
0.0
 11
407.49999884378991
 21
-29.594764855300529
 31
0.0
  0
LINE
  5
14374
  8
1
 10
429.99999884379002
 20
-52.094764855300532
 30
0.0
 11
384.99999884379002
 21
-52.094764855300532
 31
0.0
  0
CIRCLE
  5
14375
  8
0
 10
407.49999884378991
 20
-52.094764855300532
 30
0.0
 40
9.0
  0
CIRCLE
  5
14376
  8
1
 10
407.49999884378991
 20
-52.094764855300532
 30
0.0
 40
14.0
  0
CIRCLE
  5
14377
  8
0
 10
393.49999884379002
 20
-52.094764855300532
 30
0.0
 40
1.7
  0
CIRCLE
  5
14378
  8
2
 10
393.49999884379002
 20
-52.094764855300532
 30
0.0
 40
3.25
  0
LINE
  5
14379
  8
1
 10
411.87499884378991
 20
-59.672487138414347
 30
0.0
 11
417.12499884378991
 21
-68.765753878150946
 31
0.0
  0
CIRCLE
  5
1437A
  8
0
 10
414.49999884378991
 20
-64.219120508282629
 30
0.0
 40
1.6999999999999991
  0
CIRCLE
  5
1437B
  8
2
 10
414.49999884378991
 20
-64.219120508282629
 30
0.0
 40
3.2499999999999991
  0
LINE
  5
1437C
  8
1
 10
411.87499884378991
 20
-44.51704257218671
 30
0.0
 11
417.12499884378991
 21
-35.423775832450112
 31
0.0
  0
CIRCLE
  5
1437D
  8
0
 10
414.49999884378991
 20
-39.970409202318429
 30
0.0
 40
1.6999999999999991
  0
CIRCLE
  5
1437E
  8
2
 10
414.49999884378991
 20
-39.970409202318429
 30
0.0
 40
3.2499999999999991
  0
LINE
  5
1440D
  8
0
 10
364.50000092387182
 20
-114.6447664281181
 30
0.0
 11
310.49999907612778
 21
-114.6447664281181
 31
0.0
  0
LINE
  5
1440E
  8
0
 10
354.99999976766128
 20
-105.6447664281181
 30
0.0
 11
319.99999976766122
 21
-105.6447664281181
 31
0.0
  0
LINE
  5
1440F
  8
0
 10
320.49999907612789
 20
-99.644766428118146
 30
0.0
 11
310.49999907612778
 21
-99.644766428118146
 31
0.0
  0
LINE
  5
14410
  8
0
 10
354.99999976766128
 20
-100.1447664281182
 30
0.0
 11
354.99999976766128
 21
-105.6447664281181
 31
0.0
  0
LINE
  5
14411
  8
0
 10
319.99999976766128
 20
-100.144766428118
 30
0.0
 11
319.99999976766128
 21
-105.6447664281181
 31
0.0
  0
LINE
  5
14412
  8
0
 10
319.49999976766139
 20
-99.644766428118061
 30
0.0
 11
319.99999976766139
 21
-100.144766428118
 31
0.0
  0
LINE
  5
14413
  8
0
 10
355.49999976766139
 20
-99.644766428118061
 30
0.0
 11
354.99999976766139
 21
-100.144766428118
 31
0.0
  0
LINE
  5
14414
  8
0
 10
319.99999976766139
 20
-100.144766428118
 30
0.0
 11
320.49999907612789
 21
-100.1447664281181
 31
0.0
  0
LINE
  5
14416
  8
0
 10
354.50000092387188
 20
-100.1447664281182
 30
0.0
 11
354.99999976766128
 21
-100.1447664281182
 31
0.0
  0
LINE
  5
14435
  8
0
 10
398.49999923121999
 20
-106.6447664281181
 30
0.0
 11
398.49999923121999
 21
-113.644766428118
 31
0.0
  0
LINE
  5
1443C
  8
0
 10
434.4999995353233
 20
-99.644766428118174
 30
0.0
 11
380.49999768757931
 21
-99.644766428118174
 31
0.0
  0
LINE
  5
1443D
  8
0
 10
434.49999976766179
 20
-114.644766428118
 30
0.0
 11
380.49999791991792
 21
-114.644766428118
 31
0.0
  0
LINE
  5
1445C
  8
1
 10
407.49999837911258
 20
-94.644766428118146
 30
0.0
 11
407.4999986114513
 21
-119.1447660169391
 31
0.0
  0
LINE
  5
1445D
  8
0
 10
389.99999837911281
 20
-100.144766428118
 30
0.0
 11
389.99999861145142
 21
-105.6447664281181
 31
0.0
  0
LINE
  5
1445E
  8
0
 10
424.99999837911281
 20
-100.1447664281182
 30
0.0
 11
424.9999986114513
 21
-105.6447664281181
 31
0.0
  0
LINE
  5
14464
  8
1
 10
393.49999841165618
 20
-103.644766428118
 30
0.0
 11
393.49999841165618
 21
-116.644766428118
 31
0.0
  0
LINE
  5
14467
  8
0
 10
416.49999799168262
 20
-106.644766428118
 30
0.0
 11
416.49999799168262
 21
-113.6447664281181
 31
0.0
  0
LINE
  5
14469
  8
0
 10
397.49999923121999
 20
-105.6447664281181
 30
0.0
 11
398.49999923121999
 21
-106.6447664281181
 31
0.0
  0
LINE
  5
1446A
  8
0
 10
417.49999799168262
 20
-105.6447664281181
 30
0.0
 11
416.49999799168262
 21
-106.6447664281181
 31
0.0
  0
LINE
  5
1446B
  8
0
 10
397.49999923121999
 20
-114.644766428118
 30
0.0
 11
398.49999923121999
 21
-113.644766428118
 31
0.0
  0
LINE
  5
1446C
  8
0
 10
417.49999799168262
 20
-114.644766428118
 30
0.0
 11
416.49999799168262
 21
-113.644766428118
 31
0.0
  0
LINE
  5
1446E
  8
0
 10
398.49999923121999
 20
-106.6447664281181
 30
0.0
 11
416.49999799168262
 21
-106.6447664281181
 31
0.0
  0
LINE
  5
14470
  8
0
 10
398.49999923121999
 20
-113.6447664281181
 30
0.0
 11
416.49999799168262
 21
-113.6447664281181
 31
0.0
  0
LINE
  5
14471
  8
0
 10
391.79999884378981
 20
-106.144766428118
 30
0.0
 11
391.29999884378981
 21
-105.6447664281181
 31
0.0
  0
LINE
  5
14472
  8
0
 10
396.74999884378991
 20
-111.144766428118
 30
0.0
 11
390.24999884378991
 21
-111.1447664281181
 31
0.0
  0
LINE
  5
14473
  8
0
 10
390.24999884378991
 20
-114.1447664281181
 30
0.0
 11
389.7499988437898
 21
-114.644766428118
 31
0.0
  0
LINE
  5
14474
  8
0
 10
390.24999884378991
 20
-111.144766428118
 30
0.0
 11
390.24999884378991
 21
-114.1447664281181
 31
0.0
  0
LINE
  5
14475
  8
0
 10
391.79999884378981
 20
-111.14476593265439
 30
0.0
 11
391.79999884378981
 21
-106.144766428118
 31
0.0
  0
LINE
  5
14476
  8
0
 10
395.19999884378979
 20
-111.14476593265439
 30
0.0
 11
395.19999884378979
 21
-106.144766428118
 31
0.0
  0
LINE
  5
14477
  8
0
 10
396.74999884378991
 20
-111.144766428118
 30
0.0
 11
396.74999884378991
 21
-114.144766428118
 31
0.0
  0
LINE
  5
14478
  8
0
 10
395.19999884378979
 20
-106.144766428118
 30
0.0
 11
395.69999884378979
 21
-105.6447664281181
 31
0.0
  0
LINE
  5
14479
  8
0
 10
396.74999884378991
 20
-114.1447664281181
 30
0.0
 11
397.24999884378991
 21
-114.644766428118
 31
0.0
  0
LINE
  5
1447A
  8
0
 10
391.79999884378981
 20
-106.144766428118
 30
0.0
 11
395.19999884378979
 21
-106.1447664281185
 31
0.0
  0
LINE
  5
1447C
  8
0
 10
390.24999884378991
 20
-114.1447664281181
 30
0.0
 11
396.74999884378991
 21
-114.1447664281181
 31
0.0
  0
LINE
  5
1447E
  8
0
 10
424.9999986114513
 20
-105.6447664281181
 30
0.0
 11
389.99999861145119
 21
-105.644766428118
 31
0.0
  0
LINE
  5
1447F
  8
0
 10
389.49999837911292
 20
-99.644766428118075
 30
0.0
 11
389.99999837911292
 21
-100.144766428118
 31
0.0
  0
LINE
  5
14480
  8
0
 10
425.49999837911292
 20
-99.644766428118075
 30
0.0
 11
424.99999837911292
 21
-100.144766428118
 31
0.0
  0
LINE
  5
14481
  8
0
 10
389.99999837911292
 20
-100.144766428118
 30
0.0
 11
424.99999837911281
 21
-100.14476642811999
 31
0.0
  0
CIRCLE
  5
14492
  8
0
 10
407.49999884378991
 20
-52.094764855300532
 30
0.0
 40
17.5
  0
LINE
  5
144C5
  8
0
 10
171.2499997853034
 20
-272.01306086902929
 30
0.0
 11
171.2499997853034
 21
-269.0130607847446
 31
0.0
  0
LINE
  5
144C6
  8
0
 10
165.7499998151057
 20
-269.0130607847446
 30
0.0
 11
165.7499998151057
 21
-272.01306086902929
 31
0.0
  0
LINE
  5
144C7
  8
0
 10
170.00000004607369
 20
-269.0130607847446
 30
0.0
 11
170.00000004607369
 21
-266.51306130628552
 31
0.0
  0
LINE
  5
144C8
  8
0
 10
167.00000048565789
 20
-266.51306130628552
 30
0.0
 11
167.00000048565801
 21
-269.0130607847446
 31
0.0
  0
LINE
  5
144C9
  8
0
 10
193.09852936255871
 20
-220.062892014938
 30
0.0
 11
192.0828466578119
 21
-219.69321283217019
 31
0.0
  0
LINE
  5
144CA
  8
0
 10
172.9171538068646
 20
-219.69321283217019
 30
0.0
 11
171.9014711021178
 21
-220.062892014938
 31
0.0
  0
ARC
  5
144CB
  8
0
 10
171.0268902949787
 20
-234.66306089277799
 30
0.0
 40
0.5
 50
177.00000000000091
 51
270.0
  0
ARC
  5
144CC
  8
0
 10
193.97311016969769
 20
-234.66306089277799
 30
0.0
 40
0.5
 50
270.0
 51
2.999999999999079
  0
LINE
  5
144CD
  8
0
 10
171.2448616786593
 20
-220.95024871345109
 30
0.0
 11
170.5275756581419
 21
-234.63689448948449
 31
0.0
  0
LINE
  5
144CE
  8
0
 10
194.4724248065346
 20
-234.63689448948449
 30
0.0
 11
193.7551387860172
 21
-220.95024871345109
 31
0.0
  0
ARC
  5
144CF
  8
0
 10
191.9118367419841
 20
-220.16306089277799
 30
0.0
 40
0.5
 50
70.000000000003652
 51
90.0
  0
ARC
  5
144D0
  8
0
 10
173.0881637226924
 20
-220.16306089277799
 30
0.0
 40
0.5
 50
90.0
 51
109.99999999999621
  0
ARC
  5
144D1
  8
0
 10
172.24349165943511
 20
-221.00258526775789
 30
0.0
 40
0.9999999999999959
 50
109.9999999999997
 51
177.00000000000091
  0
ARC
  5
144D2
  8
0
 10
192.7565088052414
 20
-221.00258526775789
 30
0.0
 40
0.9999999999999959
 50
2.999999999999079
 51
70.000000000000284
  0
LINE
  5
144D3
  8
0
 10
165.4999993084663
 20
-263.01306119825188
 30
0.0
 11
166.0000003217452
 21
-263.51306128020832
 31
0.0
  0
LINE
  5
144D4
  8
0
 10
199.0000001429313
 20
-263.51306128020832
 30
0.0
 11
199.50000115621029
 21
-263.01306119825188
 31
0.0
  0
ARC
  5
144D5
  8
0
 10
166.50000023233821
 20
-252.24304518798431
 30
0.0
 40
1.0
 50
109.9999999999997
 51
180.0
  0
ARC
  5
144D6
  8
0
 10
198.50000023233821
 20
-252.24304518798431
 30
0.0
 40
1.0
 50
0.0
 51
70.000000000000284
  0
LINE
  5
144D7
  8
0
 10
199.50000115621029
 20
-263.01306119825188
 30
0.0
 11
199.50000115621029
 21
-252.24304484839979
 31
0.0
  0
LINE
  5
144D8
  8
0
 10
165.4999993084663
 20
-252.24304484839979
 30
0.0
 11
165.4999993084663
 21
-263.01306119825188
 31
0.0
  0
LINE
  5
144D9
  8
0
 10
198.8420198945993
 20
-251.30335340912879
 30
0.0
 11
192.26319220003049
 21
-248.90885493491609
 31
0.0
  0
LINE
  5
144DA
  8
0
 10
172.7368078469031
 20
-248.9088541519219
 30
0.0
 11
166.1579805700772
 21
-251.30335340912879
 31
0.0
  0
ARC
  5
144DB
  8
0
 10
192.40000023233819
 20
-248.5329778774942
 30
0.0
 40
0.4000000000000111
 50
180.0
 51
250.00000000000369
  0
ARC
  5
144DC
  8
0
 10
172.60000023233829
 20
-248.5329778774942
 30
0.0
 40
0.4000000000000208
 50
290.00000000000392
 51
0.0
  0
LINE
  5
144DD
  8
0
 10
191.99999992686449
 20
-248.53297794874251
 30
0.0
 11
191.99999992686449
 21
-235.16306194181979
 31
0.0
  0
LINE
  5
144DE
  8
0
 10
173.0000005378121
 20
-235.16306194181979
 30
0.0
 11
173.0000005378121
 21
-248.53297794874251
 31
0.0
  0
LINE
  5
144E1
  8
0
 10
173.5000006197684
 20
-271.0130608797395
 30
0.0
 11
174.4999998523586
 21
-272.01306086902929
 31
0.0
  0
LINE
  5
144E3
  8
0
 10
173.5000006197684
 20
-266.85947092886511
 30
0.0
 11
173.5000006197684
 21
-271.51306128020821
 31
0.0
  0
LINE
  5
144E5
  8
0
 10
171.2499997853034
 20
-272.01306086902929
 30
0.0
 11
165.7499998151057
 21
-272.01306086902929
 31
0.0
  0
LINE
  5
144E6
  8
0
 10
171.2499997853034
 20
-269.0130607847446
 30
0.0
 11
165.7499998151057
 21
-269.0130607847446
 31
0.0
  0
LINE
  5
144E7
  8
0
 10
193.97311016969769
 20
-235.16306089277811
 30
0.0
 11
171.0268902866834
 21
-235.16306194181979
 31
0.0
  0
LINE
  5
144E8
  8
0
 10
173.0881632580155
 20
-219.66306033249441
 30
0.0
 11
191.9118367419841
 21
-219.66306089277799
 31
0.0
  0
LINE
  5
144EA
  8
0
 10
209.50000115621029
 20
-272.51306128020821
 30
0.0
 11
155.49999930846619
 21
-272.51306128020821
 31
0.0
  0
LINE
  5
144EB
  8
0
 10
190.500000147641
 20
-272.01306086902929
 30
0.0
 11
174.4999998523586
 21
-272.01306086902929
 31
0.0
  0
LINE
  5
144EC
  8
0
 10
173.5000006197684
 20
-271.0130608797395
 30
0.0
 11
191.49999938023109
 21
-271.0130608797395
 31
0.0
  0
LINE
  5
144ED
  8
0
 10
191.49999938023089
 20
-266.85947092886511
 30
0.0
 11
173.5000006197684
 21
-266.85947092886511
 31
0.0
  0
ARC
  5
144EF
  8
0
 10
183.87671650687349
 20
-233.50053281807701
 30
0.0
 40
8.9320262632649854
 50
87.142468578804454
 51
92.857531421195446
  0
LINE
  5
144F0
  8
0
 10
184.3220017659211
 20
-224.57961278672761
 30
0.0
 11
184.69860929015209
 21
-234.63689448948449
 31
0.0
  0
ARC
  5
144F1
  8
0
 10
184.2127470026216
 20
-234.67591968653679
 30
0.0
 40
0.4874270493616077
 50
271.95870685265481
 51
4.5922253350879654
  0
ARC
  5
144F2
  8
0
 10
181.12328395780301
 20
-233.50053281807701
 30
0.0
 40
8.9320262632649836
 50
87.142468578804454
 51
92.857531421195446
  0
LINE
  5
144F3
  8
0
 10
180.30139117452441
 20
-234.63689448948449
 30
0.0
 11
180.67799869875549
 21
-224.57961278672761
 31
0.0
  0
ARC
  5
144F4
  8
0
 10
180.78725346205491
 20
-234.67591968653679
 30
0.0
 40
0.4874270493616077
 50
175.40777466491201
 51
268.04129314734831
  0
LINE
  5
144F5
  8
0
 10
183.431431247826
 20
-224.57961278672761
 30
0.0
 11
181.56856921685051
 21
-224.57961278672761
 31
0.0
  0
ARC
  5
144F6
  8
0
 10
179.24804515496041
 20
-224.42689828522799
 30
0.0
 40
1.4380851353032369
 50
353.90409819560131
 51
30.720297833541341
  0
ARC
  5
144F7
  8
0
 10
185.6330345321669
 20
-224.4009428400048
 30
0.0
 40
1.3231514894493479
 50
147.61503950319451
 51
187.7605644676679
  0
ARC
  5
144F8
  8
0
 10
186.70065534931209
 20
-234.67591989831001
 30
0.0
 40
0.4874268378355715
 50
271.9587081279833
 51
4.592252305806201
  0
ARC
  5
144F9
  8
0
 10
178.29934511536439
 20
-234.67591989831001
 30
0.0
 40
0.487426837835569
 50
175.4077476941938
 51
268.04129187201988
  0
POLYLINE
  5
144FA
  8
0
 66
     1
 10
0.0
 20
0.0
 30
0.0
 70
   128
  0
VERTEX
  5
14AD6
  8
0
 10
186.54849112915929
 20
-221.68130713220179
 30
0.0
  0
VERTEX
  5
14AD7
  8
0
 10
185.5285266688758
 20
-222.66353952403611
 30
0.0
  0
VERTEX
  5
14AD8
  8
0
 10
184.51567471909459
 20
-223.69225608821449
 30
0.0
  0
SEQEND
  5
14AD9
  8
0
  0
LINE
  5
144FB
  8
0
 10
187.1865174076253
 20
-234.63689448948449
 30
0.0
 11
186.54849112915929
 21
-221.68130713220179
 31
0.0
  0
POLYLINE
  5
144FC
  8
0
 66
     1
 10
0.0
 20
0.0
 30
0.0
 70
   128
  0
VERTEX
  5
14ADA
  8
0
 10
180.48432574558191
 20
-223.69225608821449
 30
0.0
  0
VERTEX
  5
14ADB
  8
0
 10
179.47170569512181
 20
-222.66377049203459
 30
0.0
  0
VERTEX
  5
14ADC
  8
0
 10
178.45150933551719
 20
-221.68130713220179
 30
0.0
  0
SEQEND
  5
14ADD
  8
0
  0
LINE
  5
144FD
  8
0
 10
178.45150933551719
 20
-221.68130713220179
 30
0.0
 11
177.8134830570512
 21
-234.63689448948449
 31
0.0
  0
POLYLINE
  5
144FE
  8
0
 66
     1
 10
0.0
 20
0.0
 30
0.0
 70
   128
  0
VERTEX
  5
14ADE
  8
0
 10
189.12771821904121
 20
-234.63689448948449
 30
0.0
  0
VERTEX
  5
14ADF
  8
0
 10
189.1249670921558
 20
-234.7380435716683
 30
0.0
  0
VERTEX
  5
14AE0
  8
0
 10
189.1109893372946
 20
-234.83611928935591
 30
0.0
  0
VERTEX
  5
14AE1
  8
0
 10
189.08635818350251
 20
-234.92709460373459
 30
0.0
  0
VERTEX
  5
14AE2
  8
0
 10
189.05208365011151
 20
-235.0072367739254
 30
0.0
  0
VERTEX
  5
14AE3
  8
0
 10
189.0095720342093
 20
-235.0732600938851
 30
0.0
  0
VERTEX
  5
14AE4
  8
0
 10
188.9605681686395
 20
-235.12245627756661
 30
0.0
  0
VERTEX
  5
14AE5
  8
0
 10
188.9070813818567
 20
-235.1528062176281
 30
0.0
  0
VERTEX
  5
14AE6
  8
0
 10
188.85130633550821
 20
-235.16306194181979
 30
0.0
  0
SEQEND
  5
14AE7
  8
0
  0
POLYLINE
  5
144FF
  8
0
 66
     1
 10
0.0
 20
0.0
 30
0.0
 70
   128
  0
VERTEX
  5
14AE8
  8
0
 10
176.14869412916829
 20
-235.16306194181979
 30
0.0
  0
VERTEX
  5
14AE9
  8
0
 10
176.0929190828198
 20
-235.1528062176281
 30
0.0
  0
VERTEX
  5
14AEA
  8
0
 10
176.03943229603701
 20
-235.12245627756661
 30
0.0
  0
VERTEX
  5
14AEB
  8
0
 10
175.9904284304672
 20
-235.0732600938851
 30
0.0
  0
VERTEX
  5
14AEC
  8
0
 10
175.94791681456499
 20
-235.0072367739254
 30
0.0
  0
VERTEX
  5
14AED
  8
0
 10
175.91364228117399
 20
-234.92709460373459
 30
0.0
  0
VERTEX
  5
14AEE
  8
0
 10
175.88901112738191
 20
-234.83611928935591
 30
0.0
  0
VERTEX
  5
14AEF
  8
0
 10
175.8750333725207
 20
-234.7380435716683
 30
0.0
  0
VERTEX
  5
14AF0
  8
0
 10
175.87228224563529
 20
-234.63689448948449
 30
0.0
  0
SEQEND
  5
14AF1
  8
0
  0
ARC
  5
14500
  8
0
 10
176.5147052495106
 20
-223.8402104633719
 30
0.0
 40
2.9003575057067481
 50
48.103956569548359
 51
94.852546473055199
  0
LINE
  5
14501
  8
0
 10
175.87228224563529
 20
-234.63689448948449
 30
0.0
 11
176.2693590759032
 21
-220.95024871345109
 31
0.0
  0
ARC
  5
14502
  8
0
 10
188.49554234590201
 20
-223.8707973199383
 30
0.0
 40
2.9299958571324951
 50
85.397713961867623
 51
131.64578299553239
  0
LINE
  5
14503
  8
0
 10
188.73064138877331
 20
-220.95024871345109
 30
0.0
 11
189.12771821904121
 21
-234.63689448948449
 31
0.0
  0
LINE
  5
14504
  8
0
 10
176.2693590759032
 20
-220.95024871345109
 30
0.0
 11
171.2448616786593
 21
-220.95024871345109
 31
0.0
  0
LINE
  5
14505
  8
0
 10
193.7551387860172
 20
-220.95024871345109
 30
0.0
 11
188.73064138877331
 21
-220.95024871345109
 31
0.0
  0
LINE
  5
14506
  8
0
 10
166.1579805700772
 20
-251.30335340912879
 30
0.0
 11
198.8420198945993
 21
-251.30335340912879
 31
0.0
  0
LINE
  5
14507
  8
0
 10
173.00000023233821
 20
-248.53297794874251
 30
0.0
 11
191.99999992686449
 21
-248.53297794874251
 31
0.0
  0
LINE
  5
14509
  8
1
 10
182.49999999999969
 20
-214.6630606126362
 30
0.0
 11
182.49999999999969
 21
-277.0130608690294
 31
0.0
  0
LINE
  5
1450A
  8
3
 10
169.72949980020459
 20
-267.51306084295231
 30
0.0
 11
169.72949980020459
 21
-266.51306130628541
 31
0.0
  0
LINE
  5
1450B
  8
3
 10
167.2704998002045
 20
-267.51306084295231
 30
0.0
 11
167.2704998002045
 21
-266.51306130628552
 31
0.0
  0
LINE
  5
1450C
  8
3
 10
169.7294998002053
 20
-267.51306084295243
 30
0.0
 11
169.99999980020459
 21
-267.98158058639842
 31
0.0
  0
LINE
  5
1450D
  8
3
 10
167.27049980020379
 20
-267.51306084295243
 30
0.0
 11
166.99999980020459
 21
-267.98158058639842
 31
0.0
  0
LINE
  5
1450E
  8
0
 10
166.99999980020459
 20
-267.51306084295243
 30
0.0
 11
169.99999980020459
 21
-267.51306084295243
 31
0.0
  0
LINE
  5
1450F
  8
1
 10
168.49999980020459
 20
-261.51306128020821
 30
0.0
 11
168.49999980020459
 21
-274.51306128020821
 31
0.0
  0
LINE
  5
14510
  8
0
 10
191.49999938023109
 20
-271.0130608797395
 30
0.0
 11
190.50000014764089
 21
-272.01306086902929
 31
0.0
  0
LINE
  5
14511
  8
0
 10
191.29999971997759
 20
-266.51306084062401
 30
0.0
 11
191.49999938023109
 21
-266.85947092886511
 31
0.0
  0
LINE
  5
14512
  8
0
 10
191.49999938023089
 20
-266.85947092886511
 30
0.0
 11
191.49999938023109
 21
-271.51306128020832
 31
0.0
  0
LINE
  5
14516
  8
0
 10
172.5000006197684
 20
-272.51306128020821
 30
0.0
 11
173.5000006197684
 21
-271.51306128020832
 31
0.0
  0
LINE
  5
14517
  8
0
 10
192.49999938023109
 20
-272.51306128020821
 30
0.0
 11
191.49999938023109
 21
-271.51306128020832
 31
0.0
  0
LINE
  5
1451A
  8
0
 10
173.5000006197684
 20
-271.51306128020832
 30
0.0
 11
174.000000641887
 21
-271.51306128020832
 31
0.0
  0
LINE
  5
1451B
  8
0
 10
190.9999993581124
 20
-271.51306128020832
 30
0.0
 11
191.49999938023109
 21
-271.51306128020832
 31
0.0
  0
LINE
  5
1451C
  8
0
 10
166.80000023233819
 20
-267.01306130628552
 30
0.0
 11
166.30000023233819
 21
-266.51306130628552
 31
0.0
  0
LINE
  5
1451D
  8
0
 10
171.75000023233821
 20
-269.01306128020832
 30
0.0
 11
165.25000023233821
 21
-269.01306128020832
 31
0.0
  0
LINE
  5
1451E
  8
0
 10
165.25000023233821
 20
-272.01306128020832
 30
0.0
 11
164.75000023233829
 21
-272.51306128020821
 31
0.0
  0
LINE
  5
1451F
  8
0
 10
165.25000023233821
 20
-269.01306128020832
 30
0.0
 11
165.25000023233821
 21
-272.01306128020832
 31
0.0
  0
LINE
  5
14520
  8
0
 10
166.80000023233819
 20
-269.0130607847446
 30
0.0
 11
166.80000023233819
 21
-267.01306130628558
 31
0.0
  0
LINE
  5
14521
  8
0
 10
170.2000002323382
 20
-269.0130607847446
 30
0.0
 11
170.2000002323382
 21
-267.01306130628552
 31
0.0
  0
LINE
  5
14522
  8
0
 10
171.75000023233821
 20
-269.01306128020832
 30
0.0
 11
171.75000023233821
 21
-272.01306128020832
 31
0.0
  0
LINE
  5
14523
  8
0
 10
170.2000002323382
 20
-267.01306130628552
 30
0.0
 11
170.7000002323382
 21
-266.51306130628552
 31
0.0
  0
LINE
  5
14524
  8
0
 10
171.75000023233821
 20
-272.01306128020832
 30
0.0
 11
172.25000023233821
 21
-272.51306128020821
 31
0.0
  0
LINE
  5
14525
  8
0
 10
166.80000023233819
 20
-267.01306130628552
 30
0.0
 11
167.00000048565801
 21
-267.01306130628558
 31
0.0
  0
LINE
  5
14526
  8
0
 10
170.00000004607381
 20
-267.01306130628558
 30
0.0
 11
170.2000002323382
 21
-267.01306130628552
 31
0.0
  0
LINE
  5
14527
  8
0
 10
165.25000023233821
 20
-272.01306128020832
 30
0.0
 11
165.7499998151057
 21
-272.01306128020832
 31
0.0
  0
LINE
  5
14528
  8
0
 10
171.2499997853034
 20
-272.01306128020832
 30
0.0
 11
171.75000023233821
 21
-272.01306128020832
 31
0.0
  0
LINE
  5
14541
  8
1
 10
252.5
 20
-234.9630597073907
 30
0.0
 11
252.5
 21
-196.96305970739061
 31
0.0
  0
LINE
  5
14542
  8
1
 10
271.5
 20
-215.96305970739061
 30
0.0
 11
233.5
 21
-215.96305970739061
 31
0.0
  0
CIRCLE
  5
14543
  8
0
 10
252.5
 20
-215.96305970739061
 30
0.0
 40
9.0
  0
CIRCLE
  5
14544
  8
1
 10
252.5
 20
-215.96305970739061
 30
0.0
 40
14.0
  0
CIRCLE
  5
14545
  8
0
 10
238.5
 20
-215.96305970739061
 30
0.0
 40
1.7
  0
CIRCLE
  5
14546
  8
2
 10
238.5
 20
-215.96305970739061
 30
0.0
 40
3.25
  0
LINE
  5
14547
  8
1
 10
256.875
 20
-223.54078199050451
 30
0.0
 11
262.125
 21
-232.63404873024101
 31
0.0
  0
CIRCLE
  5
14548
  8
0
 10
259.5
 20
-228.0874153603728
 30
0.0
 40
1.6999999999999991
  0
CIRCLE
  5
14549
  8
2
 10
259.5
 20
-228.0874153603728
 30
0.0
 40
3.2499999999999991
  0
LINE
  5
1454A
  8
1
 10
256.875
 20
-208.3853374242768
 30
0.0
 11
262.125
 21
-199.29207068454019
 31
0.0
  0
CIRCLE
  5
1454B
  8
0
 10
259.5
 20
-203.83870405440859
 30
0.0
 40
1.6999999999999991
  0
CIRCLE
  5
1454C
  8
2
 10
259.5
 20
-203.83870405440859
 30
0.0
 40
3.2499999999999991
  0
LINE
  5
1454D
  8
0
 10
326.24999978530349
 20
-274.01306089510638
 30
0.0
 11
326.24999978530349
 21
-271.01306081082168
 31
0.0
  0
LINE
  5
1454E
  8
0
 10
320.74999981510592
 20
-271.01306081082168
 30
0.0
 11
320.74999981510592
 21
-274.01306089510638
 31
0.0
  0
LINE
  5
1454F
  8
0
 10
325.00000004607392
 20
-271.01306081082168
 30
0.0
 11
325.00000004607392
 21
-268.51306130628529
 31
0.0
  0
LINE
  5
14550
  8
0
 10
322.00000048565812
 20
-268.51306130628529
 30
0.0
 11
322.00000048565812
 21
-271.01306081082168
 31
0.0
  0
LINE
  5
14551
  8
0
 10
348.09852936255879
 20
-222.06289204101509
 30
0.0
 11
347.08284665781213
 21
-221.69321285824719
 31
0.0
  0
LINE
  5
14552
  8
0
 10
327.91715380686469
 20
-221.69321285824719
 30
0.0
 11
326.90147110211802
 21
-222.06289204101509
 31
0.0
  0
ARC
  5
14553
  8
0
 10
326.02689029497878
 20
-236.66306091885511
 30
0.0
 40
0.5
 50
177.00000000000091
 51
270.0
  0
ARC
  5
14554
  8
0
 10
348.97311016969792
 20
-236.66306091885511
 30
0.0
 40
0.5
 50
270.0
 51
2.999999999999079
  0
LINE
  5
14555
  8
0
 10
326.24486167865939
 20
-222.95024873952809
 30
0.0
 11
325.52757565814198
 21
-236.63689451556149
 31
0.0
  0
LINE
  5
14556
  8
0
 10
349.47242480653472
 20
-236.63689451556149
 30
0.0
 11
348.75513878601743
 21
-222.95024873952809
 31
0.0
  0
ARC
  5
14557
  8
0
 10
346.91183674198419
 20
-222.16306091885511
 30
0.0
 40
0.5
 50
70.000000000003652
 51
90.0
  0
ARC
  5
14558
  8
0
 10
328.08816372269263
 20
-222.16306091885511
 30
0.0
 40
0.5
 50
90.0
 51
109.99999999999621
  0
ARC
  5
14559
  8
0
 10
327.24349165943522
 20
-223.00258529383501
 30
0.0
 40
0.9999999999999959
 50
109.9999999999996
 51
177.00000000000091
  0
ARC
  5
1455A
  8
0
 10
347.75650880524148
 20
-223.00258529383501
 30
0.0
 40
0.9999999999999959
 50
2.999999999999079
 51
70.000000000000284
  0
LINE
  5
1455B
  8
0
 10
320.49999930846639
 20
-265.01306122432891
 30
0.0
 11
321.00000032174529
 21
-265.51306130628529
 31
0.0
  0
LINE
  5
1455C
  8
0
 10
354.00000014293141
 20
-265.51306130628529
 30
0.0
 11
354.50000115621037
 21
-265.01306122432891
 31
0.0
  0
ARC
  5
1455D
  8
0
 10
321.50000023233838
 20
-254.24304521406131
 30
0.0
 40
1.0
 50
109.9999999999996
 51
180.0
  0
ARC
  5
1455E
  8
0
 10
353.50000023233838
 20
-254.24304521406131
 30
0.0
 40
1.0
 50
0.0
 51
70.000000000000284
  0
LINE
  5
1455F
  8
0
 10
354.50000115621037
 20
-265.01306122432891
 30
0.0
 11
354.50000115621037
 21
-254.24304487447679
 31
0.0
  0
LINE
  5
14560
  8
0
 10
320.49999930846639
 20
-254.24304487447679
 30
0.0
 11
320.49999930846639
 21
-265.01306122432891
 31
0.0
  0
LINE
  5
14561
  8
0
 10
353.84201989459939
 20
-253.30335343520591
 30
0.0
 11
347.26319220003069
 21
-250.9088549609931
 31
0.0
  0
LINE
  5
14562
  8
0
 10
327.73680784690328
 20
-250.9088541779989
 30
0.0
 11
321.15798057007743
 21
-253.30335343520591
 31
0.0
  0
ARC
  5
14563
  8
0
 10
347.4000002323383
 20
-250.53297790357121
 30
0.0
 40
0.4000000000000111
 50
180.0
 51
250.0000000000035
  0
ARC
  5
14564
  8
0
 10
327.6000002323384
 20
-250.53297790357121
 30
0.0
 40
0.4000000000000208
 50
290.00000000000392
 51
0.0
  0
LINE
  5
14565
  8
0
 10
346.99999992686458
 20
-250.5329779748196
 30
0.0
 11
346.99999992686458
 21
-237.16306196789691
 31
0.0
  0
LINE
  5
14566
  8
0
 10
328.00000053781218
 20
-237.16306196789691
 30
0.0
 11
328.00000053781218
 21
-250.5329779748196
 31
0.0
  0
LINE
  5
14569
  8
0
 10
328.50000061976863
 20
-273.01306090581659
 30
0.0
 11
329.49999985235883
 21
-274.01306089510638
 31
0.0
  0
LINE
  5
1456A
  8
0
 10
328.7000002800221
 20
-268.5130608667011
 30
0.0
 11
328.50000061976863
 21
-268.8594709549422
 31
0.0
  0
LINE
  5
1456B
  8
0
 10
328.50000061976863
 20
-268.8594709549422
 30
0.0
 11
328.50000061976863
 21
-273.51306130628518
 31
0.0
  0
LINE
  5
1456D
  8
0
 10
326.24999978530349
 20
-274.01306089510638
 30
0.0
 11
320.74999981510592
 21
-274.01306089510638
 31
0.0
  0
LINE
  5
1456E
  8
0
 10
326.24999978530349
 20
-271.01306081082168
 30
0.0
 11
320.74999981510592
 21
-271.01306081082168
 31
0.0
  0
LINE
  5
1456F
  8
0
 10
348.97311016969792
 20
-237.16306091885511
 30
0.0
 11
326.02689028668351
 21
-237.16306196789691
 31
0.0
  0
LINE
  5
14570
  8
0
 10
328.08816325801558
 20
-221.6630603585715
 30
0.0
 11
346.91183674198419
 21
-221.66306091885511
 31
0.0
  0
LINE
  5
14571
  8
0
 10
364.50000115621037
 20
-266.51306130628529
 30
0.0
 11
354.50000100347353
 21
-266.51306130628529
 31
0.0
  0
LINE
  5
14572
  8
0
 10
320.49999915572948
 20
-266.51306130628529
 30
0.0
 11
310.49999930846639
 21
-266.51306130628529
 31
0.0
  0
LINE
  5
14573
  8
0
 10
364.50000115621037
 20
-274.51306130628529
 30
0.0
 11
310.49999930846639
 21
-274.51306130628529
 31
0.0
  0
LINE
  5
14574
  8
0
 10
345.50000014764112
 20
-274.01306089510638
 30
0.0
 11
329.49999985235883
 21
-274.01306089510638
 31
0.0
  0
LINE
  5
14575
  8
0
 10
328.50000061976863
 20
-273.01306090581659
 30
0.0
 11
346.4999993802312
 21
-273.01306090581659
 31
0.0
  0
LINE
  5
14576
  8
0
 10
346.49999938023109
 20
-268.8594709549422
 30
0.0
 11
328.50000061976863
 21
-268.8594709549422
 31
0.0
  0
ARC
  5
14578
  8
0
 10
338.87671650687361
 20
-235.50053284415401
 30
0.0
 40
8.9320262632649854
 50
87.142468578804454
 51
92.857531421195446
  0
LINE
  5
14579
  8
0
 10
339.32200176592119
 20
-226.57961281280461
 30
0.0
 11
339.69860929015221
 21
-236.63689451556149
 31
0.0
  0
ARC
  5
1457A
  8
0
 10
339.21274700262182
 20
-236.67591971261379
 30
0.0
 40
0.4874270493616077
 50
271.95870685265481
 51
4.5922253350879654
  0
ARC
  5
1457B
  8
0
 10
336.1232839578031
 20
-235.50053284415401
 30
0.0
 40
8.9320262632649836
 50
87.142468578804454
 51
92.857531421195446
  0
LINE
  5
1457C
  8
0
 10
335.3013911745245
 20
-236.63689451556149
 30
0.0
 11
335.67799869875557
 21
-226.57961281280461
 31
0.0
  0
ARC
  5
1457D
  8
0
 10
335.78725346205499
 20
-236.67591971261379
 30
0.0
 40
0.4874270493616077
 50
175.40777466491201
 51
268.04129314734831
  0
LINE
  5
1457E
  8
0
 10
338.43143124782608
 20
-226.57961281280461
 30
0.0
 11
336.56856921685062
 21
-226.57961281280461
 31
0.0
  0
ARC
  5
1457F
  8
0
 10
334.24804515496049
 20
-226.42689831130511
 30
0.0
 40
1.4380851353032369
 50
353.90409819560131
 51
30.720297833541341
  0
ARC
  5
14580
  8
0
 10
340.63303453216702
 20
-226.40094286608189
 30
0.0
 40
1.3231514894493479
 50
147.61503950319451
 51
187.7605644676679
  0
ARC
  5
14581
  8
0
 10
341.70065534931223
 20
-236.6759199243871
 30
0.0
 40
0.4874268378355715
 50
271.9587081279833
 51
4.592252305806201
  0
ARC
  5
14582
  8
0
 10
333.29934511536447
 20
-236.6759199243871
 30
0.0
 40
0.487426837835569
 50
175.4077476941938
 51
268.04129187201988
  0
POLYLINE
  5
14583
  8
0
 66
     1
 10
0.0
 20
0.0
 30
0.0
 70
   128
  0
VERTEX
  5
14AF2
  8
0
 10
341.5484911291594
 20
-223.68130715827891
 30
0.0
  0
VERTEX
  5
14AF3
  8
0
 10
340.52852666887588
 20
-224.66353955011309
 30
0.0
  0
VERTEX
  5
14AF4
  8
0
 10
339.5156747190947
 20
-225.69225611429161
 30
0.0
  0
SEQEND
  5
14AF5
  8
0
  0
LINE
  5
14584
  8
0
 10
342.18651740762539
 20
-236.63689451556149
 30
0.0
 11
341.5484911291594
 21
-223.68130715827891
 31
0.0
  0
POLYLINE
  5
14585
  8
0
 66
     1
 10
0.0
 20
0.0
 30
0.0
 70
   128
  0
VERTEX
  5
14AF6
  8
0
 10
335.484325745582
 20
-225.69225611429161
 30
0.0
  0
VERTEX
  5
14AF7
  8
0
 10
334.4717056951219
 20
-224.66377051811159
 30
0.0
  0
VERTEX
  5
14AF8
  8
0
 10
333.4515093355173
 20
-223.68130715827891
 30
0.0
  0
SEQEND
  5
14AF9
  8
0
  0
LINE
  5
14586
  8
0
 10
333.4515093355173
 20
-223.68130715827891
 30
0.0
 11
332.81348305705143
 21
-236.63689451556149
 31
0.0
  0
POLYLINE
  5
14587
  8
0
 66
     1
 10
0.0
 20
0.0
 30
0.0
 70
   128
  0
VERTEX
  5
14AFA
  8
0
 10
344.1277182190413
 20
-236.63689451556149
 30
0.0
  0
VERTEX
  5
14AFB
  8
0
 10
344.12496709215588
 20
-236.7380435977453
 30
0.0
  0
VERTEX
  5
14AFC
  8
0
 10
344.11098933729482
 20
-236.836119315433
 30
0.0
  0
VERTEX
  5
14AFD
  8
0
 10
344.08635818350263
 20
-236.92709462981171
 30
0.0
  0
VERTEX
  5
14AFE
  8
0
 10
344.05208365011163
 20
-237.00723680000249
 30
0.0
  0
VERTEX
  5
14AFF
  8
0
 10
344.00957203420938
 20
-237.0732601199621
 30
0.0
  0
VERTEX
  5
14B00
  8
0
 10
343.96056816863961
 20
-237.12245630364359
 30
0.0
  0
VERTEX
  5
14B01
  8
0
 10
343.90708138185693
 20
-237.15280624370519
 30
0.0
  0
VERTEX
  5
14B02
  8
0
 10
343.8513063355083
 20
-237.16306196789691
 30
0.0
  0
SEQEND
  5
14B03
  8
0
  0
POLYLINE
  5
14588
  8
0
 66
     1
 10
0.0
 20
0.0
 30
0.0
 70
   128
  0
VERTEX
  5
14B04
  8
0
 10
331.1486941291684
 20
-237.16306196789691
 30
0.0
  0
VERTEX
  5
14B05
  8
0
 10
331.09291908281989
 20
-237.15280624370519
 30
0.0
  0
VERTEX
  5
14B06
  8
0
 10
331.03943229603709
 20
-237.12245630364359
 30
0.0
  0
VERTEX
  5
14B07
  8
0
 10
330.99042843046732
 20
-237.0732601199621
 30
0.0
  0
VERTEX
  5
14B08
  8
0
 10
330.94791681456508
 20
-237.00723680000249
 30
0.0
  0
VERTEX
  5
14B09
  8
0
 10
330.91364228117408
 20
-236.92709462981171
 30
0.0
  0
VERTEX
  5
14B0A
  8
0
 10
330.88901112738199
 20
-236.836119315433
 30
0.0
  0
VERTEX
  5
14B0B
  8
0
 10
330.87503337252087
 20
-236.7380435977453
 30
0.0
  0
VERTEX
  5
14B0C
  8
0
 10
330.8722822456354
 20
-236.63689451556149
 30
0.0
  0
SEQEND
  5
14B0D
  8
0
  0
ARC
  5
14589
  8
0
 10
331.51470524951071
 20
-225.84021048944899
 30
0.0
 40
2.9003575057067481
 50
48.103956569548231
 51
94.852546473055199
  0
LINE
  5
1458A
  8
0
 10
330.8722822456354
 20
-236.63689451556149
 30
0.0
 11
331.26935907590342
 21
-222.95024873952809
 31
0.0
  0
ARC
  5
1458B
  8
0
 10
343.49554234590209
 20
-225.87079734601539
 30
0.0
 40
2.9299958571324951
 50
85.397713961867623
 51
131.6457829955325
  0
LINE
  5
1458C
  8
0
 10
343.73064138877339
 20
-222.95024873952809
 30
0.0
 11
344.1277182190413
 21
-236.63689451556149
 31
0.0
  0
LINE
  5
1458D
  8
0
 10
331.26935907590342
 20
-222.95024873952809
 30
0.0
 11
326.24486167865939
 21
-222.95024873952809
 31
0.0
  0
LINE
  5
1458E
  8
0
 10
348.75513878601743
 20
-222.95024873952809
 30
0.0
 11
343.73064138877339
 21
-222.95024873952809
 31
0.0
  0
LINE
  5
1458F
  8
0
 10
321.15798057007743
 20
-253.30335343520591
 30
0.0
 11
353.84201989459939
 21
-253.30335343520591
 31
0.0
  0
LINE
  5
14590
  8
0
 10
328.00000023233838
 20
-250.5329779748196
 30
0.0
 11
346.99999992686458
 21
-250.5329779748196
 31
0.0
  0
LINE
  5
14592
  8
1
 10
337.50000007960148
 20
-216.66306063871329
 30
0.0
 11
337.50000007960148
 21
-279.01306089510638
 31
0.0
  0
LINE
  5
14593
  8
0
 10
319.99999999999989
 20
-267.01306130628512
 30
0.0
 11
319.99999999999989
 21
-268.51306133236238
 31
0.0
  0
LINE
  5
14594
  8
0
 10
354.99999999999989
 20
-267.01306130628529
 30
0.0
 11
354.99999999999989
 21
-268.51306133236238
 31
0.0
  0
LINE
  5
14595
  8
3
 10
324.72949980020468
 20
-269.51306086902929
 30
0.0
 11
324.72949980020468
 21
-268.51306130628518
 31
0.0
  0
LINE
  5
14596
  8
3
 10
322.27049980020468
 20
-269.51306086902929
 30
0.0
 11
322.27049980020468
 21
-268.51306130628518
 31
0.0
  0
LINE
  5
14597
  8
3
 10
324.72949980020542
 20
-269.51306086902952
 30
0.0
 11
324.99999980020471
 21
-269.98158061247551
 31
0.0
  0
LINE
  5
14598
  8
3
 10
322.27049980020399
 20
-269.51306086902952
 30
0.0
 11
321.99999980020471
 21
-269.98158061247551
 31
0.0
  0
LINE
  5
14599
  8
0
 10
321.99999980020471
 20
-269.51306086902952
 30
0.0
 11
324.99999980020471
 21
-269.51306086902952
 31
0.0
  0
LINE
  5
1459A
  8
1
 10
323.49999980020471
 20
-266.51306130628518
 30
0.0
 11
323.49999980020471
 21
-276.51306130628529
 31
0.0
  0
LINE
  5
1459B
  8
0
 10
346.4999993802312
 20
-273.01306090581659
 30
0.0
 11
345.500000147641
 21
-274.01306089510638
 31
0.0
  0
LINE
  5
1459C
  8
0
 10
346.29999971997768
 20
-268.5130608667011
 30
0.0
 11
346.4999993802312
 21
-268.8594709549422
 31
0.0
  0
LINE
  5
1459D
  8
0
 10
346.49999938023132
 20
-268.8594709549422
 30
0.0
 11
346.4999993802312
 21
-273.51306130628541
 31
0.0
  0
LINE
  5
145A1
  8
0
 10
327.50000061976863
 20
-274.51306130628529
 30
0.0
 11
328.50000061976863
 21
-273.51306130628529
 31
0.0
  0
LINE
  5
145A2
  8
0
 10
347.4999993802312
 20
-274.51306130628529
 30
0.0
 11
346.4999993802312
 21
-273.51306130628529
 31
0.0
  0
LINE
  5
145A5
  8
0
 10
328.50000061976863
 20
-273.51306130628541
 30
0.0
 11
329.0000006418872
 21
-273.51306130628541
 31
0.0
  0
LINE
  5
145A6
  8
0
 10
345.99999935811252
 20
-273.51306130628541
 30
0.0
 11
346.4999993802312
 21
-273.51306130628541
 31
0.0
  0
LINE
  5
145A7
  8
0
 10
321.80000023233828
 20
-269.01306130628529
 30
0.0
 11
321.30000023233828
 21
-268.51306130628529
 31
0.0
  0
LINE
  5
145A8
  8
0
 10
326.75000023233838
 20
-271.01306130628529
 30
0.0
 11
320.25000023233838
 21
-271.01306130628529
 31
0.0
  0
LINE
  5
145A9
  8
0
 10
320.25000023233838
 20
-274.01306130628529
 30
0.0
 11
319.75000023233838
 21
-274.51306130628529
 31
0.0
  0
LINE
  5
145AA
  8
0
 10
320.25000023233838
 20
-271.01306130628529
 30
0.0
 11
320.25000023233838
 21
-274.01306130628529
 31
0.0
  0
LINE
  5
145AB
  8
0
 10
321.80000023233828
 20
-271.01306081082168
 30
0.0
 11
321.80000023233828
 21
-269.01306130628529
 31
0.0
  0
LINE
  5
145AC
  8
0
 10
325.20000023233831
 20
-271.01306081082168
 30
0.0
 11
325.20000023233831
 21
-269.01306130628529
 31
0.0
  0
LINE
  5
145AD
  8
0
 10
326.75000023233838
 20
-271.01306130628529
 30
0.0
 11
326.75000023233838
 21
-274.01306130628529
 31
0.0
  0
LINE
  5
145AE
  8
0
 10
325.20000023233831
 20
-269.01306130628529
 30
0.0
 11
325.70000023233831
 21
-268.51306130628529
 31
0.0
  0
LINE
  5
145AF
  8
0
 10
326.75000023233838
 20
-274.01306130628529
 30
0.0
 11
327.25000023233838
 21
-274.51306130628529
 31
0.0
  0
LINE
  5
145B0
  8
0
 10
321.80000023233828
 20
-269.01306130628529
 30
0.0
 11
322.00000048565812
 21
-269.01306130628541
 31
0.0
  0
LINE
  5
145B1
  8
0
 10
325.00000004607392
 20
-269.01306130628541
 30
0.0
 11
325.20000023233831
 21
-269.01306130628529
 31
0.0
  0
LINE
  5
145B2
  8
0
 10
320.25000023233838
 20
-274.01306130628529
 30
0.0
 11
320.74999981510592
 21
-274.01306130628529
 31
0.0
  0
LINE
  5
145B3
  8
0
 10
326.24999978530349
 20
-274.01306130628529
 30
0.0
 11
326.75000023233838
 21
-274.01306130628529
 31
0.0
  0
LINE
  5
145B4
  8
1
 10
407.49999884378991
 20
-238.46305970739061
 30
0.0
 11
407.49999884378991
 21
-193.46305970739061
 31
0.0
  0
LINE
  5
145B5
  8
1
 10
429.99999884379002
 20
-215.96305970739061
 30
0.0
 11
384.99999884379002
 21
-215.96305970739061
 31
0.0
  0
CIRCLE
  5
145B6
  8
0
 10
407.49999884378991
 20
-215.96305970739061
 30
0.0
 40
9.0
  0
CIRCLE
  5
145B7
  8
1
 10
407.49999884378991
 20
-215.96305970739061
 30
0.0
 40
14.0
  0
CIRCLE
  5
145B8
  8
0
 10
393.49999884379002
 20
-215.96305970739061
 30
0.0
 40
1.7
  0
CIRCLE
  5
145B9
  8
2
 10
393.49999884379002
 20
-215.96305970739061
 30
0.0
 40
3.25
  0
LINE
  5
145BA
  8
1
 10
411.87499884378991
 20
-223.54078199050451
 30
0.0
 11
417.12499884378991
 21
-232.63404873024101
 31
0.0
  0
CIRCLE
  5
145BB
  8
0
 10
414.49999884378991
 20
-228.08741536037269
 30
0.0
 40
1.6999999999999991
  0
CIRCLE
  5
145BC
  8
2
 10
414.49999884378991
 20
-228.08741536037269
 30
0.0
 40
3.2499999999999991
  0
LINE
  5
145BD
  8
1
 10
411.87499884378991
 20
-208.3853374242768
 30
0.0
 11
417.12499884378991
 21
-199.29207068454019
 31
0.0
  0
CIRCLE
  5
145BE
  8
0
 10
414.49999884378991
 20
-203.83870405440859
 30
0.0
 40
1.6999999999999991
  0
CIRCLE
  5
145BF
  8
2
 10
414.49999884378991
 20
-203.83870405440859
 30
0.0
 40
3.2499999999999991
  0
LINE
  5
145C1
  8
0
 10
319.5
 20
-266.51306130628518
 30
0.0
 11
320.0
 21
-267.01306130628518
 31
0.0
  0
LINE
  5
145C2
  8
0
 10
355.5
 20
-266.51306130628518
 30
0.0
 11
355.0
 21
-267.01306130628518
 31
0.0
  0
LINE
  5
145C3
  8
0
 10
320.0
 20
-267.01306130628518
 30
0.0
 11
320.4999993084665
 21
-267.01306130628518
 31
0.0
  0
LINE
  5
145C4
  8
0
 10
354.50000115621049
 20
-267.01306130628541
 30
0.0
 11
354.99999999999989
 21
-267.01306130628541
 31
0.0
  0
CIRCLE
  5
145E2
  8
0
 10
407.49999884378991
 20
-215.96305970739061
 30
0.0
 40
17.5
  0
LINE
  5
145F6
  8
0
 10
353.99999999019451
 20
-268.51306133236238
 30
0.0
 11
354.50000100347353
 21
-268.01306130861371
 31
0.0
  0
LINE
  5
145F7
  8
0
 10
354.50000100347353
 20
-268.01306130861371
 30
0.0
 11
354.50000100347353
 21
-266.01306138824168
 31
0.0
  0
LINE
  5
145F8
  8
0
 10
354.50000100347353
 20
-266.01306138824168
 30
0.0
 11
353.99999999019451
 21
-265.51306130628541
 31
0.0
  0
LINE
  5
145FA
  8
0
 10
321.00000016900839
 20
-268.51306133236238
 30
0.0
 11
320.49999915572948
 21
-268.01306130861371
 31
0.0
  0
LINE
  5
145FB
  8
0
 10
354.99999999999989
 20
-268.51306133236238
 30
0.0
 11
319.99999999999989
 21
-268.5130613323621
 31
0.0
  0
LINE
  5
145FD
  8
0
 10
320.49999915572948
 20
-266.01306138824168
 30
0.0
 11
320.49999915572948
 21
-268.01306130861371
 31
0.0
  0
LINE
  5
145FE
  8
0
 10
321.00000016900839
 20
-265.51306130628529
 30
0.0
 11
353.99999999019451
 21
-265.51306130628541
 31
0.0
  0
LINE
  5
145FF
  8
0
 10
320.49999915572948
 20
-266.01306138824168
 30
0.0
 11
321.00000016900839
 21
-265.51306130628541
 31
0.0
  0
LINE
  5
1460A
  8
0
 10
198.99999991059281
 20
-266.51306130628529
 30
0.0
 11
199.50000092387171
 21
-266.01306128253663
 31
0.0
  0
LINE
  5
1460B
  8
0
 10
199.50000092387171
 20
-266.01306128253663
 30
0.0
 11
199.50000092387171
 21
-264.01306136216471
 31
0.0
  0
LINE
  5
1460C
  8
0
 10
199.50000092387171
 20
-264.01306136216471
 30
0.0
 11
198.99999991059281
 21
-263.51306128020832
 31
0.0
  0
LINE
  5
1460E
  8
0
 10
166.00000008940671
 20
-266.51306130628529
 30
0.0
 11
165.49999907612781
 21
-266.01306128253663
 31
0.0
  0
LINE
  5
1460F
  8
0
 10
209.50000115621029
 20
-266.51306130628529
 30
0.0
 11
155.49999930846619
 21
-266.51306130628558
 31
0.0
  0
LINE
  5
14611
  8
0
 10
165.49999907612781
 20
-264.01306136216471
 30
0.0
 11
165.49999907612781
 21
-266.01306128253663
 31
0.0
  0
LINE
  5
14612
  8
0
 10
166.00000008940671
 20
-263.51306128020832
 30
0.0
 11
198.99999991059281
 21
-263.51306128020832
 31
0.0
  0
LINE
  5
14613
  8
0
 10
165.49999907612781
 20
-264.01306136216471
 30
0.0
 11
166.00000008940671
 21
-263.51306128020832
 31
0.0
  0
LINE
  5
14678
  8
0
 10
173.70000028002201
 20
-266.51306084062401
 30
0.0
 11
173.5000006197684
 21
-266.85947092886511
 31
0.0
  0
LINE
  5
1467C
  8
0
 10
172.5000006197684
 20
-266.51306133236261
 30
0.0
 11
173.5000006197684
 21
-267.5130613323625
 31
0.0
  0
LINE
  5
1467D
  8
0
 10
192.49999938023109
 20
-266.51306133236261
 30
0.0
 11
191.49999938023109
 21
-267.5130613323625
 31
0.0
  0
LINE
  5
14686
  8
0
 10
243.50000038743019
 20
-267.51306133236261
 30
0.0
 11
243.50000038743019
 21
-271.51306128020821
 31
0.0
  0
LINE
  5
14689
  8
0
 10
279.50000092387199
 20
-272.51306128020821
 30
0.0
 11
225.49999907612801
 21
-272.51306128020821
 31
0.0
  0
LINE
  5
1468D
  8
1
 10
252.49999976766151
 20
-260.01306130628552
 30
0.0
 11
252.49999976766151
 21
-277.0130608690294
 31
0.0
  0
LINE
  5
14693
  8
1
 10
238.4999995678663
 20
-264.51306130628541
 30
0.0
 11
238.4999995678663
 21
-274.51306128020821
 31
0.0
  0
LINE
  5
14696
  8
0
 10
261.49999914789271
 20
-267.51306133236261
 30
0.0
 11
261.49999914789282
 21
-271.51306128020832
 31
0.0
  0
LINE
  5
14697
  8
0
 10
242.50000038743019
 20
-272.51306128020821
 30
0.0
 11
243.50000038743019
 21
-271.51306128020832
 31
0.0
  0
LINE
  5
14698
  8
0
 10
262.49999914789282
 20
-272.51306128020821
 30
0.0
 11
261.49999914789282
 21
-271.51306128020832
 31
0.0
  0
LINE
  5
14699
  8
0
 10
243.50000038743019
 20
-271.51306128020832
 30
0.0
 11
261.49999914789282
 21
-271.51306128020838
 31
0.0
  0
LINE
  5
1469B
  8
0
 10
236.80000000000001
 20
-267.01306130628552
 30
0.0
 11
236.30000000000001
 21
-266.51306130628552
 31
0.0
  0
LINE
  5
1469C
  8
0
 10
241.75
 20
-269.01306128020832
 30
0.0
 11
235.25
 21
-269.01306128020832
 31
0.0
  0
LINE
  5
1469D
  8
0
 10
235.25
 20
-272.01306128020832
 30
0.0
 11
234.75
 21
-272.51306128020821
 31
0.0
  0
LINE
  5
1469E
  8
0
 10
235.25
 20
-269.01306128020832
 30
0.0
 11
235.25
 21
-272.01306128020832
 31
0.0
  0
LINE
  5
1469F
  8
0
 10
236.7999999999999
 20
-269.0130607847446
 30
0.0
 11
236.80000000000001
 21
-267.01306130628558
 31
0.0
  0
LINE
  5
146A0
  8
0
 10
240.1999999999999
 20
-269.0130607847446
 30
0.0
 11
240.1999999999999
 21
-267.01306130628552
 31
0.0
  0
LINE
  5
146A1
  8
0
 10
241.75
 20
-269.01306128020832
 30
0.0
 11
241.75
 21
-272.01306128020832
 31
0.0
  0
LINE
  5
146A2
  8
0
 10
240.19999999999999
 20
-267.01306130628552
 30
0.0
 11
240.69999999999999
 21
-266.51306130628552
 31
0.0
  0
LINE
  5
146A3
  8
0
 10
241.75
 20
-272.01306128020832
 30
0.0
 11
242.25
 21
-272.51306128020821
 31
0.0
  0
LINE
  5
146A5
  8
0
 10
236.80000000000001
 20
-267.01306130628649
 30
0.0
 11
240.19999999999999
 21
-267.01306130628552
 31
0.0
  0
LINE
  5
146A6
  8
0
 10
235.25
 20
-272.01306128020832
 30
0.0
 11
241.75
 21
-272.01306128020832
 31
0.0
  0
LINE
  5
146AA
  8
0
 10
279.50000092387199
 20
-266.51306130628529
 30
0.0
 11
225.49999907612801
 21
-266.51306130628558
 31
0.0
  0
LINE
  5
146AC
  8
0
 10
242.50000038743019
 20
-266.51306133236261
 30
0.0
 11
243.50000038743019
 21
-267.5130613323625
 31
0.0
  0
LINE
  5
146AD
  8
0
 10
262.49999914789282
 20
-266.51306133236261
 30
0.0
 11
261.49999914789282
 21
-267.5130613323625
 31
0.0
  0
LINE
  5
146AE
  8
0
 10
243.50000038743011
 20
-267.51306133236272
 30
0.0
 11
261.49999914789271
 21
-267.51306133236289
 31
0.0
  0
LINE
  5
146C6
  8
0
 10
327.50000046703173
 20
-268.51306135843942
 30
0.0
 11
328.50000046703173
 21
-269.51306135843942
 31
0.0
  0
LINE
  5
146C7
  8
0
 10
347.4999992274943
 20
-268.51306135843942
 30
0.0
 11
346.4999992274943
 21
-269.51306135843942
 31
0.0
  0
LINE
  5
146D4
  8
0
 10
398.49999946355882
 20
-269.51306120570263
 30
0.0
 11
398.49999946355871
 21
-273.51306130628529
 31
0.0
  0
LINE
  5
146D7
  8
0
 10
434.50000000000051
 20
-266.51306130628529
 30
0.0
 11
380.49999815225652
 21
-266.51306130628529
 31
0.0
  0
LINE
  5
146D9
  8
0
 10
434.50000000000051
 20
-274.51306130628529
 30
0.0
 11
380.49999815225652
 21
-274.51306130628529
 31
0.0
  0
LINE
  5
146DC
  8
0
 10
416.49999822402123
 20
-269.51306120570251
 30
0.0
 11
398.49999946355871
 21
-269.51306120570251
 31
0.0
  0
LINE
  5
146DE
  8
1
 10
407.4999989233915
 20
-262.01306130628529
 30
0.0
 11
407.49999892339162
 21
-279.01306089510638
 31
0.0
  0
LINE
  5
146DF
  8
0
 10
389.99999884379002
 20
-267.01306130628518
 30
0.0
 11
389.99999884379002
 21
-268.51306133236238
 31
0.0
  0
LINE
  5
146E0
  8
0
 10
424.99999884379002
 20
-267.01306130628541
 30
0.0
 11
424.99999884379002
 21
-268.51306133236238
 31
0.0
  0
LINE
  5
146E6
  8
1
 10
393.49999864399479
 20
-266.51306130628529
 30
0.0
 11
393.49999864399479
 21
-276.51306130628529
 31
0.0
  0
LINE
  5
146E9
  8
0
 10
416.4999982240214
 20
-269.51306120570263
 30
0.0
 11
416.49999822402128
 21
-273.51306130628541
 31
0.0
  0
LINE
  5
146EA
  8
0
 10
397.49999946355871
 20
-274.51306130628529
 30
0.0
 11
398.49999946355871
 21
-273.51306130628541
 31
0.0
  0
LINE
  5
146EB
  8
0
 10
417.49999822402128
 20
-274.51306130628529
 30
0.0
 11
416.49999822402128
 21
-273.51306130628541
 31
0.0
  0
LINE
  5
146EC
  8
0
 10
398.49999946355871
 20
-273.51306130628541
 30
0.0
 11
416.4999982240214
 21
-273.51306130628541
 31
0.0
  0
LINE
  5
146EE
  8
0
 10
391.79999907612847
 20
-269.01306130628541
 30
0.0
 11
391.29999907612847
 21
-268.51306130628529
 31
0.0
  0
LINE
  5
146EF
  8
0
 10
396.74999907612852
 20
-271.01306130628541
 30
0.0
 11
390.24999907612852
 21
-271.01306130628541
 31
0.0
  0
LINE
  5
146F0
  8
0
 10
390.24999907612852
 20
-274.01306130628529
 30
0.0
 11
389.74999907612852
 21
-274.51306130628529
 31
0.0
  0
LINE
  5
146F1
  8
0
 10
390.24999907612852
 20
-271.01306130628541
 30
0.0
 11
390.24999907612852
 21
-274.01306130628529
 31
0.0
  0
LINE
  5
146F2
  8
0
 10
391.79999907612847
 20
-271.01306081082168
 30
0.0
 11
391.79999907612847
 21
-269.01306130628541
 31
0.0
  0
LINE
  5
146F3
  8
0
 10
395.19999907612839
 20
-271.01306081082168
 30
0.0
 11
395.19999907612839
 21
-269.01306130628541
 31
0.0
  0
LINE
  5
146F4
  8
0
 10
396.74999907612852
 20
-271.01306130628541
 30
0.0
 11
396.74999907612852
 21
-274.01306130628529
 31
0.0
  0
LINE
  5
146F5
  8
0
 10
395.19999907612839
 20
-269.01306130628541
 30
0.0
 11
395.69999907612851
 21
-268.51306130628529
 31
0.0
  0
LINE
  5
146F6
  8
0
 10
396.74999907612852
 20
-274.01306130628529
 30
0.0
 11
397.24999907612852
 21
-274.51306130628529
 31
0.0
  0
LINE
  5
146F7
  8
0
 10
391.79999907612847
 20
-269.01306130628541
 30
0.0
 11
395.19999907612839
 21
-269.01306130628632
 31
0.0
  0
LINE
  5
146FA
  8
0
 10
390.24999907612852
 20
-274.01306130628529
 30
0.0
 11
396.74999907612852
 21
-274.01306130628529
 31
0.0
  0
LINE
  5
146FB
  8
0
 10
389.49999884379019
 20
-266.51306130628518
 30
0.0
 11
389.99999884379008
 21
-267.01306130628518
 31
0.0
  0
LINE
  5
146FC
  8
0
 10
425.49999884379008
 20
-266.51306130628518
 30
0.0
 11
424.99999884379008
 21
-267.01306130628518
 31
0.0
  0
LINE
  5
146FE
  8
0
 10
389.99999884379002
 20
-267.01306130628541
 30
0.0
 11
424.99999884379002
 21
-267.01306130628541
 31
0.0
  0
LINE
  5
14703
  8
0
 10
424.99999884379008
 20
-268.5130613323625
 30
0.0
 11
389.99999884379002
 21
-268.51306133236221
 31
0.0
  0
LINE
  5
14707
  8
0
 10
397.49999931082181
 20
-268.51306135843947
 30
0.0
 11
398.49999931082181
 21
-269.51306135843947
 31
0.0
  0
LINE
  5
14708
  8
0
 10
417.49999807128438
 20
-268.51306135843947
 30
0.0
 11
416.49999807128438
 21
-269.51306135843947
 31
0.0
  0
ENDSEC
  0
EOF
