  0
SECTION
  2
HEADER
  9
$ACADVER
  1
AC1009
  9
$INSBASE
 10
0.0
 20
0.0
 30
0.0
  9
$EXTMIN
 10
0.0
 20
-285.54510617962069
 30
0.0
  9
$EXTMAX
 10
470.00000149011612
 20
235.29999987530809
 30
0.0
  9
$LIMMIN
 10
0.0
 20
0.0
  9
$LIMMAX
 10
187.5
 20
135.0
  9
$ORTHOMODE
 70
     1
  9
$REGENMODE
 70
     1
  9
$FILLMODE
 70
     1
  9
$QTEXTMODE
 70
     0
  9
$MIRRTEXT
 70
     0
  9
$DRAGMODE
 70
     2
  9
$LTSCALE
 40
5.0
  9
$OSMODE
 70
    37
  9
$ATTMODE
 70
     1
  9
$TEXTSIZE
 40
0.2
  9
$TRACEWID
 40
0.05
  9
$TEXTSTYLE
  7
STANDARD
  9
$CLAYER
  8
0
  9
$CELTYPE
  6
BYLAYER
  9
$CECOLOR
 62
   256
  9
$DIMSCALE
 40
0.5
  9
$DIMASZ
 40
3.0
  9
$DIMEXO
 40
2.0
  9
$DIMDLI
 40
0.3799999999999999
  9
$DIMRND
 40
0.0
  9
$DIMDLE
 40
0.0
  9
$DIMEXE
 40
2.0
  9
$DIMTP
 40
0.0
  9
$DIMTM
 40
0.0
  9
$DIMTXT
 40
3.2000000000000002
  9
$DIMCEN
 40
0.0
  9
$DIMTSZ
 40
0.0
  9
$DIMTOL
 70
     0
  9
$DIMLIM
 70
     0
  9
$DIMTIH
 70
     0
  9
$DIMTOH
 70
     0
  9
$DIMSE1
 70
     0
  9
$DIMSE2
 70
     0
  9
$DIMTAD
 70
     1
  9
$DIMZIN
 70
     8
  9
$DIMBLK
  1

  9
$DIMASO
 70
     0
  9
$DIMSHO
 70
     0
  9
$DIMPOST
  1

  9
$DIMAPOST
  1

  9
$DIMALT
 70
     0
  9
$DIMALTD
 70
     2
  9
$DIMALTF
 40
25.399999999999999
  9
$DIMLFAC
 40
1.0
  9
$DIMTOFL
 70
     0
  9
$DIMTVP
 40
1.6000000000000001
  9
$DIMTIX
 70
     0
  9
$DIMSOXD
 70
     0
  9
$DIMSAH
 70
     0
  9
$DIMBLK1
  1

  9
$DIMBLK2
  1

  9
$DIMSTYLE
  2
STANDARD
  9
$DIMCLRD
 70
     0
  9
$DIMCLRE
 70
     0
  9
$DIMCLRT
 70
     0
  9
$DIMTFAC
 40
1.0
  9
$DIMGAP
 40
1.0
  9
$LUNITS
 70
     2
  9
$LUPREC
 70
     1
  9
$SKETCHINC
 40
0.1
  9
$FILLETRAD
 40
0.4
  9
$AUNITS
 70
     0
  9
$AUPREC
 70
     1
  9
$MENU
  1
E:\r13\win\SUPPORT\ACAD
  9
$ELEVATION
 40
0.0
  9
$PELEVATION
 40
0.0
  9
$THICKNESS
 40
0.0
  9
$LIMCHECK
 70
     0
  9
$BLIPMODE
 70
     0
  9
$CHAMFERA
 40
0.5
  9
$CHAMFERB
 40
0.5
  9
$SKPOLY
 70
     0
  9
$TDCREATE
 40
2451824.7531229062
  9
$TDUPDATE
 40
2459191.65582912
  9
$TDINDWG
 40
1.9017782176
  9
$TDUSRTIMER
 40
1.9017780324
  9
$USRTIMER
 70
     1
  9
$ANGBASE
 50
0.0
  9
$ANGDIR
 70
     0
  9
$PDMODE
 70
     0
  9
$PDSIZE
 40
0.0
  9
$PLINEWID
 40
0.0
  9
$COORDS
 70
     1
  9
$SPLFRAME
 70
     0
  9
$SPLINETYPE
 70
     6
  9
$SPLINESEGS
 70
     8
  9
$ATTDIA
 70
     0
  9
$ATTREQ
 70
     1
  9
$HANDLING
 70
     1
  9
$HANDSEED
  5
17E10
  9
$SURFTAB1
 70
     6
  9
$SURFTAB2
 70
     6
  9
$SURFTYPE
 70
     6
  9
$SURFU
 70
     6
  9
$SURFV
 70
     6
  9
$UCSNAME
  2

  9
$UCSORG
 10
0.0
 20
0.0
 30
0.0
  9
$UCSXDIR
 10
1.0
 20
0.0
 30
0.0
  9
$UCSYDIR
 10
0.0
 20
1.0
 30
0.0
  9
$PUCSNAME
  2

  9
$PUCSORG
 10
0.0
 20
0.0
 30
0.0
  9
$PUCSXDIR
 10
1.0
 20
0.0
 30
0.0
  9
$PUCSYDIR
 10
0.0
 20
1.0
 30
0.0
  9
$USERI1
 70
     0
  9
$USERI2
 70
     1
  9
$USERI3
 70
     0
  9
$USERI4
 70
     0
  9
$USERI5
 70
     0
  9
$USERR1
 40
0.0
  9
$USERR2
 40
0.0
  9
$USERR3
 40
0.0
  9
$USERR4
 40
0.0
  9
$USERR5
 40
0.0
  9
$WORLDVIEW
 70
     1
  9
$SHADEDGE
 70
     3
  9
$SHADEDIF
 70
    70
  9
$TILEMODE
 70
     1
  9
$MAXACTVP
 70
    16
  9
$PLIMCHECK
 70
     0
  9
$PEXTMIN
 10
1.0000000000000000E+020
 20
1.0000000000000000E+020
 30
1.0000000000000000E+020
  9
$PEXTMAX
 10
-1.0000000000000000E+020
 20
-1.0000000000000000E+020
 30
-1.0000000000000000E+020
  9
$PLIMMIN
 10
0.0
 20
0.0
  9
$PLIMMAX
 10
12.0
 20
9.0
  9
$UNITMODE
 70
     0
  9
$VISRETAIN
 70
     0
  9
$PLINEGEN
 70
     0
  9
$PSLTSCALE
 70
     0
  0
ENDSEC
  0
SECTION
  2
TABLES
  0
TABLE
  2
VPORT
 70
     1
  0
VPORT
  2
*ACTIVE
 70
     0
 10
0.0
 20
0.0
 11
1.0
 21
1.0
 12
362.34662576687123
 22
150.0
 13
0.0
 23
0.0
 14
5.0
 24
5.0
 15
5.0
 25
5.0
 16
0.0
 26
0.0
 36
1.0
 17
0.0
 27
0.0
 37
0.0
 40
300.0
 41
2.415644171779141
 42
50.0
 43
0.0
 44
0.0
 50
0.0
 51
0.0
 71
     0
 72
   500
 73
     1
 74
     0
 75
     0
 76
     0
 77
     0
 78
     0
  0
ENDTAB
  0
TABLE
  2
LTYPE
 70
     5
  0
LTYPE
  2
CONTINUOUS
 70
     0
  3
Solid Line
 72
    65
 73
     0
 40
0.0
  0
LTYPE
  2
CENTER
 70
     0
  3
____ _ ____ _ ____ _ ____ _ ____ _ ____ _ ____
 72
    65
 73
     4
 40
2.0
 49
1.25
 49
-0.25
 49
0.25
 49
-0.25
  0
LTYPE
  2
PHANTOM2
 70
     0
  3
___ _ _ ___ _ _ ___ _ _ ___ _ _
 72
    65
 73
     6
 40
1.25
 49
0.625
 49
-0.125
 49
0.125
 49
-0.125
 49
0.125
 49
-0.125
  0
LTYPE
  2
HIDDEN
 70
     0
  3
__ __ __ __ __ __ __ __ __ __ __ __ __ __ __ __
 72
    65
 73
     2
 40
0.375
 49
0.25
 49
-0.125
  0
LTYPE
  2
PHANTOM
 70
     0
  3
_____ _ _ _____ _ _ _____ _ _ _____ _ _ ____
 72
    65
 73
     6
 40
2.5
 49
1.25
 49
-0.25
 49
0.25
 49
-0.25
 49
0.25
 49
-0.25
  0
ENDTAB
  0
TABLE
  2
LAYER
 70
     6
  0
LAYER
  2
0
 70
     0
 62
     7
  6
CONTINUOUS
  0
LAYER
  2
1
 70
     0
 62
     1
  6
CENTER
  0
LAYER
  2
2
 70
     0
 62
     2
  6
HIDDEN
  0
LAYER
  2
5
 70
     0
 62
     3
  6
PHANTOM
  0
LAYER
  2
3
 70
     0
 62
     3
  6
CONTINUOUS
  0
LAYER
  2
DEFPOINTS
 70
     0
 62
     7
  6
CONTINUOUS
  0
ENDTAB
  0
TABLE
  2
STYLE
 70
     2
  0
STYLE
  2
STANDARD
 70
     0
 40
0.0
 41
1.0
 50
0.0
 71
     0
 42
0.2
  3
TXT
  4
BIGFONT
  0
STYLE
  2
STANDARD1
 70
     0
 40
0.0
 41
1.0
 50
0.0
 71
     0
 42
3.0
  3
txt
  4

  0
ENDTAB
  0
TABLE
  2
VIEW
 70
     2
  0
VIEW
  2
OLE1
 70
     0
 40
230.57206781759481
 10
150.69838489794819
 20
404.39942226326519
 41
272.25240315385241
 11
0.0
 21
0.0
 31
1.0
 12
0.0
 22
0.0
 32
0.0
 42
50.0
 43
0.0
 44
0.0
 50
0.0
 71
     0
  0
VIEW
  2
OLE2
 70
     0
 40
202.3282431621931
 10
347.29567904807772
 20
-206.63887725582759
 41
238.9029640415126
 11
0.0
 21
0.0
 31
1.0
 12
0.0
 22
0.0
 32
0.0
 42
50.0
 43
0.0
 44
0.0
 50
0.0
 71
     0
  0
ENDTAB
  0
TABLE
  2
UCS
 70
     0
  0
ENDTAB
  0
TABLE
  2
APPID
 70
    11
  0
APPID
  2
ACAD
 70
     0
  0
APPID
  2
ACAD_MLEADERVER
 70
     0
  0
APPID
  2
ACAD_EXEMPT_FROM_CAD_STANDARDS
 70
     0
  0
APPID
  2
ACAD_DSTYLE_DIMJAG
 70
     0
  0
APPID
  2
ACAD_DSTYLE_DIMTALN
 70
     0
  0
APPID
  2
ACAD_NAV_VCDISPLAY
 70
     0
  0
APPID
  2
ACAD_PSEXT
 70
     0
  0
APPID
  2
ACAECLAYERSTANDARD
 70
     0
  0
APPID
  2
ACCMTRANSPARENCY
 70
     0
  0
APPID
  2
ACAD_DSTYLE_DIMRADIAL_EXTENSION
 70
     0
  0
APPID
  2
ACADANNOTATIVE
 70
     0
  0
ENDTAB
  0
TABLE
  2
DIMSTYLE
 70
     1
  0
DIMSTYLE
  2
STANDARD
 70
     0
  3

  4

  5

  6

  7

 40
1.0
 41
0.18
 42
0.0625
 43
0.38
 44
0.18
 45
0.0
 46
0.0
 47
0.0
 48
0.0
140
0.18
141
0.09
142
0.0
143
25.399999999999999
144
1.0
145
0.0
146
1.0
147
0.09
 71
     0
 72
     0
 73
     1
 74
     1
 75
     0
 76
     0
 77
     0
 78
     0
170
     0
171
     2
172
     0
173
     0
174
     0
175
     0
176
     0
177
     0
178
     0
  0
ENDTAB
  0
ENDSEC
  0
SECTION
  2
BLOCKS
  0
BLOCK
  8
0
  2
$MODEL_SPACE
 70
     0
 10
0.0
 20
0.0
 30
0.0
  3
$MODEL_SPACE
  1

  0
ENDBLK
  5
9
  8
0
  0
BLOCK
 67
     1
  8
0
  2
$PAPER_SPACE
 70
     0
 10
0.0
 20
0.0
 30
0.0
  3
$PAPER_SPACE
  1

  0
ENDBLK
  5
E
 67
     1
  8
0
  0
ENDSEC
  0
SECTION
  2
ENTITIES
  0
TEXT
  5
7FEA
  8
0
 62
     3
 10
135.0
 20
0.0
 30
0.0
 40
3.2000000000000002
  1
■サムターンクランパー ストロング(自在アプローチ)の取付け方法(下図)
  0
TEXT
  5
7FEB
  8
0
 62
     3
 10
185.0866666666665
 20
-19.168098188633891
 30
0.0
 40
3.2000000000000002
  1
9mmのプレートに固定する場合
 72
     1
 11
212.49999999999989
 21
-19.594764855300561
 31
0.0
 73
     1
  0
TEXT
  5
80DD
  8
0
 62
     3
 10
324.35333333333318
 20
-19.168098188633891
 30
0.0
 40
3.2000000000000002
  1
9mmを超え20mm以下のプレートに固定する場合
 72
     1
 11
367.49999999999989
 21
-19.594764855300561
 31
0.0
 73
     1
  0
TEXT
  5
8474
  8
0
 62
     3
 10
168.4333333333332
 20
-124.6732704456429
 30
0.0
 40
3.2000000000000002
  1
組付け状態
 72
     1
 11
177.49999999999989
 21
-124.6732704456429
 31
0.0
  0
POLYLINE
  5
8487
  8
5
 66
     1
 10
0.0
 20
0.0
 30
0.0
 70
     1
  0
VERTEX
  5
17AAA
  8
5
 10
135.0
 20
-10.0
 30
0.0
  0
VERTEX
  5
17AAB
  8
5
 10
445.0
 20
-10.0
 30
0.0
  0
VERTEX
  5
17AAC
  8
5
 10
445.0
 20
-285.54510617962069
 30
0.0
  0
VERTEX
  5
17AAD
  8
5
 10
135.0
 20
-285.54510617962069
 30
0.0
  0
SEQEND
  5
17AAE
  8
5
  0
TEXT
  5
8489
  8
0
 62
     3
 10
240.2466666666667
 20
-124.6732704456429
 30
0.0
 40
3.2000000000000002
  1
取付け穴
 72
     1
 11
247.5
 21
-124.6732704456429
 31
0.0
  0
TEXT
  5
848A
  8
0
 62
     3
 10
323.43333333333322
 20
-124.6732704456429
 30
0.0
 40
3.2000000000000002
  1
組付け状態
 72
     1
 11
332.49999999999989
 21
-124.6732704456429
 31
0.0
  0
TEXT
  5
848B
  8
0
 62
     3
 10
395.24666666666673
 20
-124.6732704456429
 30
0.0
 40
3.2000000000000002
  1
取付け穴
 72
     1
 11
402.5
 21
-124.6732704456429
 31
0.0
  0
TEXT
  5
87B9
  8
0
 62
     3
 10
0.0
 20
0.0
 30
0.0
 40
10.0
  1
QCTHSA0825-20S
  7
STANDARD1
  0
TEXT
  5
884B
  8
0
 62
     3
 10
135.0
 20
-7.0
 30
0.0
 40
3.2000000000000002
  1
■Installation Instructions for Retractable Heavy Duty Quarter-Turn Clamps (see diagram below)
  0
TEXT
  5
884C
  8
0
 62
     3
 10
153.77999999999989
 20
-26.168098188633891
 30
0.0
 40
3.2000000000000002
  1
For installation on plate of 9 mm thickness.
 72
     1
 11
212.49999999999989
 21
-26.594764855300561
 31
0.0
 73
     1
  0
TEXT
  5
884D
  8
0
 62
     3
 10
293.36666666666667
 20
-26.168098188633891
 30
0.0
 40
3.2000000000000002
  1
For installation on plate of over 9 to 20 mm thickness.
 72
     1
 11
367.49999999999989
 21
-26.594764855300561
 31
0.0
 73
     1
  0
TEXT
  5
884E
  8
0
 62
     3
 10
152.53999999999979
 20
-131.67327044564291
 30
0.0
 40
3.2000000000000002
  1
Installed condition
 72
     1
 11
177.49999999999989
 21
-131.67327044564291
 31
0.0
  0
TEXT
  5
884F
  8
0
 62
     3
 10
225.4733333333333
 20
-131.67327044564291
 30
0.0
 40
3.2000000000000002
  1
Installation hole
 72
     1
 11
247.5
 21
-131.67327044564291
 31
0.0
  0
TEXT
  5
8850
  8
0
 62
     3
 10
307.53999999999991
 20
-131.67327044564291
 30
0.0
 40
3.2000000000000002
  1
Installed condition
 72
     1
 11
332.49999999999989
 21
-131.67327044564291
 31
0.0
  0
TEXT
  5
8851
  8
0
 62
     3
 10
380.4733333333333
 20
-131.67327044564291
 30
0.0
 40
3.2000000000000002
  1
Installation hole
 72
     1
 11
402.5
 21
-131.67327044564291
 31
0.0
  0
TEXT
  5
115B4
  8
0
 62
     3
 10
141.0
 20
-154.84136863427679
 30
0.0
 40
3.2000000000000002
  1
スペーサー(QCTHSA)を使用する場合
  0
TEXT
  5
115B5
  8
0
 62
     3
 10
141.0
 20
-161.84136863427679
 30
0.0
 40
3.2000000000000002
  1
To use with a spacer(QCTHSA)
 41
0.85
  0
TEXT
  5
115B8
  8
0
 62
     3
 10
185.0866666666665
 20
-174.04136863427681
 30
0.0
 40
3.2000000000000002
  1
6mmのプレートに固定する場合
 72
     1
 11
212.4999999999998
 21
-174.4680353009434
 31
0.0
 73
     1
  0
TEXT
  5
115B9
  8
0
 62
     3
 10
325.6866666666665
 20
-174.04136863427681
 30
0.0
 40
3.2000000000000002
  1
6mmを超え9mm未満のプレートに固定する場合
 72
     1
 11
367.49999999999989
 21
-174.4680353009434
 31
0.0
 73
     1
  0
TEXT
  5
115BA
  8
0
 62
     3
 10
168.4333333333332
 20
-272.54510617962092
 30
0.0
 40
3.2000000000000002
  1
組付け状態
 72
     1
 11
177.49999999999989
 21
-272.54510617962092
 31
0.0
  0
TEXT
  5
115BB
  8
0
 62
     3
 10
240.2466666666667
 20
-272.54510617962092
 30
0.0
 40
3.2000000000000002
  1
取付け穴
 72
     1
 11
247.5
 21
-272.54510617962092
 31
0.0
  0
TEXT
  5
115BC
  8
0
 62
     3
 10
323.43333333333322
 20
-272.54510617962092
 30
0.0
 40
3.2000000000000002
  1
組付け状態
 72
     1
 11
332.49999999999989
 21
-272.54510617962092
 31
0.0
  0
TEXT
  5
115BD
  8
0
 62
     3
 10
395.24666666666673
 20
-272.54510617962092
 30
0.0
 40
3.2000000000000002
  1
取付け穴
 72
     1
 11
402.5
 21
-272.54510617962092
 31
0.0
  0
TEXT
  5
115BE
  8
0
 62
     3
 10
153.7799999999998
 20
-181.04136863427681
 30
0.0
 40
3.2000000000000002
  1
For installation on plate of 6 mm thickness.
 72
     1
 11
212.4999999999998
 21
-181.46803530094351
 31
0.0
 73
     1
  0
TEXT
  5
115BF
  8
0
 62
     3
 10
294.69999999999987
 20
-181.04136863427681
 30
0.0
 40
3.2000000000000002
  1
For installation on plate of over 6 to 9 mm thickness.
 72
     1
 11
367.49999999999989
 21
-181.46803530094351
 31
0.0
 73
     1
  0
TEXT
  5
115C0
  8
0
 62
     3
 10
152.53999999999979
 20
-279.5451061796208
 30
0.0
 40
3.2000000000000002
  1
Installed condition
 72
     1
 11
177.49999999999989
 21
-279.5451061796208
 31
0.0
  0
TEXT
  5
115C1
  8
0
 62
     3
 10
225.4733333333333
 20
-279.5451061796208
 30
0.0
 40
3.2000000000000002
  1
Installation hole
 72
     1
 11
247.5
 21
-279.5451061796208
 31
0.0
  0
TEXT
  5
115C2
  8
0
 62
     3
 10
307.53999999999991
 20
-279.5451061796208
 30
0.0
 40
3.2000000000000002
  1
Installed condition
 72
     1
 11
332.49999999999989
 21
-279.5451061796208
 31
0.0
  0
TEXT
  5
115C3
  8
0
 62
     3
 10
380.4733333333333
 20
-279.5451061796208
 30
0.0
 40
3.2000000000000002
  1
Installation hole
 72
     1
 11
402.5
 21
-279.5451061796208
 31
0.0
  0
LINE
  5
159FE
  8
0
 10
112.60000001639121
 20
115.50000008428469
 30
0.0
 11
112.60000001639121
 21
113.4999999892898
 31
0.0
  0
LINE
  5
159FF
  8
0
 10
116.4000000804662
 20
113.4999999892898
 30
0.0
 11
116.4000000804662
 21
115.50000008428469
 31
0.0
  0
LINE
  5
15A00
  8
0
 10
115.50000067800281
 20
115.50000008428469
 30
0.0
 11
115.50000067800281
 21
120.9999995888211
 31
0.0
  0
LINE
  5
15A01
  8
0
 10
113.5000003501773
 20
120.9999995888211
 30
0.0
 11
113.5000003501773
 21
115.50000008428469
 31
0.0
  0
LINE
  5
15A02
  8
0
 10
128.35000026971099
 20
115.50000008428469
 30
0.0
 11
128.35000026971099
 21
113.4999999892898
 31
0.0
  0
LINE
  5
15A03
  8
0
 10
132.15000033378601
 20
113.4999999892898
 30
0.0
 11
132.15000033378601
 21
115.50000008428469
 31
0.0
  0
LINE
  5
15A04
  8
0
 10
131.25000046566129
 20
115.50000008428469
 30
0.0
 11
131.25000046566129
 21
120.9999995888211
 31
0.0
  0
LINE
  5
15A05
  8
0
 10
129.250000603497
 20
120.9999995888211
 30
0.0
 11
129.250000603497
 21
115.50000008428469
 31
0.0
  0
LINE
  5
15A06
  8
0
 10
135.5985290887578
 20
164.40016822205729
 30
0.0
 11
134.58284679800269
 21
164.7698471904732
 31
0.0
  0
LINE
  5
15A07
  8
0
 10
115.4171537912203
 20
164.76984628664411
 30
0.0
 11
114.4014716563001
 21
164.40016822205729
 31
0.0
  0
ARC
  5
15A08
  8
0
 10
113.52688743738391
 20
149.79999887030979
 30
0.0
 40
0.4999970642049957
 50
176.9998554627812
 51
270.00034257235689
  0
ARC
  5
15A09
  8
0
 10
136.4731103098884
 20
149.79999997625131
 30
0.0
 40
0.5
 50
270.0
 51
2.999999999995814
  0
LINE
  5
15A0A
  8
0
 10
113.74486181885
 20
163.5128113091923
 30
0.0
 11
113.02757566779211
 21
149.82616795437269
 31
0.0
  0
LINE
  5
15A0B
  8
0
 10
136.97242494672531
 20
149.8261692584492
 30
0.0
 11
136.25513892620799
 21
163.5128113091923
 31
0.0
  0
ARC
  5
15A0C
  8
0
 10
114.74349261288491
 20
163.46047451218561
 30
0.0
 40
1.0000013015569491
 50
110.0000224441154
 51
176.99995566997441
  0
ARC
  5
15A0D
  8
0
 10
135.2565081321728
 20
163.4604745121853
 30
0.0
 40
1.000001301557311
 50
3.000044330041896
 51
69.999977555877535
  0
ARC
  5
15A0E
  8
0
 10
134.41183458998211
 20
164.2999737763688
 30
0.0
 40
0.5000261998877555
 50
70.000832177096143
 51
89.999738218638484
  0
ARC
  5
15A0F
  8
0
 10
115.5881614165455
 20
164.30000910610869
 30
0.0
 40
0.4999905840441605
 50
89.999772914129494
 51
110.00009440112279
  0
LINE
  5
15A10
  8
0
 10
137.50000055879349
 20
121.4999996707774
 30
0.0
 11
137.50000055879349
 21
134.25798552343619
 31
0.0
  0
LINE
  5
15A11
  8
0
 10
112.5000001862645
 20
134.25798552343619
 30
0.0
 11
112.5000001862645
 21
121.4999996707774
 31
0.0
  0
LINE
  5
15A12
  8
0
 10
112.5000001862645
 20
121.4999996707774
 30
0.0
 11
113.0000002682209
 21
120.9999995888211
 31
0.0
  0
LINE
  5
15A13
  8
0
 10
137.0000004768371
 20
120.9999995888211
 30
0.0
 11
137.50000055879349
 21
121.4999996707774
 31
0.0
  0
ARC
  5
15A14
  8
0
 10
113.0000003725289
 20
134.2579855043478
 30
0.0
 40
0.500000000000012
 50
110.00000000000379
 51
180.0
  0
ARC
  5
15A15
  8
0
 10
137.00000037252889
 20
134.2579855043478
 30
0.0
 40
0.5000000000000169
 50
0.0
 51
69.999999999996106
  0
LINE
  5
15A16
  8
0
 10
137.1710108593106
 20
134.72783217439431
 30
0.0
 11
134.76319275796411
 21
135.60420671710739
 31
0.0
  0
LINE
  5
15A17
  8
0
 10
115.2368079870939
 20
135.60420671710739
 30
0.0
 11
112.8289898857474
 21
134.72783217439431
 31
0.0
  0
ARC
  5
15A18
  8
0
 10
134.90000037252889
 20
135.98008299153511
 30
0.0
 40
0.4000000000000057
 50
180.0
 51
249.99999999999611
  0
ARC
  5
15A19
  8
0
 10
115.1000003725289
 20
135.98008299153511
 30
0.0
 40
0.3999999999999915
 50
290.00000000000392
 51
0.0
  0
LINE
  5
15A1A
  8
0
 10
134.5000000670552
 20
135.9800829202868
 30
0.0
 11
134.5000000670552
 21
149.30000180611381
 31
0.0
  0
LINE
  5
15A1B
  8
0
 10
115.50000067800281
 20
149.30000180611381
 30
0.0
 11
115.50000067800281
 21
135.9800829202868
 31
0.0
  0
ARC
  5
15A1C
  8
0
 10
132.2000003725289
 20
120.5999999762512
 30
0.0
 40
0.4000000000000057
 50
90.0
 51
180.0
  0
ARC
  5
15A1D
  8
0
 10
117.800000372529
 20
120.5999999762512
 30
0.0
 40
0.4000000000000057
 50
0.0
 51
90.0
  0
LINE
  5
15A1E
  8
0
 10
118.00000015646221
 20
113.4999999892898
 30
0.0
 11
119.00000032037489
 21
112.5
 31
0.0
  0
LINE
  5
15A1F
  8
0
 10
131.00000042468309
 20
112.5
 30
0.0
 11
132.00000058859581
 21
113.4999999892898
 31
0.0
  0
LINE
  5
15A20
  8
0
 10
132.00000058859581
 20
115.50000008428469
 30
0.0
 11
132.00000058859581
 21
117.6535899401642
 31
0.0
  0
LINE
  5
15A21
  8
0
 10
118.00000015646221
 20
117.6535899401642
 30
0.0
 11
118.00000015646221
 21
113.4999999892898
 31
0.0
  0
LINE
  5
15A22
  8
0
 10
132.00000058859581
 20
117.6535899401642
 30
0.0
 11
131.800000462681
 21
118.0000000284053
 31
0.0
  0
LINE
  5
15A23
  8
0
 10
118.200000282377
 20
118.0000000284053
 30
0.0
 11
118.00000015646221
 21
117.6535899401642
 31
0.0
  0
LINE
  5
15A24
  8
0
 10
131.800000462681
 20
118.0000000284053
 30
0.0
 11
131.800000462681
 21
120.60000026831401
 31
0.0
  0
LINE
  5
15A25
  8
0
 10
118.200000282377
 20
118.61249689245589
 30
0.0
 11
118.200000282377
 21
118.0000000284053
 31
0.0
  0
LINE
  5
15A26
  8
0
 10
112.60000001639121
 20
115.50000008428469
 30
0.0
 11
116.4000000804662
 21
115.50000008428469
 31
0.0
  0
LINE
  5
15A27
  8
0
 10
112.60000001639121
 20
113.4999999892898
 30
0.0
 11
116.4000000804662
 21
113.4999999892898
 31
0.0
  0
LINE
  5
15A28
  8
0
 10
128.35000026971099
 20
115.50000008428469
 30
0.0
 11
132.15000033378601
 21
115.50000008428469
 31
0.0
  0
LINE
  5
15A2A
  8
0
 10
128.35000026971099
 20
113.4999999892898
 30
0.0
 11
132.15000033378601
 21
113.4999999892898
 31
0.0
  0
LINE
  5
15A2C
  8
0
 10
118.200000282377
 20
119.6000001044012
 30
0.0
 11
118.200000282377
 21
120.6000002683131
 31
0.0
  0
LINE
  5
15A2D
  8
0
 10
118.200000282377
 20
118.6124968924553
 30
0.0
 11
118.200000282377
 21
119.6000001044012
 31
0.0
  0
LINE
  5
15A35
  8
0
 10
136.4731103098884
 20
149.29999997625131
 30
0.0
 11
113.5268904268741
 21
149.30000180611381
 31
0.0
  0
LINE
  5
15A38
  8
0
 10
115.58816339820621
 20
164.79999969014889
 30
0.0
 11
134.41183687457519
 21
164.79999997625131
 31
0.0
  0
LINE
  5
15A39
  8
0
 10
112.5000001862645
 20
121.4999996707774
 30
0.0
 11
137.50000055879349
 21
121.4999996707774
 31
0.0
  0
ARC
  5
15A3B
  8
0
 10
122.61606234249101
 20
131.90354314717399
 30
0.0
 40
1.8876251922317679
 50
139.0017865900052
 51
183.0212046931145
  0
ARC
  5
15A3C
  8
0
 10
122.6170702716267
 20
131.7049116547654
 30
0.0
 40
1.888613573276547
 50
176.9908620650105
 51
220.98609756473559
  0
POLYLINE
  5
15A3D
  8
0
 66
     1
 10
0.0
 20
0.0
 30
0.0
 70
   128
  0
VERTEX
  5
17AB0
  8
0
 10
122.1879403106868
 20
130.0405396730639
 30
0.0
  0
VERTEX
  5
17AB1
  8
0
 10
121.6443857643753
 20
130.14659496257079
 30
0.0
  0
VERTEX
  5
17AB2
  8
0
 10
121.1914149112999
 20
130.4662155569531
 30
0.0
  0
SEQEND
  5
17AB3
  8
0
  0
POLYLINE
  5
15A3E
  8
0
 66
     1
 10
0.0
 20
0.0
 30
0.0
 70
   128
  0
VERTEX
  5
17AB4
  8
0
 10
123.203688673675
 20
130.4662155569531
 30
0.0
  0
VERTEX
  5
17AB5
  8
0
 10
122.7371570654213
 20
130.14659496257079
 30
0.0
  0
VERTEX
  5
17AB6
  8
0
 10
122.1879403106868
 20
130.0405396730639
 30
0.0
  0
SEQEND
  5
17AB7
  8
0
  0
ARC
  5
15A3F
  8
0
 10
121.8447903205228
 20
131.7124804790283
 30
0.0
 40
1.8438495031304949
 50
317.47562362168139
 51
2.846753041277521
  0
ARC
  5
15A40
  8
0
 10
121.84576508257889
 20
131.89597916321409
 30
0.0
 40
1.842893367002254
 50
357.14087536529388
 51
42.536798903422039
  0
POLYLINE
  5
15A41
  8
0
 66
     1
 10
0.0
 20
0.0
 30
0.0
 70
   128
  0
VERTEX
  5
17AB8
  8
0
 10
122.1879403106868
 20
133.5675681591965
 30
0.0
  0
VERTEX
  5
17AB9
  8
0
 10
122.7371570654213
 20
133.46151473233471
 30
0.0
  0
VERTEX
  5
17ABA
  8
0
 10
123.203688673675
 20
133.1418922753073
 30
0.0
  0
SEQEND
  5
17ABB
  8
0
  0
POLYLINE
  5
15A42
  8
0
 66
     1
 10
0.0
 20
0.0
 30
0.0
 70
   128
  0
VERTEX
  5
17ABC
  8
0
 10
121.1914149112999
 20
133.1418922753073
 30
0.0
  0
VERTEX
  5
17ABD
  8
0
 10
121.6443857643753
 20
133.46151473233471
 30
0.0
  0
VERTEX
  5
17ABE
  8
0
 10
122.1879403106868
 20
133.5675681591965
 30
0.0
  0
SEQEND
  5
17ABF
  8
0
  0
LINE
  5
15A43
  8
0
 10
129.4616911560297
 20
133.52702768752351
 30
0.0
 11
127.20610192045569
 21
133.52702768752351
 31
0.0
  0
LINE
  5
15A44
  8
0
 10
127.20610192045569
 20
130.06081084022301
 30
0.0
 11
127.20610192045569
 21
133.52702768752351
 31
0.0
  0
LINE
  5
15A45
  8
0
 10
127.67656091600649
 20
130.06081084022301
 30
0.0
 11
127.20610192045569
 21
130.06081084022301
 31
0.0
  0
LINE
  5
15A46
  8
0
 10
127.67656091600649
 20
131.62312308559191
 30
0.0
 11
127.67656091600649
 21
130.06081084022301
 31
0.0
  0
LINE
  5
15A47
  8
0
 10
129.08071037381879
 20
131.62312308559191
 30
0.0
 11
127.67656091600649
 21
131.62312308559191
 31
0.0
  0
LINE
  5
15A48
  8
0
 10
129.08071037381879
 20
132.00675720581779
 30
0.0
 11
129.08071037381879
 21
131.62312308559191
 31
0.0
  0
LINE
  5
15A49
  8
0
 10
129.08071037381879
 20
132.00675720581779
 30
0.0
 11
127.67656091600649
 21
132.00675720581779
 31
0.0
  0
LINE
  5
15A4A
  8
0
 10
127.67656091600649
 20
133.14339356729761
 30
0.0
 11
127.67656091600649
 21
132.00675720581779
 31
0.0
  0
LINE
  5
15A4B
  8
0
 10
129.4616911560297
 20
133.14339356729761
 30
0.0
 11
127.67656091600649
 21
133.14339356729761
 31
0.0
  0
LINE
  5
15A4C
  8
0
 10
129.4616911560297
 20
133.52702768752351
 30
0.0
 11
129.4616911560297
 21
133.14339356729761
 31
0.0
  0
LINE
  5
15A4D
  8
0
 10
126.7219843808561
 20
133.52702768752351
 30
0.0
 11
124.3831339175813
 21
133.52702768752351
 31
0.0
  0
LINE
  5
15A4E
  8
0
 10
124.3831339175813
 20
130.06081084022301
 30
0.0
 11
124.3831339175813
 21
133.52702768752351
 31
0.0
  0
LINE
  5
15A4F
  8
0
 10
124.86261575540991
 20
130.06081084022301
 30
0.0
 11
124.3831339175813
 21
130.06081084022301
 31
0.0
  0
LINE
  5
15A50
  8
0
 10
124.86261575540991
 20
131.62312308559191
 30
0.0
 11
124.86261575540991
 21
130.06081084022301
 31
0.0
  0
LINE
  5
15A51
  8
0
 10
126.3196089072153
 20
131.62312308559191
 30
0.0
 11
124.86261575540991
 21
131.62312308559191
 31
0.0
  0
LINE
  5
15A52
  8
0
 10
126.3196089072153
 20
132.00675720581779
 30
0.0
 11
126.3196089072153
 21
131.62312308559191
 31
0.0
  0
LINE
  5
15A53
  8
0
 10
126.3196089072153
 20
132.00675720581779
 30
0.0
 11
124.86261575540991
 21
132.00675720581779
 31
0.0
  0
LINE
  5
15A54
  8
0
 10
124.86261575540991
 20
133.14339356729761
 30
0.0
 11
124.86261575540991
 21
132.00675720581779
 31
0.0
  0
LINE
  5
15A55
  8
0
 10
126.7219843808561
 20
133.14339356729761
 30
0.0
 11
124.86261575540991
 21
133.14339356729761
 31
0.0
  0
LINE
  5
15A56
  8
0
 10
126.7219843808561
 20
133.52702768752351
 30
0.0
 11
126.7219843808561
 21
133.14339356729761
 31
0.0
  0
POLYLINE
  5
15A57
  8
0
 66
     1
 10
0.0
 20
0.0
 30
0.0
 70
   128
  0
VERTEX
  5
17AC0
  8
0
 10
116.6172562167048
 20
133.50000070640809
 30
0.0
  0
VERTEX
  5
17AC1
  8
0
 10
117.6243772730231
 20
132.7499991864897
 30
0.0
  0
VERTEX
  5
17AC2
  8
0
 10
118.7110831029713
 20
131.99999952921641
 30
0.0
  0
SEQEND
  5
17AC3
  8
0
  0
LINE
  5
15A58
  8
0
 10
116.6172562167048
 20
132.7499991864897
 30
0.0
 11
116.6172562167048
 21
133.50000070640809
 31
0.0
  0
LINE
  5
15A59
  8
0
 10
116.6172562167048
 20
132.7499991864897
 30
0.0
 11
112.77839206159111
 21
132.7499991864897
 31
0.0
  0
LINE
  5
15A5A
  8
0
 10
112.77839206159111
 20
133.50000070640809
 30
0.0
 11
112.77839206159111
 21
132.7499991864897
 31
0.0
  0
POLYLINE
  5
15A5B
  8
0
 66
     1
 10
0.0
 20
0.0
 30
0.0
 70
   128
  0
VERTEX
  5
17AC4
  8
0
 10
112.50008121132851
 20
131.99999952921641
 30
0.0
  0
VERTEX
  5
17AC5
  8
0
 10
112.5721869990229
 20
132.7499991864897
 30
0.0
  0
VERTEX
  5
17AC6
  8
0
 10
112.77839206159111
 20
133.50000070640809
 30
0.0
  0
SEQEND
  5
17AC7
  8
0
  0
POLYLINE
  5
15A5C
  8
0
 66
     1
 10
0.0
 20
0.0
 30
0.0
 70
   128
  0
VERTEX
  5
17AC8
  8
0
 10
112.77839206159111
 20
130.5000002146698
 30
0.0
  0
VERTEX
  5
17AC9
  8
0
 10
112.5721869990229
 20
131.24999987194309
 30
0.0
  0
VERTEX
  5
17ACA
  8
0
 10
112.50008121132851
 20
131.99999952921641
 30
0.0
  0
SEQEND
  5
17ACB
  8
0
  0
LINE
  5
15A5D
  8
0
 10
112.77839206159111
 20
131.24999987194309
 30
0.0
 11
112.77839206159111
 21
130.5000002146698
 31
0.0
  0
LINE
  5
15A5E
  8
0
 10
116.6172562167048
 20
131.24999987194309
 30
0.0
 11
112.77839206159111
 21
131.24999987194309
 31
0.0
  0
LINE
  5
15A5F
  8
0
 10
116.6172562167048
 20
130.5000002146698
 30
0.0
 11
116.6172562167048
 21
131.24999987194309
 31
0.0
  0
POLYLINE
  5
15A60
  8
0
 66
     1
 10
0.0
 20
0.0
 30
0.0
 70
   128
  0
VERTEX
  5
17ACC
  8
0
 10
118.7110831029713
 20
131.99999952921641
 30
0.0
  0
VERTEX
  5
17ACD
  8
0
 10
117.6243772730231
 20
131.24999987194309
 30
0.0
  0
VERTEX
  5
17ACE
  8
0
 10
116.6172562167048
 20
130.5000002146698
 30
0.0
  0
SEQEND
  5
17ACF
  8
0
  0
LINE
  5
15A62
  8
0
 10
137.0000004768371
 20
120.9999995888211
 30
0.0
 11
113.0000002682208
 21
120.9999995888211
 31
0.0
  0
ARC
  5
15A6E
  8
0
 10
121.7709391455523
 20
131.66682147176539
 30
0.0
 40
1.4393068504451489
 50
319.37754983964152
 51
5.4712835271052587
  0
ARC
  5
15A71
  8
0
 10
122.1852890287238
 20
132.27425376399921
 30
0.0
 40
0.9081828529677796
 50
41.697778854763499
 51
89.832734694277434
  0
ARC
  5
15A72
  8
0
 10
121.7709399170118
 20
131.9412868427865
 30
0.0
 40
1.439305950888573
 50
354.52876824344639
 51
40.622455582527728
  0
ARC
  5
15A73
  8
0
 10
122.1823067313
 20
131.34047923345599
 30
0.0
 40
0.9148214944657839
 50
270.35283644349971
 51
318.11665000745251
  0
ARC
  5
15A74
  8
0
 10
122.18868655361899
 20
131.31073562246769
 30
0.0
 40
0.8850608517866806
 50
221.0303638451185
 51
269.95169080691898
  0
ARC
  5
15A75
  8
0
 10
122.6465881632955
 20
131.66279140105871
 30
0.0
 40
1.4620138695000979
 50
174.45528768197261
 51
219.65796253392071
  0
ARC
  5
15A76
  8
0
 10
122.6465873474682
 20
131.9453169264261
 30
0.0
 40
1.4620129253669369
 50
140.3420320028039
 51
185.54466206923641
  0
ARC
  5
15A77
  8
0
 10
122.1911424371053
 20
132.2919855009695
 30
0.0
 40
0.8904530035559614
 50
90.206039761714479
 51
138.81190558623791
  0
LINE
  5
15A8E
  8
0
 10
131.00000042468309
 20
112.5
 30
0.0
 11
119.0000003203748
 21
112.5
 31
0.0
  0
LINE
  5
15A8F
  8
0
 10
118.00000015646209
 20
113.4999999892898
 30
0.0
 11
128.35000026971099
 21
113.4999999892898
 31
0.0
  0
LINE
  5
15A91
  8
0
 10
129.25000060349711
 20
117.6535899401642
 30
0.0
 11
118.00000015646221
 21
117.6535899401642
 31
0.0
  0
LINE
  5
15A92
  8
0
 10
132.00000058859581
 20
117.6535899401642
 30
0.0
 11
131.25000046566129
 21
117.6535899401642
 31
0.0
  0
LINE
  5
15A94
  8
0
 10
129.25000060349689
 20
118.0000000284053
 30
0.0
 11
118.200000282377
 21
118.0000000284053
 31
0.0
  0
LINE
  5
15A95
  8
0
 10
131.800000462681
 20
118.0000000284053
 30
0.0
 11
131.25000046566129
 21
118.0000000284053
 31
0.0
  0
ARC
  5
15A97
  8
0
 10
111.52625643892129
 20
119.6062485803842
 30
0.0
 40
6.7473253445586883
 50
351.53062050714902
 51
8.4693794928641246
  0
ARC
  5
15A9B
  8
0
 10
126.709746012949
 20
149.7871377854301
 30
0.0
 40
0.4874205324402663
 50
271.95789108894758
 51
4.5930269757680993
  0
ARC
  5
15A9C
  8
0
 10
126.3405147125013
 20
151.89932717521521
 30
0.0
 40
8.9227309592618216
 50
87.15630190620395
 51
92.843698093796036
  0
LINE
  5
15A9D
  8
0
 10
126.7831849632784
 20
160.81107059726489
 30
0.0
 11
127.1956012584269
 21
149.8261692584492
 31
0.0
  0
ARC
  5
15A9F
  8
0
 10
123.29025473210891
 20
149.7871377854301
 30
0.0
 40
0.487420532440255
 50
175.40697302423189
 51
268.04210891105242
  0
ARC
  5
15AA2
  8
0
 10
123.6594860325567
 20
151.89932717521521
 30
0.0
 40
8.9227309592618216
 50
87.15630190620395
 51
92.843698093796036
  0
LINE
  5
15AA4
  8
0
 10
122.8043994866311
 20
149.8261692584492
 30
0.0
 11
123.2168157817796
 21
160.81107059726489
 31
0.0
  0
LINE
  5
15AA6
  8
0
 10
125.89784446172411
 20
160.81107059726489
 30
0.0
 11
124.1021562833339
 21
160.81107059726489
 31
0.0
  0
ARC
  5
15AAA
  8
0
 10
121.78999501786561
 20
160.96369878852161
 30
0.0
 40
1.4349609252875699
 50
353.89424157860299
 51
30.798466208759582
  0
ARC
  5
15AAD
  8
0
 10
128.0923062983461
 20
160.98946118070529
 30
0.0
 40
1.3212198417332299
 50
147.5475385604845
 51
187.75975365215621
  0
ARC
  5
15AAE
  8
0
 10
121.9745212706418
 20
149.7871377428674
 30
0.0
 40
0.4874204923901652
 50
175.40696762670021
 51
268.04210018556279
  0
ARC
  5
15AB1
  8
0
 10
128.02547947441599
 20
149.7871377428674
 30
0.0
 40
0.4874204923901961
 50
271.95789981443721
 51
4.5930323732997911
  0
LINE
  5
15AB2
  8
0
 10
127.8816563077271
 20
162.6122410059906
 30
0.0
 11
126.97741216979919
 21
161.69842729577789
 31
0.0
  0
LINE
  5
15AB3
  8
0
 10
128.51133467629549
 20
149.8261692584492
 30
0.0
 11
127.8816563077271
 21
162.6122410059906
 31
0.0
  0
LINE
  5
15AB4
  8
0
 10
123.02258857525879
 20
161.69842729577789
 30
0.0
 11
122.1183444373309
 21
162.6122410059906
 31
0.0
  0
LINE
  5
15AB5
  8
0
 10
122.1183444373309
 20
162.6122410059906
 30
0.0
 11
121.4886660687625
 21
149.8261692584492
 31
0.0
  0
POLYLINE
  5
15AC0
  8
0
 66
     1
 10
0.0
 20
0.0
 30
0.0
 70
   128
  0
VERTEX
  5
17AD0
  8
0
 10
130.80008365213871
 20
149.8261692584492
 30
0.0
  0
VERTEX
  5
17AD1
  8
0
 10
130.7976761832833
 20
149.72501645097509
 30
0.0
  0
VERTEX
  5
17AD2
  8
0
 10
130.78544372692701
 20
149.62694073328751
 30
0.0
  0
VERTEX
  5
17AD3
  8
0
 10
130.76388826593751
 20
149.53596541890869
 30
0.0
  0
VERTEX
  5
17AD4
  8
0
 10
130.73389362543821
 20
149.45582324871791
 30
0.0
  0
VERTEX
  5
17AD5
  8
0
 10
130.6966910138726
 20
149.38979992875829
 30
0.0
  0
VERTEX
  5
17AD6
  8
0
 10
130.6538064032793
 20
149.34060374507681
 30
0.0
  0
VERTEX
  5
17AD7
  8
0
 10
130.60699859634039
 20
149.31025753030551
 30
0.0
  0
VERTEX
  5
17AD8
  8
0
 10
130.5581889115274
 20
149.30000180611381
 30
0.0
  0
SEQEND
  5
17AD9
  8
0
  0
POLYLINE
  5
15AC1
  8
0
 66
     1
 10
0.0
 20
0.0
 30
0.0
 70
   128
  0
VERTEX
  5
17ADA
  8
0
 10
119.44181183353059
 20
149.30000180611381
 30
0.0
  0
VERTEX
  5
17ADB
  8
0
 10
119.3930021487176
 20
149.31025753030551
 30
0.0
  0
VERTEX
  5
17ADC
  8
0
 10
119.3461943417787
 20
149.34060374507681
 30
0.0
  0
VERTEX
  5
17ADD
  8
0
 10
119.30330973118539
 20
149.38979992875829
 30
0.0
  0
VERTEX
  5
17ADE
  8
0
 10
119.2661071196198
 20
149.45582324871791
 30
0.0
  0
VERTEX
  5
17ADF
  8
0
 10
119.23611247912049
 20
149.53596541890869
 30
0.0
  0
VERTEX
  5
17AE0
  8
0
 10
119.214557018131
 20
149.62694073328751
 30
0.0
  0
VERTEX
  5
17AE1
  8
0
 10
119.2023245617747
 20
149.72501645097509
 30
0.0
  0
VERTEX
  5
17AE2
  8
0
 10
119.19991709291931
 20
149.8261692584492
 30
0.0
  0
SEQEND
  5
17AE3
  8
0
  0
ARC
  5
15AC3
  8
0
 10
119.7995149550125
 20
160.11249942052621
 30
0.0
 40
3.40964487332166
 50
47.150146486984127
 51
94.240259595009277
  0
LINE
  5
15AC4
  8
0
 10
119.19991709291931
 20
149.8261692584492
 30
0.0
 11
119.5474093779921
 21
163.5128113091923
 31
0.0
  0
ARC
  5
15AC5
  8
0
 10
130.20110743334931
 20
160.11072476222469
 30
0.0
 40
3.4113687930177972
 50
85.772356510721465
 51
132.8372374072872
  0
LINE
  5
15AC6
  8
0
 10
130.45259136706591
 20
163.5128113091923
 30
0.0
 11
130.80008365213871
 21
149.8261692584492
 31
0.0
  0
LINE
  5
15ACB
  8
0
 10
119.5474093779921
 20
163.5128113091923
 30
0.0
 11
113.74486181885
 21
163.5128113091923
 31
0.0
  0
LINE
  5
15ACC
  8
0
 10
136.25513892620799
 20
163.5128113091923
 30
0.0
 11
130.45259136706591
 21
163.5128113091923
 31
0.0
  0
LINE
  5
15ACE
  8
0
 10
112.8289898857474
 20
134.72783217439431
 30
0.0
 11
137.1710108593106
 21
134.72783217439431
 31
0.0
  0
LINE
  5
15AD2
  8
0
 10
115.50000067800281
 20
135.9800829202868
 30
0.0
 11
134.50000037252889
 21
135.9800829202868
 31
0.0
  0
LINE
  5
15AD3
  8
0
 10
131.800000462681
 20
120.60000026831401
 30
0.0
 11
131.25000046566129
 21
120.60000026831401
 31
0.0
  0
LINE
  5
15AD4
  8
0
 10
129.250000603497
 20
120.60000026831401
 30
0.0
 11
118.200000282377
 21
120.60000026831401
 31
0.0
  0
CIRCLE
  5
15AE4
  8
0
 10
125.000000372529
 20
214.799999875308
 30
0.0
 40
3.000000000000028
  0
LINE
  5
15AE5
  8
0
 10
124.42265010904519
 20
215.7999999228054
 30
0.0
 11
123.8452998455614
 21
214.799999875308
 31
0.0
  0
LINE
  5
15AE6
  8
0
 10
123.8452998455614
 20
214.799999875308
 30
0.0
 11
124.42265010904519
 21
213.7999998278105
 31
0.0
  0
LINE
  5
15AE7
  8
0
 10
124.42265010904519
 20
213.7999998278105
 30
0.0
 11
125.5773506360128
 21
213.7999998278105
 31
0.0
  0
LINE
  5
15AE8
  8
0
 10
125.5773506360128
 20
213.7999998278105
 30
0.0
 11
126.1547008994966
 21
214.799999875308
 31
0.0
  0
LINE
  5
15AE9
  8
0
 10
126.1547008994966
 20
214.799999875308
 30
0.0
 11
125.5773506360128
 21
215.7999999228054
 31
0.0
  0
LINE
  5
15AEA
  8
0
 10
125.5773506360128
 20
215.7999999228054
 30
0.0
 11
124.42265010904519
 21
215.7999999228054
 31
0.0
  0
CIRCLE
  5
15B04
  8
0
 10
125.000000372529
 20
214.799999875308
 30
0.0
 40
9.4118365096457808
  0
CIRCLE
  5
15B05
  8
0
 10
125.000000372529
 20
214.799999875308
 30
0.0
 40
3.4999999999999711
  0
ARC
  5
15B0F
  8
0
 10
116.7642910140658
 20
229.6718886126601
 30
0.0
 40
5.0275748027119631
 50
298.9766730798649
 51
340.00000373653438
  0
ARC
  5
15B12
  8
0
 10
133.23570973099061
 20
199.9281111379569
 30
0.0
 40
5.0275748027102729
 50
118.97667307985721
 51
160.00000373654299
  0
ARC
  5
15B15
  8
0
 10
133.23571004757329
 20
229.6718890003782
 30
0.0
 40
5.0275752952632073
 50
200.00000000000011
 51
241.02332590450331
  0
ARC
  5
15B18
  8
0
 10
116.7642906974846
 20
199.92811075023769
 30
0.0
 40
5.0275752952632011
 50
19.999999999998401
 51
61.023325904503331
  0
ARC
  5
15B1A
  8
0
 10
125.000000372529
 20
214.79999987530789
 30
0.0
 40
11.97242470473684
 50
118.97667409549661
 51
241.02332590450331
  0
ARC
  5
15B1B
  8
0
 10
125.000000372529
 20
214.79999987530789
 30
0.0
 40
11.972424704736831
 50
298.97667409549672
 51
61.023325904503331
  0
LINE
  5
15B25
  8
0
 10
122.8043994866311
 20
231.56730426597679
 30
0.0
 11
121.4886660687625
 21
227.95235706615529
 31
0.0
  0
LINE
  5
15B29
  8
0
 10
128.51133464216889
 20
227.95235697731181
 30
0.0
 11
127.1956012584269
 21
231.56730426597679
 31
0.0
  0
LINE
  5
15B2C
  8
0
 10
121.488666102889
 20
201.64764277330411
 30
0.0
 11
122.8043994866311
 21
198.03269548463911
 31
0.0
  0
LINE
  5
15B2E
  8
0
 10
127.1956012584269
 20
198.03269548463911
 30
0.0
 11
128.51133467629549
 21
201.64764268446049
 31
0.0
  0
ARC
  5
15B3A
  8
0
 10
123.7437876031285
 20
231.22445797749441
 30
0.0
 40
0.999996805466411
 50
94.427281360676943
 51
159.9495526684513
  0
ARC
  5
15B3D
  8
0
 10
126.2562153223051
 20
231.22446085123929
 30
0.0
 40
0.9999937719867347
 50
20.050335487521849
 51
85.57283048335978
  0
ARC
  5
15B3E
  8
0
 10
126.25621314192961
 20
198.37554177312131
 30
0.0
 40
0.999996805466119
 50
274.42728136067041
 51
339.94955266845841
  0
ARC
  5
15B41
  8
0
 10
123.7437854227525
 20
198.37553889937629
 30
0.0
 40
0.9999937719864234
 50
200.0503354875116
 51
265.57283048337268
  0
ARC
  5
15B42
  8
0
 10
125.000000372529
 20
214.79999987530789
 30
0.0
 40
17.472424704736831
 50
85.623223102330329
 51
94.376776897669686
  0
ARC
  5
15B43
  8
0
 10
125.000000372529
 20
214.79999987530789
 30
0.0
 40
17.472424704736799
 50
265.62322310233031
 51
274.37677689766969
  0
ARC
  5
15B4C
  8
0
 10
125.000000372529
 20
214.79999987530789
 30
0.0
 40
12.50000000000002
 50
290.15592331522612
 51
69.844076713285133
  0
ARC
  5
15B4D
  8
0
 10
125.000000372529
 20
214.79999987530789
 30
0.0
 40
12.50000000000002
 50
110.1559233152321
 51
249.84407671328509
  0
LINE
  5
15B5F
  8
0
 10
51.506733708083623
 20
115.50000008428469
 30
0.0
 11
51.506733708083623
 21
113.4999999892898
 31
0.0
  0
LINE
  5
15B60
  8
0
 10
55.306733306497328
 20
113.4999999892898
 30
0.0
 11
55.306733306497328
 21
115.50000008428469
 31
0.0
  0
LINE
  5
15B61
  8
0
 10
54.406733438372612
 20
115.50000008428469
 30
0.0
 11
54.406733438372612
 21
120.9999995888211
 31
0.0
  0
LINE
  5
15B62
  8
0
 10
52.406733110547059
 20
120.9999995888211
 30
0.0
 11
52.406733110547059
 21
115.50000008428469
 31
0.0
  0
LINE
  5
15B63
  8
0
 10
60.600000154227011
 20
115.50000008428469
 30
0.0
 11
60.600000154227011
 21
113.4999999892898
 31
0.0
  0
LINE
  5
15B64
  8
0
 10
64.400000218302011
 20
113.4999999892898
 30
0.0
 11
64.400000218302011
 21
115.50000008428469
 31
0.0
  0
LINE
  5
15B65
  8
0
 10
63.500000233761959
 20
115.50000008428469
 30
0.0
 11
63.500000233761959
 21
120.9999995888211
 31
0.0
  0
LINE
  5
15B66
  8
0
 10
61.500000138767057
 20
120.9999995888211
 30
0.0
 11
61.500000138767057
 21
115.50000008428469
 31
0.0
  0
LINE
  5
15B67
  8
0
 10
69.693267066031694
 20
115.50000008428469
 30
0.0
 11
69.693267066031694
 21
113.4999999892898
 31
0.0
  0
LINE
  5
15B68
  8
0
 10
73.4932666644454
 20
113.4999999892898
 30
0.0
 11
73.4932666644454
 21
115.50000008428469
 31
0.0
  0
LINE
  5
15B69
  8
0
 10
72.593267261981964
 20
115.50000008428469
 30
0.0
 11
72.593267261981964
 21
120.9999995888211
 31
0.0
  0
LINE
  5
15B6A
  8
0
 10
70.593266934156404
 20
120.9999995888211
 30
0.0
 11
70.593266934156404
 21
115.50000008428469
 31
0.0
  0
LINE
  5
15B6C
  8
0
 10
78.083511628210545
 20
162.58578399429089
 30
0.0
 11
72.082846767573187
 21
164.76984628664431
 31
0.0
  0
LINE
  5
15B6D
  8
0
 10
52.917153604955843
 20
164.7698462866442
 30
0.0
 11
46.916488559789059
 21
162.58578282440189
 31
0.0
  0
ARC
  5
15B6E
  8
0
 10
71.911839142248141
 20
164.30000910610869
 30
0.0
 40
0.4999905840442054
 50
69.999905598891132
 51
90.000227085883509
  0
ARC
  5
15B6F
  8
0
 10
53.088161230280889
 20
164.30000910610889
 30
0.0
 40
0.4999905840439899
 50
89.999772914116463
 51
110.0000944011158
  0
ARC
  5
15B70
  8
0
 10
45.52689024890492
 20
149.79999997625131
 30
0.0
 40
0.5
 50
177.00000000000421
 51
270.0
  0
ARC
  5
15B71
  8
0
 10
79.473110123623997
 20
149.79999997625131
 30
0.0
 40
0.5
 50
270.0
 51
2.999999999995814
  0
LINE
  5
15B72
  8
0
 10
45.603269776931363
 20
160.81106949531591
 30
0.0
 11
45.027575481527599
 21
149.82616795437269
 31
0.0
  0
LINE
  5
15B73
  8
0
 10
79.97242489100131
 20
149.82616795437269
 30
0.0
 11
79.396730595597646
 21
160.81106949531591
 31
0.0
  0
ARC
  5
15B74
  8
0
 10
77.399468460480534
 20
160.70639648216451
 30
0.0
 40
2.000003119011275
 50
3.000026892180423
 51
69.99994468809075
  0
ARC
  5
15B75
  8
0
 10
47.600528846440511
 20
160.70639758283011
 30
0.0
 40
1.9999999999999949
 50
110.00000000000379
 51
177.00000000000091
  0
LINE
  5
15B78
  8
0
 10
75.000000372529016
 20
121.4999996707774
 30
0.0
 11
75.000000372529016
 21
134.25798552343619
 31
0.0
  0
LINE
  5
15B79
  8
0
 10
50.0
 20
134.25798552343619
 30
0.0
 11
50.0
 21
121.4999996707774
 31
0.0
  0
LINE
  5
15B7A
  8
0
 10
50.0
 20
121.4999996707774
 30
0.0
 11
50.500000081956379
 21
120.9999995888211
 31
0.0
  0
LINE
  5
15B7B
  8
0
 10
74.500000290572643
 20
120.9999995888211
 30
0.0
 11
75.000000372529016
 21
121.4999996707774
 31
0.0
  0
ARC
  5
15B7C
  8
0
 10
50.500000186264522
 20
134.2579855043478
 30
0.0
 40
0.5000000000000108
 50
110.00000000000379
 51
180.0
  0
ARC
  5
15B7D
  8
0
 10
74.500000186264515
 20
134.2579855043478
 30
0.0
 40
0.5
 50
0.0
 51
69.999999999996106
  0
LINE
  5
15B7E
  8
0
 10
74.671010673046112
 20
134.72783217439431
 30
0.0
 11
72.263192571699605
 21
135.60420671710739
 31
0.0
  0
LINE
  5
15B7F
  8
0
 10
52.736807800829411
 20
135.60420671710739
 30
0.0
 11
50.328989699482911
 21
134.72783217439431
 31
0.0
  0
ARC
  5
15B80
  8
0
 10
72.400000186264492
 20
135.98008299153511
 30
0.0
 40
0.3999999999999986
 50
180.0
 51
249.99999999999611
  0
ARC
  5
15B81
  8
0
 10
52.600000186264417
 20
135.98008299153511
 30
0.0
 40
0.4000000000000022
 50
290.00000000000392
 51
0.0
  0
LINE
  5
15B82
  8
0
 10
71.99999988079071
 20
135.9800829202868
 30
0.0
 11
71.99999988079071
 21
149.30000180611381
 31
0.0
  0
LINE
  5
15B83
  8
0
 10
53.000000491738312
 20
149.30000180611381
 30
0.0
 11
53.000000491738312
 21
135.9800829202868
 31
0.0
  0
ARC
  5
15B84
  8
0
 10
69.70000018626456
 20
120.5999999762512
 30
0.0
 40
0.4000000000000057
 50
90.0
 51
180.0
  0
ARC
  5
15B85
  8
0
 10
55.300000186264469
 20
120.5999999762512
 30
0.0
 40
0.4000000000000057
 50
0.0
 51
90.0
  0
LINE
  5
15B86
  8
0
 10
69.500000402331352
 20
117.6535899401642
 30
0.0
 11
69.30000027641654
 21
118.0000000284053
 31
0.0
  0
LINE
  5
15B87
  8
0
 10
55.700000096112483
 20
118.0000000284053
 30
0.0
 11
55.499999970197671
 21
117.6535899401642
 31
0.0
  0
LINE
  5
15B88
  8
0
 10
69.500000402331352
 20
113.4999999892898
 30
0.0
 11
69.500000402331352
 21
117.6535899401642
 31
0.0
  0
LINE
  5
15B89
  8
0
 10
55.499999970197671
 20
117.6535899401642
 30
0.0
 11
55.499999970197671
 21
113.4999999892898
 31
0.0
  0
LINE
  5
15B8A
  8
0
 10
55.499999970197671
 20
113.4999999892898
 30
0.0
 11
56.500000134110451
 21
112.5
 31
0.0
  0
LINE
  5
15B8B
  8
0
 10
68.500000238418565
 20
112.5
 30
0.0
 11
69.500000402331352
 21
113.4999999892898
 31
0.0
  0
LINE
  5
15B8C
  8
0
 10
69.30000027641654
 20
118.0000000284053
 30
0.0
 11
69.30000027641654
 21
120.60000026831401
 31
0.0
  0
LINE
  5
15B8D
  8
0
 10
55.700000096112483
 20
120.60000026831401
 30
0.0
 11
55.700000096112483
 21
118.0000000284053
 31
0.0
  0
LINE
  5
15B90
  8
0
 10
51.506733708083623
 20
113.4999999892898
 30
0.0
 11
55.306733306497328
 21
113.4999999892898
 31
0.0
  0
LINE
  5
15B91
  8
0
 10
51.506733708083623
 20
115.50000008428469
 30
0.0
 11
55.306733306497328
 21
115.50000008428469
 31
0.0
  0
LINE
  5
15B92
  8
0
 10
60.600000154227011
 20
115.50000008428469
 30
0.0
 11
64.400000218302011
 21
115.50000008428469
 31
0.0
  0
LINE
  5
15B93
  8
0
 10
60.600000154227011
 20
113.4999999892898
 30
0.0
 11
64.400000218302011
 21
113.4999999892898
 31
0.0
  0
LINE
  5
15B95
  8
0
 10
69.693267066031694
 20
115.50000008428469
 30
0.0
 11
73.493266664445514
 21
115.50000008428469
 31
0.0
  0
LINE
  5
15B97
  8
0
 10
69.693267066031694
 20
113.4999999892898
 30
0.0
 11
73.493266664445514
 21
113.4999999892898
 31
0.0
  0
ARC
  5
15B99
  8
0
 10
52.499021865952727
 20
149.7741962562425
 30
0.0
 40
0.4755509606321555
 50
173.72560661824031
 51
265.67133508006742
  0
ARC
  5
15B9B
  8
0
 10
72.500978506576303
 20
149.7741962562425
 30
0.0
 40
0.4755509606321484
 50
274.32866491993258
 51
6.2743933817597073
  0
LINE
  5
15B9C
  8
0
 10
72.346186451613903
 20
163.5128113091923
 30
0.0
 11
52.65381392091512
 21
163.5128113091923
 31
0.0
  0
LINE
  5
15B9D
  8
0
 10
72.97368086874485
 20
149.8261692584492
 30
0.0
 11
72.346186451613903
 21
163.5128113091923
 31
0.0
  0
LINE
  5
15B9E
  8
0
 10
52.65381392091512
 20
163.5128113091923
 30
0.0
 11
52.026319503784173
 21
149.8261692584492
 31
0.0
  0
LINE
  5
15BA6
  8
0
 10
53.088163211941712
 20
164.79999969014889
 30
0.0
 11
71.911837160587311
 21
164.79999969014889
 31
0.0
  0
POLYLINE
  5
15BA7
  8
0
 66
     1
 10
0.0
 20
0.0
 30
0.0
 70
   128
  0
VERTEX
  5
17AE4
  8
0
 10
49.518418684601777
 20
149.30000180611381
 30
0.0
  0
VERTEX
  5
17AE5
  8
0
 10
49.483959749341011
 20
149.31025753030551
 30
0.0
  0
VERTEX
  5
17AE6
  8
0
 10
49.45091363042593
 20
149.34060374507681
 30
0.0
  0
VERTEX
  5
17AE7
  8
0
 10
49.420637264847748
 20
149.38979992875829
 30
0.0
  0
VERTEX
  5
17AE8
  8
0
 10
49.394372105598443
 20
149.45582324871791
 30
0.0
  0
VERTEX
  5
17AE9
  8
0
 10
49.37319662421941
 20
149.53596541890869
 30
0.0
  0
VERTEX
  5
17AEA
  8
0
 10
49.357978813350201
 20
149.62694073328751
 30
0.0
  0
VERTEX
  5
17AEB
  8
0
 10
49.349342659115791
 20
149.72501645097509
 30
0.0
  0
VERTEX
  5
17AEC
  8
0
 10
49.347642995417111
 20
149.8261692584492
 30
0.0
  0
SEQEND
  5
17AED
  8
0
  0
POLYLINE
  5
15BAB
  8
0
 66
     1
 10
0.0
 20
0.0
 30
0.0
 70
   128
  0
VERTEX
  5
17AEE
  8
0
 10
75.481581687927246
 20
149.30000180611381
 30
0.0
  0
VERTEX
  5
17AEF
  8
0
 10
75.516040623188005
 20
149.31025753030551
 30
0.0
  0
VERTEX
  5
17AF0
  8
0
 10
75.549086742103086
 20
149.34060374507681
 30
0.0
  0
VERTEX
  5
17AF1
  8
0
 10
75.579363107681274
 20
149.38979992875829
 30
0.0
  0
VERTEX
  5
17AF2
  8
0
 10
75.60562826693058
 20
149.45582324871791
 30
0.0
  0
VERTEX
  5
17AF3
  8
0
 10
75.626803748309612
 20
149.53596541890869
 30
0.0
  0
VERTEX
  5
17AF4
  8
0
 10
75.642021559178815
 20
149.62694073328751
 30
0.0
  0
VERTEX
  5
17AF5
  8
0
 10
75.650657713413224
 20
149.72501645097509
 30
0.0
  0
VERTEX
  5
17AF6
  8
0
 10
75.652357377111912
 20
149.8261692584492
 30
0.0
  0
SEQEND
  5
17AF7
  8
0
  0
ARC
  5
15BAD
  8
0
 10
53.97536942743681
 20
153.2905727800611
 30
0.0
 40
10.307311458536169
 50
97.366476145907697
 51
115.2608484573277
  0
LINE
  5
15BAE
  8
0
 10
49.347642995417111
 20
149.8261692584492
 30
0.0
 11
49.576827511191361
 21
162.6122410059906
 31
0.0
  0
ARC
  5
15BAF
  8
0
 10
71.050263875067685
 20
153.37815303547859
 30
0.0
 40
10.21717738171145
 50
64.659564468171439
 51
82.713110928591291
  0
LINE
  5
15BB0
  8
0
 10
75.423172861337662
 20
162.6122410059906
 30
0.0
 11
75.652357377111912
 21
149.8261692584492
 31
0.0
  0
POLYLINE
  5
15BB3
  8
0
 66
     1
 10
0.0
 20
0.0
 30
0.0
 70
   128
  0
VERTEX
  5
17AF8
  8
0
 10
45.90347055345773
 20
149.30000180611381
 30
0.0
  0
VERTEX
  5
17AF9
  8
0
 10
45.869011618196957
 20
149.31025753030551
 30
0.0
  0
VERTEX
  5
17AFA
  8
0
 10
45.835966430604451
 20
149.34060374507681
 30
0.0
  0
VERTEX
  5
17AFB
  8
0
 10
45.805689133703702
 20
149.38979992875829
 30
0.0
  0
VERTEX
  5
17AFC
  8
0
 10
45.779423974454403
 20
149.45582324871791
 30
0.0
  0
VERTEX
  5
17AFD
  8
0
 10
45.758249424397938
 20
149.53596541890869
 30
0.0
  0
VERTEX
  5
17AFE
  8
0
 10
45.743029750883572
 20
149.62694073328751
 30
0.0
  0
VERTEX
  5
17AFF
  8
0
 10
45.734394527971737
 20
149.72501645097509
 30
0.0
  0
VERTEX
  5
17B00
  8
0
 10
45.732695795595639
 20
149.8261692584492
 30
0.0
  0
SEQEND
  5
17B01
  8
0
  0
POLYLINE
  5
15BB7
  8
0
 66
     1
 10
0.0
 20
0.0
 30
0.0
 70
   128
  0
VERTEX
  5
17B02
  8
0
 10
79.096529819071293
 20
149.30000180611381
 30
0.0
  0
VERTEX
  5
17B03
  8
0
 10
79.130988754332066
 20
149.31025753030551
 30
0.0
  0
VERTEX
  5
17B04
  8
0
 10
79.164033941924572
 20
149.34060374507681
 30
0.0
  0
VERTEX
  5
17B05
  8
0
 10
79.194311238825321
 20
149.38979992875829
 30
0.0
  0
VERTEX
  5
17B06
  8
0
 10
79.220576398074627
 20
149.45582324871791
 30
0.0
  0
VERTEX
  5
17B07
  8
0
 10
79.241750948131084
 20
149.53596541890869
 30
0.0
  0
VERTEX
  5
17B08
  8
0
 10
79.256970621645451
 20
149.62694073328751
 30
0.0
  0
VERTEX
  5
17B09
  8
0
 10
79.265605844557285
 20
149.72501645097509
 30
0.0
  0
VERTEX
  5
17B0A
  8
0
 10
79.267304576933384
 20
149.8261692584492
 30
0.0
  0
SEQEND
  5
17B0B
  8
0
  0
ARC
  5
15BB9
  8
0
 10
47.279599686085248
 20
160.75520732767879
 30
0.0
 40
0.9983562814998364
 50
109.13079425011669
 51
176.7923253093056
  0
LINE
  5
15BBA
  8
0
 10
49.576827511191361
 20
162.6122410059906
 30
0.0
 11
46.952412649989121
 21
161.69842729577789
 31
0.0
  0
LINE
  5
15BBB
  8
0
 10
46.28280755132436
 20
160.81107059726489
 30
0.0
 11
45.732695795595639
 21
149.8261692584492
 31
0.0
  0
LINE
  5
15BBC
  8
0
 10
78.047587722539902
 20
161.69842729577789
 30
0.0
 11
75.423172861337662
 21
162.6122410059906
 31
0.0
  0
ARC
  5
15BBD
  8
0
 10
77.722359904476662
 20
160.75668576626671
 30
0.0
 40
0.9963183437277025
 50
3.1290910227988258
 51
70.9477894177856
  0
LINE
  5
15BBE
  8
0
 10
79.267304576933384
 20
149.8261692584492
 30
0.0
 11
78.717192821204662
 21
160.81107059726489
 31
0.0
  0
LINE
  5
15BC3
  8
0
 10
79.473110123623997
 20
149.29999997625131
 30
0.0
 11
45.52689024890492
 21
149.29999997625131
 31
0.0
  0
LINE
  5
15BCD
  8
0
 10
50.0
 20
121.4999996707774
 30
0.0
 11
75.000000372529016
 21
121.4999996707774
 31
0.0
  0
ARC
  5
15BCE
  8
0
 10
55.968661806248292
 20
131.92797081324829
 30
0.0
 40
2.2448691315236831
 50
147.26503352491139
 51
183.1643146827796
  0
ARC
  5
15BCF
  8
0
 10
55.96746391789906
 20
131.6798210244124
 30
0.0
 40
2.2436906479288399
 50
176.8258922199139
 51
212.74472020534449
  0
POLYLINE
  5
15BD0
  8
0
 66
     1
 10
0.0
 20
0.0
 30
0.0
 70
   128
  0
VERTEX
  5
17B0C
  8
0
 10
54.872316960245371
 20
130.0405396730639
 30
0.0
  0
VERTEX
  5
17B0D
  8
0
 10
54.435742273926728
 20
130.14659496257079
 30
0.0
  0
VERTEX
  5
17B0E
  8
0
 10
54.080320708453648
 20
130.4662155569531
 30
0.0
  0
SEQEND
  5
17B0F
  8
0
  0
POLYLINE
  5
15BD1
  8
0
 66
     1
 10
0.0
 20
0.0
 30
0.0
 70
   128
  0
VERTEX
  5
17B10
  8
0
 10
55.716455169022083
 20
130.4662155569531
 30
0.0
  0
VERTEX
  5
17B11
  8
0
 10
55.324250087141991
 20
130.14659496257079
 30
0.0
  0
VERTEX
  5
17B12
  8
0
 10
54.872316960245371
 20
130.0405396730639
 30
0.0
  0
SEQEND
  5
17B13
  8
0
  0
ARC
  5
15BD2
  8
0
 10
54.095166822733169
 20
131.70037741780419
 30
0.0
 40
2.0375797899938788
 50
322.72077751733173
 51
2.9166197281865771
  0
ARC
  5
15BD3
  8
0
 10
54.094047832965771
 20
131.9073845732635
 30
0.0
 40
2.0386796782463268
 50
357.0947397879807
 51
37.2679079919589
  0
POLYLINE
  5
15BD4
  8
0
 66
     1
 10
0.0
 20
0.0
 30
0.0
 70
   128
  0
VERTEX
  5
17B14
  8
0
 10
54.872316960245371
 20
133.5675681591965
 30
0.0
  0
VERTEX
  5
17B15
  8
0
 10
55.324250087141991
 20
133.46151473233471
 30
0.0
  0
VERTEX
  5
17B16
  8
0
 10
55.716455169022083
 20
133.1418922753073
 30
0.0
  0
SEQEND
  5
17B17
  8
0
  0
POLYLINE
  5
15BD5
  8
0
 66
     1
 10
0.0
 20
0.0
 30
0.0
 70
   128
  0
VERTEX
  5
17B18
  8
0
 10
54.080320708453648
 20
133.1418922753073
 30
0.0
  0
VERTEX
  5
17B19
  8
0
 10
54.435742273926728
 20
133.46151473233471
 30
0.0
  0
VERTEX
  5
17B1A
  8
0
 10
54.872316960245371
 20
133.5675681591965
 30
0.0
  0
SEQEND
  5
17B1B
  8
0
  0
LINE
  5
15BD6
  8
0
 10
57.17105716466903
 20
133.52702768752351
 30
0.0
 11
56.70518493279814
 21
133.52702768752351
 31
0.0
  0
LINE
  5
15BD7
  8
0
 10
56.70518493279814
 20
130.06081084022301
 30
0.0
 11
56.70518493279814
 21
133.52702768752351
 31
0.0
  0
LINE
  5
15BD8
  8
0
 10
57.134413346648209
 20
130.06081084022301
 30
0.0
 11
56.70518493279814
 21
130.06081084022301
 31
0.0
  0
LINE
  5
15BD9
  8
0
 10
57.134413346648209
 20
132.7972973347641
 30
0.0
 11
57.134413346648209
 21
130.06081084022301
 31
0.0
  0
LINE
  5
15BDA
  8
0
 10
58.640024112537503
 20
130.06081084022301
 30
0.0
 11
57.134413346648209
 21
132.7972973347641
 31
0.0
  0
LINE
  5
15BDB
  8
0
 10
59.12505388259887
 20
130.06081084022301
 30
0.0
 11
58.640024112537503
 21
130.06081084022301
 31
0.0
  0
LINE
  5
15BDC
  8
0
 10
59.12505388259887
 20
133.52702768752351
 30
0.0
 11
59.12505388259887
 21
130.06081084022301
 31
0.0
  0
LINE
  5
15BDD
  8
0
 10
59.12505388259887
 20
133.52702768752351
 30
0.0
 11
58.665739092975848
 21
133.52702768752351
 31
0.0
  0
LINE
  5
15BDE
  8
0
 10
58.665739092975848
 20
130.79054119298229
 30
0.0
 11
58.665739092975848
 21
133.52702768752351
 31
0.0
  0
LINE
  5
15BDF
  8
0
 10
57.17105716466903
 20
133.52702768752351
 30
0.0
 11
58.665739092975848
 21
130.79054119298229
 31
0.0
  0
ARC
  5
15BE0
  8
0
 10
78.962081081496635
 20
131.92833163547519
 30
0.0
 40
4.7152653136072731
 50
165.0860261699994
 51
181.51027770710269
  0
ARC
  5
15BE1
  8
0
 10
78.964952323839157
 20
131.68011375668999
 30
0.0
 40
4.7181267287155331
 50
178.49471648382641
 51
194.9089611471413
  0
POLYLINE
  5
15BE2
  8
0
 66
     1
 10
0.0
 20
0.0
 30
0.0
 70
   128
  0
VERTEX
  5
17B1C
  8
0
 10
74.679586291313171
 20
130.0405396730639
 30
0.0
  0
VERTEX
  5
17B1D
  8
0
 10
74.541173130273805
 20
130.14659496257079
 30
0.0
  0
VERTEX
  5
17B1E
  8
0
 10
74.405657313764095
 20
130.4662155569531
 30
0.0
  0
SEQEND
  5
17B1F
  8
0
  0
POLYLINE
  5
15BE3
  8
0
 66
     1
 10
0.0
 20
0.0
 30
0.0
 70
   128
  0
VERTEX
  5
17B20
  8
0
 10
74.870257824659333
 20
130.4662155569531
 30
0.0
  0
VERTEX
  5
17B21
  8
0
 10
74.793475866317735
 20
130.14659496257079
 30
0.0
  0
VERTEX
  5
17B22
  8
0
 10
74.679586291313171
 20
130.0405396730639
 30
0.0
  0
SEQEND
  5
17B23
  8
0
  0
ARC
  5
15BE4
  8
0
 10
64.283501626161524
 20
131.61545659888279
 30
0.0
 40
10.64895120558292
 50
353.80453977263562
 51
1.014789948472588
  0
ARC
  5
15BE5
  8
0
 10
64.288941966620541
 20
131.99289762113361
 30
0.0
 40
10.643516054523699
 50
358.98337526558947
 51
6.1973022164262224
  0
POLYLINE
  5
15BE6
  8
0
 66
     1
 10
0.0
 20
0.0
 30
0.0
 70
   128
  0
VERTEX
  5
17B24
  8
0
 10
74.679586291313171
 20
133.5675681591965
 30
0.0
  0
VERTEX
  5
17B25
  8
0
 10
74.793475866317735
 20
133.46151473233471
 30
0.0
  0
VERTEX
  5
17B26
  8
0
 10
74.870257824659333
 20
133.1418922753073
 30
0.0
  0
SEQEND
  5
17B27
  8
0
  0
POLYLINE
  5
15BE7
  8
0
 66
     1
 10
0.0
 20
0.0
 30
0.0
 70
   128
  0
VERTEX
  5
17B28
  8
0
 10
74.405657313764095
 20
133.1418922753073
 30
0.0
  0
VERTEX
  5
17B29
  8
0
 10
74.541173130273805
 20
133.46151473233471
 30
0.0
  0
VERTEX
  5
17B2A
  8
0
 10
74.679586291313171
 20
133.5675681591965
 30
0.0
  0
SEQEND
  5
17B2B
  8
0
  0
POLYLINE
  5
15BF0
  8
0
 66
     1
 10
0.0
 20
0.0
 30
0.0
 70
   128
  0
VERTEX
  5
17B2C
  8
0
 10
71.772518754005432
 20
133.50000070640809
 30
0.0
  0
VERTEX
  5
17B2D
  8
0
 10
72.592085413634777
 20
132.7499991864897
 30
0.0
  0
VERTEX
  5
17B2E
  8
0
 10
73.302755318582044
 20
131.99999952921641
 30
0.0
  0
SEQEND
  5
17B2F
  8
0
  0
LINE
  5
15BF1
  8
0
 10
71.772518754005432
 20
132.7499991864897
 30
0.0
 11
71.772518754005432
 21
133.50000070640809
 31
0.0
  0
LINE
  5
15BF2
  8
0
 10
71.772518754005432
 20
132.7499991864897
 30
0.0
 11
65.123410383239374
 21
132.7499991864897
 31
0.0
  0
LINE
  5
15BF3
  8
0
 10
65.123410383239374
 20
133.50000070640809
 30
0.0
 11
65.123410383239374
 21
132.7499991864897
 31
0.0
  0
POLYLINE
  5
15BF4
  8
0
 66
     1
 10
0.0
 20
0.0
 30
0.0
 70
   128
  0
VERTEX
  5
17B30
  8
0
 10
62.544984783744432
 20
131.99999952921641
 30
0.0
  0
VERTEX
  5
17B31
  8
0
 10
63.841434731148183
 20
132.7499991864897
 30
0.0
  0
VERTEX
  5
17B32
  8
0
 10
65.123410383239374
 20
133.50000070640809
 30
0.0
  0
SEQEND
  5
17B33
  8
0
  0
POLYLINE
  5
15BF5
  8
0
 66
     1
 10
0.0
 20
0.0
 30
0.0
 70
   128
  0
VERTEX
  5
17B34
  8
0
 10
65.123410383239374
 20
130.5000002146698
 30
0.0
  0
VERTEX
  5
17B35
  8
0
 10
63.841434731148183
 20
131.24999987194309
 30
0.0
  0
VERTEX
  5
17B36
  8
0
 10
62.544984783744432
 20
131.99999952921641
 30
0.0
  0
SEQEND
  5
17B37
  8
0
  0
LINE
  5
15BF6
  8
0
 10
65.123410383239374
 20
131.24999987194309
 30
0.0
 11
65.123410383239374
 21
130.5000002146698
 31
0.0
  0
LINE
  5
15BF7
  8
0
 10
71.772518754005432
 20
131.24999987194309
 30
0.0
 11
65.123410383239374
 21
131.24999987194309
 31
0.0
  0
LINE
  5
15BF8
  8
0
 10
71.772518754005432
 20
130.5000002146698
 30
0.0
 11
71.772518754005432
 21
131.24999987194309
 31
0.0
  0
POLYLINE
  5
15BF9
  8
0
 66
     1
 10
0.0
 20
0.0
 30
0.0
 70
   128
  0
VERTEX
  5
17B38
  8
0
 10
73.302755318582044
 20
131.99999952921641
 30
0.0
  0
VERTEX
  5
17B39
  8
0
 10
72.592085413634777
 20
131.24999987194309
 30
0.0
  0
VERTEX
  5
17B3A
  8
0
 10
71.772518754005432
 20
130.5000002146698
 30
0.0
  0
SEQEND
  5
17B3B
  8
0
  0
LINE
  5
15BFA
  8
0
 10
74.500000290572643
 20
120.9999995888211
 30
0.0
 11
50.500000081956379
 21
120.9999995888211
 31
0.0
  0
ARC
  5
15C0E
  8
0
 10
54.857819836480068
 20
132.49307006863251
 30
0.0
 40
0.6895150969313598
 50
33.973569074239968
 51
88.795261743221602
  0
ARC
  5
15C0F
  8
0
 10
54.108185516407048
 20
131.95012781202959
 30
0.0
 40
1.614889651494041
 50
354.81028349602099
 51
35.08614299740178
  0
ARC
  5
15C10
  8
0
 10
54.108184540094051
 20
131.6579805341473
 30
0.0
 40
1.6148907458030519
 50
324.91386199316588
 51
5.189761027001877
  0
ARC
  5
15C11
  8
0
 10
54.851353761660448
 20
131.12688971220899
 30
0.0
 40
0.701527910146095
 50
271.71237895431688
 51
325.51879022821788
  0
ARC
  5
15C12
  8
0
 10
54.881687159827372
 20
131.06332006714049
 30
0.0
 40
0.6377138257337504
 50
211.5406781757456
 51
269.15809852689063
  0
ARC
  5
15C13
  8
0
 10
55.794321420535653
 20
131.64734522957031
 30
0.0
 40
1.7211497161359059
 50
174.77601987104481
 51
212.21793389355449
  0
ARC
  5
15C14
  8
0
 10
55.794320273356327
 20
131.96076314973899
 30
0.0
 40
1.7211484539376529
 50
147.78206115330789
 51
185.2239399926886
  0
ARC
  5
15C15
  8
0
 10
54.88674373932929
 20
132.53590485470451
 30
0.0
 40
0.6466888335555052
 50
91.278299684146845
 51
148.02292361321801
  0
LINE
  5
15C21
  8
0
 10
69.500000402331352
 20
117.6535899401642
 30
0.0
 11
63.500000233761959
 21
117.6535899401642
 31
0.0
  0
LINE
  5
15C22
  8
0
 10
61.500000138767057
 20
117.6535899401642
 30
0.0
 11
55.499999970197671
 21
117.6535899401642
 31
0.0
  0
LINE
  5
15C23
  8
0
 10
69.30000027641654
 20
118.0000000284053
 30
0.0
 11
63.500000233761959
 21
118.0000000284053
 31
0.0
  0
LINE
  5
15C24
  8
0
 10
61.500000138767057
 20
118.0000000284053
 30
0.0
 11
55.700000096112483
 21
118.0000000284053
 31
0.0
  0
LINE
  5
15C25
  8
0
 10
55.499999970197671
 20
113.4999999892898
 30
0.0
 11
60.600000154227011
 21
113.4999999892898
 31
0.0
  0
LINE
  5
15C26
  8
0
 10
64.400000218302011
 20
113.4999999892898
 30
0.0
 11
69.500000402331352
 21
113.4999999892898
 31
0.0
  0
LINE
  5
15C27
  8
0
 10
68.500000238418565
 20
112.5
 30
0.0
 11
56.500000134110451
 21
112.5
 31
0.0
  0
POLYLINE
  5
15C30
  8
0
 66
     1
 10
0.0
 20
0.0
 30
0.0
 70
   128
  0
VERTEX
  5
17B3C
  8
0
 10
74.816043674945831
 20
132.87837827811009
 30
0.0
  0
VERTEX
  5
17B3D
  8
0
 10
74.758562445640564
 20
133.10181932756669
 30
0.0
  0
VERTEX
  5
17B3E
  8
0
 10
74.72138125449419
 20
133.16269429633391
 30
0.0
  0
VERTEX
  5
17B3F
  8
0
 10
74.700965732336044
 20
133.17780593642959
 30
0.0
  0
VERTEX
  5
17B40
  8
0
 10
74.679586291313171
 20
133.18243274698031
 30
0.0
  0
SEQEND
  5
17B41
  8
0
  0
ARC
  5
15C31
  8
0
 10
68.031999633021087
 20
131.99750185282619
 30
0.0
 40
6.8409938488055042
 50
358.37959587815521
 51
7.3981971955037267
  0
ARC
  5
15C32
  8
0
 10
68.031993231812635
 20
131.61060663785759
 30
0.0
 40
6.8410002815068482
 50
352.60180423924101
 51
1.6204126875619931
  0
POLYLINE
  5
15C33
  8
0
 66
     1
 10
0.0
 20
0.0
 30
0.0
 70
   128
  0
VERTEX
  5
17B42
  8
0
 10
74.679586291313171
 20
130.42567508528009
 30
0.0
  0
VERTEX
  5
17B43
  8
0
 10
74.72138125449419
 20
130.44541353592649
 30
0.0
  0
VERTEX
  5
17B44
  8
0
 10
74.758562445640564
 20
130.5062885046936
 30
0.0
  0
VERTEX
  5
17B45
  8
0
 10
74.816043674945831
 20
130.7297295541502
 30
0.0
  0
SEQEND
  5
17B46
  8
0
  0
POLYLINE
  5
15C34
  8
0
 66
     1
 10
0.0
 20
0.0
 30
0.0
 70
   128
  0
VERTEX
  5
17B47
  8
0
 10
74.506114423274994
 20
130.7297295541502
 30
0.0
  0
VERTEX
  5
17B48
  8
0
 10
74.589616805315003
 20
130.5062885046936
 30
0.0
  0
VERTEX
  5
17B49
  8
0
 10
74.634912610054016
 20
130.44541353592649
 30
0.0
  0
VERTEX
  5
17B4A
  8
0
 10
74.657479487359524
 20
130.43030189583081
 30
0.0
  0
VERTEX
  5
17B4B
  8
0
 10
74.679586291313171
 20
130.42567508528009
 30
0.0
  0
SEQEND
  5
17B4C
  8
0
  0
ARC
  5
15C35
  8
0
 10
78.487911794251431
 20
131.64391550323811
 30
0.0
 40
4.085394259190207
 50
177.75354366776651
 51
192.93052108342201
  0
ARC
  5
15C36
  8
0
 10
78.487908675777362
 20
131.9641928982679
 30
0.0
 40
4.0853910924143353
 50
167.06947691095331
 51
182.2464399211606
  0
POLYLINE
  5
15C37
  8
0
 66
     1
 10
0.0
 20
0.0
 30
0.0
 70
   128
  0
VERTEX
  5
17B4D
  8
0
 10
74.679586291313171
 20
133.18243274698031
 30
0.0
  0
VERTEX
  5
17B4E
  8
0
 10
74.634912610054016
 20
133.16269429633391
 30
0.0
  0
VERTEX
  5
17B4F
  8
0
 10
74.589616805315003
 20
133.10181932756669
 30
0.0
  0
VERTEX
  5
17B50
  8
0
 10
74.506114423274994
 20
132.87837827811009
 30
0.0
  0
SEQEND
  5
17B51
  8
0
  0
LINE
  5
15C4F
  8
0
 10
50.328989699482911
 20
134.72783217439431
 30
0.0
 11
74.671010673046112
 21
134.72783217439431
 31
0.0
  0
LINE
  5
15C51
  8
0
 10
53.000000491738312
 20
135.9800829202868
 30
0.0
 11
71.99999988079071
 21
135.9800829202868
 31
0.0
  0
LINE
  5
15C52
  8
0
 10
61.500000138767057
 20
120.60000026831401
 30
0.0
 11
55.700000096112483
 21
120.60000026831401
 31
0.0
  0
LINE
  5
15C53
  8
0
 10
69.30000027641654
 20
120.60000026831401
 30
0.0
 11
63.500000233761959
 21
120.60000026831401
 31
0.0
  0
LINE
  5
15C61
  8
0
 10
194.69326743856081
 20
115.50000008428469
 30
0.0
 11
194.69326743856081
 21
113.4999999892898
 31
0.0
  0
LINE
  5
15C62
  8
0
 10
198.49326703697449
 20
113.4999999892898
 30
0.0
 11
198.49326703697449
 21
115.50000008428469
 31
0.0
  0
LINE
  5
15C63
  8
0
 10
197.59326763451111
 20
115.50000008428469
 30
0.0
 11
197.59326763451111
 21
120.9999995888211
 31
0.0
  0
LINE
  5
15C64
  8
0
 10
195.5932673066855
 20
120.9999995888211
 30
0.0
 11
195.5932673066855
 21
115.50000008428469
 31
0.0
  0
LINE
  5
15C65
  8
0
 10
176.50673408061269
 20
115.50000008428469
 30
0.0
 11
176.50673408061269
 21
113.4999999892898
 31
0.0
  0
LINE
  5
15C66
  8
0
 10
180.30673367902651
 20
113.4999999892898
 30
0.0
 11
180.30673367902651
 21
115.50000008428469
 31
0.0
  0
LINE
  5
15C67
  8
0
 10
179.4067338109017
 20
115.50000008428469
 30
0.0
 11
179.4067338109017
 21
120.9999995888211
 31
0.0
  0
LINE
  5
15C68
  8
0
 10
177.40673348307621
 20
120.9999995888211
 30
0.0
 11
177.40673348307621
 21
115.50000008428469
 31
0.0
  0
LINE
  5
15C69
  8
0
 10
203.08351218526909
 20
162.58578282440189
 30
0.0
 11
197.0828471401023
 21
164.7698462866442
 31
0.0
  0
LINE
  5
15C6A
  8
0
 10
177.9171539774851
 20
164.76984628664431
 30
0.0
 11
171.91648893231829
 21
162.58578282440189
 31
0.0
  0
ARC
  5
15C6B
  8
0
 10
196.91183951477731
 20
164.30000910610821
 30
0.0
 40
0.4999905840446328
 50
69.999905598905571
 51
90.000227085883509
  0
ARC
  5
15C6C
  8
0
 10
178.08816160281009
 20
164.30000910610741
 30
0.0
 40
0.4999905840454963
 50
89.999772914129494
 51
110.0000944010595
  0
ARC
  5
15C6D
  8
0
 10
204.4731104961532
 20
149.79999997625131
 30
0.0
 40
0.5000000000000249
 50
270.0
 51
2.999999999995814
  0
ARC
  5
15C6E
  8
0
 10
170.52689062143421
 20
149.79999997625131
 30
0.0
 40
0.5
 50
177.00000000000421
 51
270.0
  0
LINE
  5
15C6F
  8
0
 10
204.9724252635306
 20
149.82616795437269
 30
0.0
 11
204.3967309681268
 21
160.81106949531591
 31
0.0
  0
LINE
  5
15C70
  8
0
 10
170.6032701494606
 20
160.81106949531591
 30
0.0
 11
170.02757585405681
 21
149.82616795437269
 31
0.0
  0
ARC
  5
15C71
  8
0
 10
202.39947189861761
 20
160.70639758283011
 30
0.0
 40
2.0000000000000191
 50
2.9999999999990772
 51
69.999999999996106
  0
ARC
  5
15C72
  8
0
 10
172.6005292189698
 20
160.70639758283011
 30
0.0
 40
2.0000000000000191
 50
110.00000000000379
 51
177.00000000000091
  0
ARC
  5
15C73
  8
0
 10
175.5000005587936
 20
134.2579855043478
 30
0.0
 40
0.5
 50
110.00000000000379
 51
180.0
  0
ARC
  5
15C74
  8
0
 10
199.5000005587938
 20
134.2579855043478
 30
0.0
 40
0.5000000000000023
 50
0.0
 51
70.000000000010061
  0
LINE
  5
15C75
  8
0
 10
175.00000037252909
 20
121.4999996707774
 30
0.0
 11
175.5000004544855
 21
120.9999995888211
 31
0.0
  0
LINE
  5
15C76
  8
0
 10
199.50000066310179
 20
120.9999995888211
 30
0.0
 11
200.0000007450582
 21
121.4999996707774
 31
0.0
  0
LINE
  5
15C77
  8
0
 10
200.0000007450582
 20
121.4999996707774
 30
0.0
 11
200.0000007450582
 21
134.25798552343619
 31
0.0
  0
LINE
  5
15C78
  8
0
 10
175.0000003725292
 20
134.25798552343619
 30
0.0
 11
175.00000037252909
 21
121.4999996707774
 31
0.0
  0
LINE
  5
15C7B
  8
0
 10
199.6710110455752
 20
134.72783217439431
 30
0.0
 11
197.26319294422871
 21
135.60420671710739
 31
0.0
  0
LINE
  5
15C7C
  8
0
 10
177.7368081733585
 20
135.60420671710739
 30
0.0
 11
175.328990072012
 21
134.72783217439431
 31
0.0
  0
ARC
  5
15C7D
  8
0
 10
197.40000055879369
 20
135.98008299153511
 30
0.0
 40
0.3999999999999844
 50
180.0
 51
249.99999999999611
  0
ARC
  5
15C7E
  8
0
 10
177.60000055879371
 20
135.98008299153511
 30
0.0
 40
0.4000000000000057
 50
290.00000000000392
 51
0.0
  0
LINE
  5
15C7F
  8
0
 10
197.0000002533198
 20
135.9800829202868
 30
0.0
 11
197.0000002533198
 21
149.30000180611381
 31
0.0
  0
LINE
  5
15C80
  8
0
 10
178.00000086426741
 20
149.30000180611381
 30
0.0
 11
178.00000086426741
 21
135.9800829202868
 31
0.0
  0
ARC
  5
15C81
  8
0
 10
194.7000005587937
 20
120.5999999762512
 30
0.0
 40
0.4000000000000057
 50
90.0
 51
180.0
  0
ARC
  5
15C82
  8
0
 10
180.3000005587937
 20
120.5999999762512
 30
0.0
 40
0.4000000000000057
 50
0.0
 51
90.0
  0
LINE
  5
15C83
  8
0
 10
194.5000007748605
 20
117.6535899401642
 30
0.0
 11
194.30000064894571
 21
118.0000000284053
 31
0.0
  0
LINE
  5
15C84
  8
0
 10
180.7000004686416
 20
118.0000000284053
 30
0.0
 11
180.50000034272679
 21
117.6535899401642
 31
0.0
  0
LINE
  5
15C85
  8
0
 10
180.50000034272679
 20
113.4999999892898
 30
0.0
 11
181.50000050663959
 21
112.5
 31
0.0
  0
LINE
  5
15C86
  8
0
 10
193.50000061094769
 20
112.5
 30
0.0
 11
194.5000007748605
 21
113.4999999892898
 31
0.0
  0
LINE
  5
15C87
  8
0
 10
194.5000007748605
 20
113.4999999892898
 30
0.0
 11
194.5000007748605
 21
117.6535899401642
 31
0.0
  0
LINE
  5
15C88
  8
0
 10
180.50000034272679
 20
117.6535899401642
 30
0.0
 11
180.50000034272679
 21
113.4999999892898
 31
0.0
  0
LINE
  5
15C89
  8
0
 10
194.30000064894571
 20
118.0000000284053
 30
0.0
 11
194.30000064894571
 21
120.60000026831401
 31
0.0
  0
LINE
  5
15C8A
  8
0
 10
180.7000004686416
 20
120.60000026831401
 30
0.0
 11
180.7000004686416
 21
118.0000000284053
 31
0.0
  0
LINE
  5
15C8D
  8
0
 10
194.69326743856089
 20
115.50000008428469
 30
0.0
 11
198.49326703697449
 21
115.50000008428469
 31
0.0
  0
LINE
  5
15C8F
  8
0
 10
194.69326743856089
 20
113.4999999892898
 30
0.0
 11
198.49326703697449
 21
113.4999999892898
 31
0.0
  0
LINE
  5
15C91
  8
0
 10
176.50673408061269
 20
115.50000008428469
 30
0.0
 11
180.30673367902651
 21
115.50000008428469
 31
0.0
  0
LINE
  5
15C92
  8
0
 10
176.50673408061269
 20
113.4999999892898
 30
0.0
 11
180.30673367902651
 21
113.4999999892898
 31
0.0
  0
ARC
  5
15C94
  8
0
 10
197.50097887910539
 20
149.7741962562425
 30
0.0
 40
0.4755509606321414
 50
274.32866491993258
 51
6.2743933817597073
  0
ARC
  5
15C96
  8
0
 10
177.49902223848201
 20
149.7741962562425
 30
0.0
 40
0.4755509606321414
 50
173.72560661824031
 51
265.67133508006742
  0
LINE
  5
15C97
  8
0
 10
197.34618682414299
 20
163.5128113091923
 30
0.0
 11
177.65381429344421
 21
163.5128113091923
 31
0.0
  0
LINE
  5
15C98
  8
0
 10
197.97368124127399
 20
149.8261692584492
 30
0.0
 11
197.34618682414299
 21
163.5128113091923
 31
0.0
  0
LINE
  5
15C99
  8
0
 10
177.65381429344421
 20
163.5128113091923
 30
0.0
 11
177.02631987631329
 21
149.8261692584492
 31
0.0
  0
LINE
  5
15CA1
  8
0
 10
178.08816358447081
 20
164.79999969014889
 30
0.0
 11
196.9118375331164
 21
164.79999969014889
 31
0.0
  0
POLYLINE
  5
15CA3
  8
0
 66
     1
 10
0.0
 20
0.0
 30
0.0
 70
   128
  0
VERTEX
  5
17B52
  8
0
 10
200.65235774964111
 20
149.8261692584492
 30
0.0
  0
VERTEX
  5
17B53
  8
0
 10
200.65065808594241
 20
149.72501645097509
 30
0.0
  0
VERTEX
  5
17B54
  8
0
 10
200.642021931708
 20
149.62694073328751
 30
0.0
  0
VERTEX
  5
17B55
  8
0
 10
200.62680412083881
 20
149.53596541890869
 30
0.0
  0
VERTEX
  5
17B56
  8
0
 10
200.6056286394597
 20
149.45582324871791
 30
0.0
  0
VERTEX
  5
17B57
  8
0
 10
200.57936348021039
 20
149.38979992875829
 30
0.0
  0
VERTEX
  5
17B58
  8
0
 10
200.5490871146323
 20
149.34060374507681
 30
0.0
  0
VERTEX
  5
17B59
  8
0
 10
200.51604099571719
 20
149.31025753030551
 30
0.0
  0
VERTEX
  5
17B5A
  8
0
 10
200.48158206045639
 20
149.30000180611381
 30
0.0
  0
SEQEND
  5
17B5B
  8
0
  0
POLYLINE
  5
15CA6
  8
0
 66
     1
 10
0.0
 20
0.0
 30
0.0
 70
   128
  0
VERTEX
  5
17B5C
  8
0
 10
174.3476433679462
 20
149.8261692584492
 30
0.0
  0
VERTEX
  5
17B5D
  8
0
 10
174.34934303164491
 20
149.72501645097509
 30
0.0
  0
VERTEX
  5
17B5E
  8
0
 10
174.35797918587929
 20
149.62694073328751
 30
0.0
  0
VERTEX
  5
17B5F
  8
0
 10
174.3731969967485
 20
149.53596541890869
 30
0.0
  0
VERTEX
  5
17B60
  8
0
 10
174.39437247812759
 20
149.45582324871791
 30
0.0
  0
VERTEX
  5
17B61
  8
0
 10
174.4206376373769
 20
149.38979992875829
 30
0.0
  0
VERTEX
  5
17B62
  8
0
 10
174.45091400295499
 20
149.34060374507681
 30
0.0
  0
VERTEX
  5
17B63
  8
0
 10
174.4839601218701
 20
149.31025753030551
 30
0.0
  0
VERTEX
  5
17B64
  8
0
 10
174.5184190571309
 20
149.30000180611381
 30
0.0
  0
SEQEND
  5
17B65
  8
0
  0
ARC
  5
15CA8
  8
0
 10
196.0502642475968
 20
153.37815303547859
 30
0.0
 40
10.21717738171145
 50
64.659564468171439
 51
82.713110928591291
  0
LINE
  5
15CA9
  8
0
 10
200.42317323386681
 20
162.6122410059906
 30
0.0
 11
200.65235774964111
 21
149.8261692584492
 31
0.0
  0
ARC
  5
15CAA
  8
0
 10
178.9753697999659
 20
153.2905727800611
 30
0.0
 40
10.307311458536169
 50
97.366476145907697
 51
115.2608484573277
  0
LINE
  5
15CAB
  8
0
 10
174.3476433679462
 20
149.8261692584492
 30
0.0
 11
174.57682788372051
 21
162.6122410059906
 31
0.0
  0
POLYLINE
  5
15CAF
  8
0
 66
     1
 10
0.0
 20
0.0
 30
0.0
 70
   128
  0
VERTEX
  5
17B66
  8
0
 10
204.2673049494625
 20
149.8261692584492
 30
0.0
  0
VERTEX
  5
17B67
  8
0
 10
204.2656062170864
 20
149.72501645097509
 30
0.0
  0
VERTEX
  5
17B68
  8
0
 10
204.25697099417459
 20
149.62694073328751
 30
0.0
  0
VERTEX
  5
17B69
  8
0
 10
204.2417513206602
 20
149.53596541890869
 30
0.0
  0
VERTEX
  5
17B6A
  8
0
 10
204.2205767706038
 20
149.45582324871791
 30
0.0
  0
VERTEX
  5
17B6B
  8
0
 10
204.19431161135449
 20
149.38979992875829
 30
0.0
  0
VERTEX
  5
17B6C
  8
0
 10
204.16403431445369
 20
149.34060374507681
 30
0.0
  0
VERTEX
  5
17B6D
  8
0
 10
204.13098912686121
 20
149.31025753030551
 30
0.0
  0
VERTEX
  5
17B6E
  8
0
 10
204.09653019160049
 20
149.30000180611381
 30
0.0
  0
SEQEND
  5
17B6F
  8
0
  0
POLYLINE
  5
15CB2
  8
0
 66
     1
 10
0.0
 20
0.0
 30
0.0
 70
   128
  0
VERTEX
  5
17B70
  8
0
 10
170.73269616812479
 20
149.8261692584492
 30
0.0
  0
VERTEX
  5
17B71
  8
0
 10
170.73439490050089
 20
149.72501645097509
 30
0.0
  0
VERTEX
  5
17B72
  8
0
 10
170.74303012341269
 20
149.62694073328751
 30
0.0
  0
VERTEX
  5
17B73
  8
0
 10
170.75824979692709
 20
149.53596541890869
 30
0.0
  0
VERTEX
  5
17B74
  8
0
 10
170.77942434698349
 20
149.45582324871791
 30
0.0
  0
VERTEX
  5
17B75
  8
0
 10
170.8056895062328
 20
149.38979992875829
 30
0.0
  0
VERTEX
  5
17B76
  8
0
 10
170.8359668031336
 20
149.34060374507681
 30
0.0
  0
VERTEX
  5
17B77
  8
0
 10
170.86901199072611
 20
149.31025753030551
 30
0.0
  0
VERTEX
  5
17B78
  8
0
 10
170.90347092598691
 20
149.30000180611381
 30
0.0
  0
SEQEND
  5
17B79
  8
0
  0
LINE
  5
15CB4
  8
0
 10
203.0475880950691
 20
161.69842729577789
 30
0.0
 11
200.42317323386681
 21
162.6122410059906
 31
0.0
  0
ARC
  5
15CB5
  8
0
 10
202.72236027700581
 20
160.75668576626671
 30
0.0
 40
0.9963183437276862
 50
3.1290910227988258
 51
70.9477894177856
  0
LINE
  5
15CB6
  8
0
 10
204.2673049494625
 20
149.8261692584492
 30
0.0
 11
203.71719319373381
 21
160.81107059726489
 31
0.0
  0
ARC
  5
15CB7
  8
0
 10
172.27960005861451
 20
160.75520732767879
 30
0.0
 40
0.9983562814998364
 50
109.13079425011669
 51
176.7923253093056
  0
LINE
  5
15CB8
  8
0
 10
174.57682788372051
 20
162.6122410059906
 30
0.0
 11
171.95241302251819
 21
161.69842729577789
 31
0.0
  0
LINE
  5
15CB9
  8
0
 10
171.28280792385351
 20
160.81107059726489
 30
0.0
 11
170.73269616812479
 21
149.8261692584492
 31
0.0
  0
LINE
  5
15CBE
  8
0
 10
204.4731104961532
 20
149.29999997625131
 30
0.0
 11
170.52689062143421
 21
149.29999997625131
 31
0.0
  0
LINE
  5
15CC8
  8
0
 10
199.50000066310179
 20
120.9999995888211
 30
0.0
 11
175.5000004544855
 21
120.9999995888211
 31
0.0
  0
LINE
  5
15CC9
  8
0
 10
175.00000037252909
 20
121.4999996707774
 30
0.0
 11
200.0000007450582
 21
121.4999996707774
 31
0.0
  0
LINE
  5
15CCA
  8
0
 10
175.82338638603699
 20
133.52702768752351
 30
0.0
 11
175.19621606916201
 21
133.52702768752351
 31
0.0
  0
LINE
  5
15CCB
  8
0
 10
175.19621606916201
 20
130.06081084022301
 30
0.0
 11
175.19621606916201
 21
133.52702768752351
 31
0.0
  0
LINE
  5
15CCC
  8
0
 10
175.28992202132949
 20
130.06081084022301
 30
0.0
 11
175.19621606916201
 21
130.06081084022301
 31
0.0
  0
LINE
  5
15CCD
  8
0
 10
175.28992202132949
 20
131.62312308559191
 30
0.0
 11
175.28992202132949
 21
130.06081084022301
 31
0.0
  0
LINE
  5
15CCE
  8
0
 10
175.68484935909521
 20
131.62312308559191
 30
0.0
 11
175.28992202132949
 21
131.62312308559191
 31
0.0
  0
LINE
  5
15CCF
  8
0
 10
175.68484935909521
 20
132.00675720581779
 30
0.0
 11
175.68484935909521
 21
131.62312308559191
 31
0.0
  0
LINE
  5
15CD0
  8
0
 10
175.68484935909521
 20
132.00675720581779
 30
0.0
 11
175.28992202132949
 21
132.00675720581779
 31
0.0
  0
LINE
  5
15CD1
  8
0
 10
175.28992202132949
 20
133.14339356729761
 30
0.0
 11
175.28992202132949
 21
132.00675720581779
 31
0.0
  0
LINE
  5
15CD2
  8
0
 10
175.82338638603699
 20
133.14339356729761
 30
0.0
 11
175.28992202132949
 21
133.14339356729761
 31
0.0
  0
LINE
  5
15CD3
  8
0
 10
175.82338638603699
 20
133.52702768752351
 30
0.0
 11
175.82338638603699
 21
133.14339356729761
 31
0.0
  0
LINE
  5
15CD4
  8
0
 10
175.11917799711239
 20
133.52702768752351
 30
0.0
 11
175.00000037252909
 21
133.52702768752351
 31
0.0
  0
LINE
  5
15CD5
  8
0
 10
175.06985049694779
 20
131.62312308559191
 30
0.0
 11
175.00000037252909
 21
131.62312308559191
 31
0.0
  0
LINE
  5
15CD6
  8
0
 10
175.06985049694779
 20
132.00675720581779
 30
0.0
 11
175.06985049694779
 21
131.62312308559191
 31
0.0
  0
LINE
  5
15CD7
  8
0
 10
175.06985049694779
 20
132.00675720581779
 30
0.0
 11
175.00000037252909
 21
132.00675720581779
 31
0.0
  0
LINE
  5
15CD8
  8
0
 10
175.11917799711239
 20
133.14339356729761
 30
0.0
 11
175.00000037252909
 21
133.14339356729761
 31
0.0
  0
LINE
  5
15CD9
  8
0
 10
175.11917799711239
 20
133.52702768752351
 30
0.0
 11
175.11917799711239
 21
133.14339356729761
 31
0.0
  0
LINE
  5
15CDA
  8
0
 10
194.5000007748605
 20
117.6535899401642
 30
0.0
 11
180.50000034272679
 21
117.6535899401642
 31
0.0
  0
LINE
  5
15CDB
  8
0
 10
194.30000064894571
 20
118.0000000284053
 30
0.0
 11
180.7000004686416
 21
118.0000000284053
 31
0.0
  0
LINE
  5
15CDC
  8
0
 10
193.50000061094769
 20
112.5
 30
0.0
 11
181.50000050663959
 21
112.5
 31
0.0
  0
LINE
  5
15CDD
  8
0
 10
180.50000034272679
 20
113.4999999892898
 30
0.0
 11
194.5000007748605
 21
113.4999999892898
 31
0.0
  0
LINE
  5
15CE7
  8
0
 10
175.328990072012
 20
134.72783217439431
 30
0.0
 11
199.6710110455752
 21
134.72783217439431
 31
0.0
  0
LINE
  5
15CE9
  8
0
 10
178.00000086426741
 20
135.9800829202868
 30
0.0
 11
197.0000002533198
 21
135.9800829202868
 31
0.0
  0
LINE
  5
15CEA
  8
0
 10
194.30000064894571
 20
120.60000026831401
 30
0.0
 11
180.7000004686416
 21
120.60000026831401
 31
0.0
  0
ARC
  5
15CEE
  8
0
 10
125.000000372529
 20
62.5
 30
0.0
 40
17.473109937359521
 50
265.62322310233031
 51
274.37677689766969
  0
LINE
  5
15CEF
  8
0
 10
127.19624503515659
 20
45.732460916042321
 30
0.0
 11
128.511978550208
 21
49.347408534636259
 31
0.0
  0
LINE
  5
15CF0
  8
0
 10
121.4880221948499
 20
49.347408534636259
 30
0.0
 11
122.8037557099014
 21
45.732460916042321
 31
0.0
  0
ARC
  5
15CF1
  8
0
 10
133.23571004757329
 20
47.628110874929739
 30
0.0
 40
5.0268900626404882
 50
141.37533640519439
 51
160.00000000000159
  0
ARC
  5
15CF2
  8
0
 10
116.7642906974846
 20
47.628110874929739
 30
0.0
 40
5.0268900626404882
 50
19.999999999998401
 51
38.624663594805611
  0
ARC
  5
15CF3
  8
0
 10
133.23571004757329
 20
77.371889125070183
 30
0.0
 40
5.0268900626404882
 50
200.00000000000011
 51
218.6246635947997
  0
ARC
  5
15CF4
  8
0
 10
116.7642906974846
 20
77.371889125070183
 30
0.0
 40
5.0268900626404882
 50
321.37533640519388
 51
340.00000000000182
  0
LINE
  5
15CF5
  8
0
 10
128.511978550208
 20
75.652591465363571
 30
0.0
 11
127.19624503515659
 21
79.267539083957672
 31
0.0
  0
LINE
  5
15CF6
  8
0
 10
122.8037557099014
 20
79.267539083957672
 30
0.0
 11
121.48802219485
 21
75.652591465363741
 31
0.0
  0
ARC
  5
15CF7
  8
0
 10
125.000000372529
 20
62.5
 30
0.0
 40
17.473109937359521
 50
85.623223102330329
 51
90.0
  0
ARC
  5
15CF8
  8
0
 10
125.000000372529
 20
62.5
 30
0.0
 40
17.473109937359521
 50
90.0
 51
94.376776897669686
  0
LINE
  5
15CF9
  8
0
 10
131.14200662821531
 20
53.406733088195317
 30
0.0
 11
130.69600323215121
 21
54.179233498871319
 31
0.0
  0
LINE
  5
15CFA
  8
0
 10
130.69600323215121
 20
54.179233498871319
 30
0.0
 11
129.8039973713457
 21
54.179233498871319
 31
0.0
  0
LINE
  5
15CFB
  8
0
 10
129.8039973713457
 20
54.179233498871319
 30
0.0
 11
129.35799397528169
 21
53.406733088195317
 31
0.0
  0
LINE
  5
15CFC
  8
0
 10
129.35799397528169
 20
53.406733088195317
 30
0.0
 11
129.8039973713457
 21
52.634233608841889
 31
0.0
  0
LINE
  5
15CFD
  8
0
 10
129.8039973713457
 20
52.634233608841889
 30
0.0
 11
130.69600323215121
 21
52.634233608841889
 31
0.0
  0
LINE
  5
15CFE
  8
0
 10
130.69600323215121
 20
52.634233608841889
 30
0.0
 11
131.14200662821531
 21
53.406733088195317
 31
0.0
  0
CIRCLE
  5
15CFF
  8
0
 10
130.250000372529
 20
53.406733260263422
 30
0.0
 40
1.8999999999999999
  0
CIRCLE
  5
15D00
  8
0
 10
114.5000003725289
 20
62.5
 30
0.0
 40
1.899999999999991
  0
LINE
  5
15D01
  8
0
 10
114.05399758368731
 20
61.727499996777617
 30
0.0
 11
114.9460034444928
 21
61.727499996777617
 31
0.0
  0
LINE
  5
15D02
  8
0
 10
114.9460034444928
 20
61.727499996777617
 30
0.0
 11
115.3920063748955
 21
62.5
 31
0.0
  0
LINE
  5
15D03
  8
0
 10
115.3920063748955
 20
62.5
 30
0.0
 11
114.9460034444928
 21
63.272500003222369
 31
0.0
  0
LINE
  5
15D04
  8
0
 10
114.9460034444928
 20
63.272500003222369
 30
0.0
 11
114.05399758368731
 21
63.272500003222369
 31
0.0
  0
LINE
  5
15D05
  8
0
 10
114.05399758368731
 20
63.272500003222369
 30
0.0
 11
113.60799465328451
 21
62.5
 31
0.0
  0
LINE
  5
15D06
  8
0
 10
113.60799465328451
 20
62.5
 30
0.0
 11
114.05399758368731
 21
61.727499996777617
 31
0.0
  0
CIRCLE
  5
15D07
  8
0
 10
130.2500003725288
 20
71.593266739736634
 30
0.0
 40
1.9000000000000039
  0
LINE
  5
15D08
  8
0
 10
129.8039973713457
 20
72.365766391158104
 30
0.0
 11
129.35799397528169
 21
71.593266911804676
 31
0.0
  0
LINE
  5
15D09
  8
0
 10
129.35799397528169
 20
71.593266911804676
 30
0.0
 11
129.8039973713457
 21
70.820766501128674
 31
0.0
  0
LINE
  5
15D0A
  8
0
 10
129.8039973713457
 20
70.820766501128674
 30
0.0
 11
130.69600323215121
 21
70.820766501128674
 31
0.0
  0
LINE
  5
15D0B
  8
0
 10
130.69600323215121
 20
70.820766501128674
 30
0.0
 11
131.14200662821531
 21
71.593266911804676
 31
0.0
  0
LINE
  5
15D0C
  8
0
 10
131.14200662821531
 20
71.593266911804676
 30
0.0
 11
130.69600323215121
 21
72.365766391158104
 31
0.0
  0
LINE
  5
15D0D
  8
0
 10
130.69600323215121
 20
72.365766391158104
 30
0.0
 11
129.8039973713457
 21
72.365766391158104
 31
0.0
  0
LINE
  5
15D10
  8
0
 10
124.2482462759003
 20
47.532742716173232
 30
0.0
 11
123.5520594287663
 21
49.445500597357743
 31
0.0
  0
LINE
  5
15D14
  8
0
 10
126.4479413162917
 20
49.445500597357743
 30
0.0
 11
125.7517544691577
 21
47.532742716173232
 31
0.0
  0
ARC
  5
15D17
  8
0
 10
125.000000372529
 20
47.806358830833688
 30
0.0
 40
0.8000000000000063
 50
199.99999999999821
 51
340.00000000000182
  0
LINE
  5
15D1A
  8
0
 10
123.5520594287663
 20
75.55449940264225
 30
0.0
 11
124.2482462759003
 21
77.467257283826768
 31
0.0
  0
ARC
  5
15D1D
  8
0
 10
125.000000372529
 20
77.193641169166256
 30
0.0
 40
0.8000000000000136
 50
19.999999999998401
 51
160.00000000000179
  0
LINE
  5
15D20
  8
0
 10
125.7517544691577
 20
77.467257283826768
 30
0.0
 11
126.4479413162917
 21
75.55449940264225
 31
0.0
  0
ARC
  5
15D2C
  8
0
 10
124.2274482436592
 20
49.712525106061719
 30
0.0
 40
0.7262590030636377
 50
149.7291780721726
 51
201.57206477536039
  0
ARC
  5
15D2D
  8
0
 10
125.77944475528579
 20
49.714169153051451
 30
0.0
 40
0.7204654362945812
 50
338.10482116368769
 51
30.39955882891887
  0
ARC
  5
15D2E
  8
0
 10
125.76205825498231
 20
75.286647425727608
 30
0.0
 40
0.7363289043138522
 50
330.24434699935711
 51
21.331706457782051
  0
ARC
  5
15D2F
  8
0
 10
124.20633364401689
 20
75.286416274535554
 30
0.0
 40
0.7070666958054476
 50
157.71906428733811
 51
211.07690026293449
  0
ARC
  5
15D30
  8
0
 10
126.2536014133527
 20
46.078984153507463
 30
0.0
 40
1.0043183518341321
 50
274.56064082003388
 51
339.8161737573227
  0
ARC
  5
15D33
  8
0
 10
123.7464015299315
 20
46.078987050780768
 30
0.0
 40
1.0043214147258499
 50
200.1839381100842
 51
265.4392473125684
  0
ARC
  5
15D35
  8
0
 10
126.25359921559139
 20
78.921012949832232
 30
0.0
 40
1.0043214140780079
 50
20.18393808641008
 51
85.439247336223147
  0
ARC
  5
15D36
  8
0
 10
123.7463993321702
 20
78.921015845879765
 30
0.0
 40
1.0043183524818851
 50
94.560640843695353
 51
159.81617373366069
  0
POLYLINE
  5
15D46
  8
0
 66
     1
 10
0.0
 20
0.0
 30
0.0
 70
   128
  0
VERTEX
  5
17B7A
  8
0
 10
128.0772082041949
 20
61.651471885852509
 30
0.0
  0
VERTEX
  5
17B7B
  8
0
 10
128.27471145428709
 20
61.453968635760241
 30
0.0
  0
VERTEX
  5
17B7C
  8
0
 10
128.4139581490308
 20
61.314721941016607
 30
0.0
  0
VERTEX
  5
17B7D
  8
0
 10
128.44449318945399
 20
61.284186784178011
 30
0.0
  0
SEQEND
  5
17B7E
  8
0
  0
POLYLINE
  5
15D48
  8
0
 66
     1
 10
0.0
 20
0.0
 30
0.0
 70
   128
  0
VERTEX
  5
17B7F
  8
0
 10
121.555507555604
 20
61.284186784178011
 30
0.0
  0
VERTEX
  5
17B80
  8
0
 10
121.6531318146735
 20
61.381811043247581
 30
0.0
  0
VERTEX
  5
17B81
  8
0
 10
121.8087250832468
 20
61.537404311820858
 30
0.0
  0
VERTEX
  5
17B82
  8
0
 10
121.9227925408631
 20
61.651471290597271
 30
0.0
  0
SEQEND
  5
17B83
  8
0
  0
ARC
  5
15D4B
  8
0
 10
128.92573687531171
 20
62.500000297627587
 30
0.0
 40
1.200000571373518
 50
135.0000087554676
 51
224.9999912441437
  0
POLYLINE
  5
15D4C
  8
0
 66
     1
 10
0.0
 20
0.0
 30
0.0
 70
   128
  0
VERTEX
  5
17B84
  8
0
 10
121.9227925408631
 20
63.348528114147477
 30
0.0
  0
VERTEX
  5
17B85
  8
0
 10
121.7252892907709
 20
63.546031364239752
 30
0.0
  0
VERTEX
  5
17B86
  8
0
 10
121.5860425960272
 20
63.685278058983378
 30
0.0
  0
VERTEX
  5
17B87
  8
0
 10
121.555507555604
 20
63.715813215821981
 30
0.0
  0
SEQEND
  5
17B88
  8
0
  0
POLYLINE
  5
15D4E
  8
0
 66
     1
 10
0.0
 20
0.0
 30
0.0
 70
   128
  0
VERTEX
  5
17B89
  8
0
 10
128.44449318945399
 20
63.715813215821981
 30
0.0
  0
VERTEX
  5
17B8A
  8
0
 10
128.34686893038449
 20
63.618188956752412
 30
0.0
  0
VERTEX
  5
17B8B
  8
0
 10
128.1912756618112
 20
63.462595688179128
 30
0.0
  0
VERTEX
  5
17B8C
  8
0
 10
128.0772082042007
 20
63.348528709408413
 30
0.0
  0
SEQEND
  5
17B8D
  8
0
  0
ARC
  5
15D50
  8
0
 10
121.0742638697463
 20
62.499999702372399
 30
0.0
 40
1.2000005713735391
 50
315.00000875585459
 51
44.999991244143708
  0
LINE
  5
15D54
  8
0
 10
128.7140030413866
 20
61.014677048660808
 30
0.0
 11
128.44449318945399
 21
61.284186784178011
 31
0.0
  0
LINE
  5
15D55
  8
0
 10
121.2859977036714
 20
61.014677048660808
 30
0.0
 11
121.555507555604
 21
61.284186784178011
 31
0.0
  0
LINE
  5
15D56
  8
0
 10
128.44449318945399
 20
63.715813215821981
 30
0.0
 11
128.7140030413866
 21
63.985322951339178
 31
0.0
  0
LINE
  5
15D57
  8
0
 10
121.555507555604
 20
63.715813215821981
 30
0.0
 11
121.2859977036714
 21
63.985322951339178
 31
0.0
  0
CIRCLE
  5
15D66
  8
0
 10
125.000000372529
 20
62.5
 30
0.0
 40
6.0
  0
CIRCLE
  5
15D67
  8
0
 10
125.000000372529
 20
62.5
 30
0.0
 40
7.0
  0
CIRCLE
  5
15D68
  8
0
 10
125.000000372529
 20
62.5
 30
0.0
 40
4.0
  0
CIRCLE
  5
15D6E
  8
0
 10
125.000000372529
 20
62.5
 30
0.0
 40
12.500000000000011
  0
LINE
  5
15D91
  8
0
 10
382.60000076660248
 20
115.50000008428469
 30
0.0
 11
382.60000076660248
 21
113.4999999892898
 31
0.0
  0
LINE
  5
15D92
  8
0
 10
386.40000083067753
 20
113.4999999892898
 30
0.0
 11
386.40000083067753
 21
115.50000008428469
 31
0.0
  0
LINE
  5
15D93
  8
0
 10
385.50000142821409
 20
115.50000008428469
 30
0.0
 11
385.50000142821409
 21
120.9999995888211
 31
0.0
  0
LINE
  5
15D94
  8
0
 10
383.50000110038849
 20
120.9999995888211
 30
0.0
 11
383.50000110038849
 21
115.50000008428469
 31
0.0
  0
LINE
  5
15D95
  8
0
 10
405.5985302529607
 20
152.85616765031591
 30
0.0
 11
404.58284754821398
 21
153.22584683308369
 31
0.0
  0
LINE
  5
15D96
  8
0
 10
385.4171546972666
 20
153.22584683308369
 30
0.0
 11
384.4014724065114
 21
152.85616822205731
 31
0.0
  0
ARC
  5
15D97
  8
0
 10
383.52689118538069
 20
138.2559999762513
 30
0.0
 40
0.5000000000000249
 50
177.00000000000421
 51
270.0
  0
LINE
  5
15D98
  8
0
 10
383.7448625690613
 20
151.96881095180279
 30
0.0
 11
383.02757654854389
 21
138.2821670384146
 31
0.0
  0
ARC
  5
15D99
  8
0
 10
384.74349254983707
 20
151.9164756012714
 30
0.0
 40
0.9999999999999779
 50
110.0000000000034
 51
130.91891452354781
  0
ARC
  5
15D9A
  8
0
 10
404.4118418095872
 20
152.75600536558639
 30
0.0
 40
0.4999939671869479
 50
70.000276782548127
 51
90.000425429066084
  0
ARC
  5
15D9B
  8
0
 10
385.58816043587791
 20
152.75600536567461
 30
0.0
 40
0.4999939670987019
 50
89.999574569162135
 51
109.9997232192466
  0
LINE
  5
15D9C
  8
0
 10
410.8520091376576
 20
138.28832308063281
 30
0.0
 11
410.16824793585869
 21
149.27698323735959
 31
0.0
  0
ARC
  5
15D9D
  8
0
 10
408.1479676418179
 20
149.23320832860409
 30
0.0
 40
2.02075449006698
 50
1.241275839472725
 51
60.496593896328498
  0
ARC
  5
15D9E
  8
0
 10
410.35305634521609
 20
138.25599836115711
 30
0.0
 40
0.4999987765729876
 50
269.99556905827012
 51
3.7067342204305849
  0
POLYLINE
  5
15D9F
  8
0
 66
     1
 10
0.0
 20
0.0
 30
0.0
 70
   128
  0
VERTEX
  5
17B8E
  8
0
 10
409.1086034074039
 20
151.00792974320191
 30
0.0
  0
VERTEX
  5
17B8F
  8
0
 10
408.19252718755342
 20
151.47434199461711
 30
0.0
  0
VERTEX
  5
17B90
  8
0
 10
407.31345646598669
 20
151.9149022758937
 30
0.0
  0
SEQEND
  5
17B91
  8
0
  0
ARC
  5
15DA0
  8
0
 10
412.6740127033213
 20
163.38878527140139
 30
0.0
 40
12.664341837151589
 50
237.45016719829189
 51
244.9581903451795
  0
ARC
  5
15DA1
  8
0
 10
405.25651934125369
 20
151.91649053974481
 30
0.0
 40
0.9999822677716901
 50
52.866733415376153
 51
70.00019309467595
  0
ARC
  5
15DA2
  8
0
 10
376.1597357560392
 20
165.67468970089249
 30
0.0
 40
15.22932506489254
 50
295.37812877922102
 51
301.37418077462792
  0
POLYLINE
  5
15DA3
  8
0
 66
     1
 10
0.0
 20
0.0
 30
0.0
 70
   128
  0
VERTEX
  5
17B92
  8
0
 10
382.68687639900691
 20
151.91501030931209
 30
0.0
  0
VERTEX
  5
17B93
  8
0
 10
382.29728274562689
 20
151.72086680540809
 30
0.0
  0
VERTEX
  5
17B94
  8
0
 10
380.85700262853243
 20
150.989454484079
 30
0.0
  0
SEQEND
  5
17B95
  8
0
  0
ARC
  5
15DA4
  8
0
 10
381.83762437686158
 20
149.2384179297843
 30
0.0
 40
2.0069250179746621
 50
119.2498545369361
 51
178.89775967625451
  0
POLYLINE
  5
15DA5
  8
0
 66
     1
 10
0.0
 20
0.0
 30
0.0
 70
   128
  0
VERTEX
  5
17B96
  8
0
 10
379.831070718852
 20
149.2770242155529
 30
0.0
  0
VERTEX
  5
17B97
  8
0
 10
379.58887655803301
 20
145.39452294120559
 30
0.0
  0
VERTEX
  5
17B98
  8
0
 10
379.14804898717739
 20
138.28919852385289
 30
0.0
  0
SEQEND
  5
17B99
  8
0
  0
ARC
  5
15DA6
  8
0
 10
379.6469474232324
 20
138.25600129049741
 30
0.0
 40
0.5000017057978092
 50
176.19308981741179
 51
270.00425639708999
  0
LINE
  5
15DA7
  8
0
 10
399.00000131273009
 20
107.96088051283731
 30
0.0
 11
399.00000131273009
 21
112.5
 31
0.0
  0
LINE
  5
15DA8
  8
0
 10
399.00000131273009
 20
102.9560000286437
 30
0.0
 11
399.00000131273009
 21
104.3713714578189
 31
0.0
  0
LINE
  5
15DA9
  8
0
 10
391.00000093275048
 20
104.3611450436465
 30
0.0
 11
391.00000093275048
 21
102.9560000286437
 31
0.0
  0
LINE
  5
15DAA
  8
0
 10
391.00000093275048
 20
112.5
 30
0.0
 11
391.00000093275048
 21
107.9607668914832
 31
0.0
  0
LINE
  5
15DAB
  8
0
 10
398.65277166062327
 20
101.6601214767433
 30
0.0
 11
399.00000131273009
 21
102.9560000286437
 31
0.0
  0
ARC
  5
15DAC
  8
0
 10
397.73514151424411
 20
101.9060003670935
 30
0.0
 40
0.9500006662754952
 50
270.00003528535899
 51
344.99998636352097
  0
ARC
  5
15DAD
  8
0
 10
392.26486083871191
 20
101.9060006835051
 30
0.0
 40
0.9500009826874958
 50
195.00005367094391
 51
269.99995885424892
  0
LINE
  5
15DAE
  8
0
 10
391.00000093275048
 20
102.9560000286437
 30
0.0
 11
391.34723058485719
 21
101.6601214767433
 31
0.0
  0
LINE
  5
15DB1
  8
0
 10
407.5000013090048
 20
121.4999996707774
 30
0.0
 11
407.5000013090048
 21
134.25798552343619
 31
0.0
  0
LINE
  5
15DB2
  8
0
 10
382.50000093647577
 20
134.25798552343619
 30
0.0
 11
382.50000093647577
 21
121.4999996707774
 31
0.0
  0
LINE
  5
15DB3
  8
0
 10
382.50000093647577
 20
121.4999996707774
 30
0.0
 11
383.0000010184321
 21
120.9999995888211
 31
0.0
  0
LINE
  5
15DB4
  8
0
 10
407.00000122704841
 20
120.9999995888211
 30
0.0
 11
407.5000013090048
 21
121.4999996707774
 31
0.0
  0
ARC
  5
15DB5
  8
0
 10
383.00000112274029
 20
134.2579855043478
 30
0.0
 40
0.5
 50
110.0000000000034
 51
180.0
  0
ARC
  5
15DB6
  8
0
 10
407.00000112274029
 20
134.2579855043478
 30
0.0
 40
0.5
 50
0.0
 51
69.999999999996604
  0
LINE
  5
15DB7
  8
0
 10
407.17101160952188
 20
134.72783217439431
 30
0.0
 11
404.76319350817539
 21
135.60420671710739
 31
0.0
  0
LINE
  5
15DB8
  8
0
 10
385.23680873730518
 20
135.60420671710739
 30
0.0
 11
382.82899063595869
 21
134.72783217439431
 31
0.0
  0
ARC
  5
15DB9
  8
0
 10
404.90000112274009
 20
135.98008299153511
 30
0.0
 40
0.3999999999999844
 50
180.0
 51
249.99999999999611
  0
ARC
  5
15DBA
  8
0
 10
385.1000011227402
 20
135.98008299153511
 30
0.0
 40
0.4000000000000039
 50
290.00000000000392
 51
0.0
  0
LINE
  5
15DBB
  8
0
 10
404.50000081726648
 20
135.9800829202868
 30
0.0
 11
404.50000081726648
 21
137.75599958607921
 31
0.0
  0
LINE
  5
15DBC
  8
0
 10
385.50000142821409
 20
137.75599958607921
 30
0.0
 11
385.50000142821409
 21
135.9800829202868
 31
0.0
  0
ARC
  5
15DBD
  8
0
 10
402.20000112274028
 20
120.5999999762512
 30
0.0
 40
0.4000000000000341
 50
90.0
 51
180.0
  0
ARC
  5
15DBE
  8
0
 10
387.8000011227403
 20
120.5999999762511
 30
0.0
 40
0.3999999999999702
 50
0.0000418349363499
 51
90.0
  0
LINE
  5
15DBF
  8
0
 10
402.00000133880712
 20
115.50000008428469
 30
0.0
 11
402.00000133880712
 21
117.6535899401642
 31
0.0
  0
LINE
  5
15DC0
  8
0
 10
388.00000090667339
 20
117.6535899401642
 30
0.0
 11
388.00000090667339
 21
113.4999999892898
 31
0.0
  0
LINE
  5
15DC1
  8
0
 10
388.00000090667339
 20
113.4999999892898
 30
0.0
 11
389.00000107058622
 21
112.5
 31
0.0
  0
LINE
  5
15DC2
  8
0
 10
401.00000117489429
 20
112.5
 30
0.0
 11
402.00000133880712
 21
113.4999999892898
 31
0.0
  0
LINE
  5
15DC3
  8
0
 10
402.00000133880712
 20
117.6535899401642
 30
0.0
 11
401.80000121289231
 21
118.0000000284053
 31
0.0
  0
LINE
  5
15DC4
  8
0
 10
388.2000010325882
 20
118.0000000284053
 30
0.0
 11
388.00000090667339
 21
117.6535899401642
 31
0.0
  0
LINE
  5
15DC5
  8
0
 10
401.80000121289231
 20
118.0000000284053
 30
0.0
 11
401.80000121289231
 21
120.60000026831401
 31
0.0
  0
LINE
  5
15DC7
  8
0
 10
382.60000076660248
 20
115.50000008428469
 30
0.0
 11
386.40000083067753
 21
115.50000008428469
 31
0.0
  0
LINE
  5
15DC8
  8
0
 10
382.60000076660248
 20
113.4999999892898
 30
0.0
 11
386.40000083067753
 21
113.4999999892898
 31
0.0
  0
LINE
  5
15DC9
  8
0
 10
388.2000010325882
 20
118.0000000284051
 30
0.0
 11
388.20000103258849
 21
120.60000087374669
 31
0.0
  0
POLYLINE
  5
15DD0
  8
0
 66
     1
 10
0.0
 20
0.0
 30
0.0
 70
   128
  0
VERTEX
  5
17B9A
  8
0
 10
401.17043320604898
 20
138.2821670384146
 30
0.0
  0
VERTEX
  5
17B9B
  8
0
 10
401.16787206896879
 20
138.18101609358561
 30
0.0
  0
VERTEX
  5
17B9C
  8
0
 10
401.15485869863369
 20
138.08294223854321
 30
0.0
  0
VERTEX
  5
17B9D
  8
0
 10
401.13192674287887
 20
137.99196692416439
 30
0.0
  0
VERTEX
  5
17B9E
  8
0
 10
401.10001683750488
 20
137.91182289132851
 30
0.0
  0
VERTEX
  5
17B9F
  8
0
 10
401.06043888771268
 20
137.84579957136879
 30
0.0
  0
VERTEX
  5
17BA0
  8
0
 10
401.0148157230887
 20
137.7966052503325
 30
0.0
  0
VERTEX
  5
17BA1
  8
0
 10
400.96501930200787
 20
137.76625717291611
 30
0.0
  0
VERTEX
  5
17BA2
  8
0
 10
400.9130929461989
 20
137.75599958607921
 30
0.0
  0
SEQEND
  5
17BA3
  8
0
  0
LINE
  5
15DD2
  8
0
 10
401.17043320604898
 20
138.2821670384146
 30
0.0
 11
400.80075309195848
 21
151.96881095180279
 31
0.0
  0
LINE
  5
15DD4
  8
0
 10
385.58816414841749
 20
153.2559993327595
 30
0.0
 11
404.41183809706308
 21
153.2559993327595
 31
0.0
  0
ARC
  5
15DD6
  8
0
 10
405.4686294275827
 20
138.14937447056201
 30
0.0
 40
0.8445253477542538
 50
170.95330898034831
 51
207.76162389824151
  0
ARC
  5
15DD8
  8
0
 10
400.27143199054058
 20
140.53322535545951
 30
0.0
 40
11.447829434425641
 50
66.964579412874755
 51
87.349831062433665
  0
LINE
  5
15DD9
  8
0
 10
404.75096896806099
 20
151.0682406486012
 30
0.0
 11
404.63460952558847
 21
138.2821670384146
 31
0.0
  0
ARC
  5
15DDB
  8
0
 10
409.25714612058391
 20
138.1493752693714
 30
0.0
 40
0.8445379367862601
 50
170.9534998420315
 51
207.7612355701994
  0
LINE
  5
15DDD
  8
0
 10
407.4759005434189
 20
150.1544269383885
 30
0.0
 11
404.75096896806099
 21
151.0682406486012
 31
0.0
  0
ARC
  5
15DDE
  8
0
 10
407.18640092749467
 20
149.2316135936525
 30
0.0
 40
0.9671579482395829
 50
2.1009717433609318
 51
72.582620063945626
  0
LINE
  5
15DDF
  8
0
 10
408.42311334380253
 20
138.2821670384146
 30
0.0
 11
408.15290872522928
 21
149.26707023987541
 31
0.0
  0
LINE
  5
15DEA
  8
0
 10
410.3530176779152
 20
137.75599958607921
 30
0.0
 11
379.64698456771771
 21
137.75599958607921
 31
0.0
  0
POLYLINE
  5
15DEE
  8
0
 66
     1
 10
0.0
 20
0.0
 30
0.0
 70
   128
  0
VERTEX
  5
17BA4
  8
0
 10
409.14313931533451
 20
150.9919243515468
 30
0.0
  0
VERTEX
  5
17BA5
  8
0
 10
409.11470789977648
 20
151.0061028064228
 30
0.0
  0
VERTEX
  5
17BA6
  8
0
 10
409.1086034074039
 20
151.00792974320191
 30
0.0
  0
SEQEND
  5
17BA7
  8
0
  0
LINE
  5
15DEF
  8
0
 10
381.85405888178678
 20
138.2821670384146
 30
0.0
 11
382.36737687656017
 21
151.0682406486012
 31
0.0
  0
ARC
  5
15DF0
  8
0
 10
382.30872793664298
 20
138.2105766662076
 30
0.0
 40
0.4602707147283177
 50
171.0519011664058
 51
260.97858907495771
  0
ARC
  5
15DF2
  8
0
 10
381.10884234681981
 20
149.27356788075991
 30
0.0
 40
1.044953735462647
 50
122.5454839315337
 51
180.3562739535318
  0
LINE
  5
15DF3
  8
0
 10
382.36737687656017
 20
151.0682406486012
 30
0.0
 11
380.54668967196079
 21
150.1544269383885
 31
0.0
  0
LINE
  5
15DF5
  8
0
 10
380.06390881308653
 20
149.26707023987541
 30
0.0
 11
379.38128848144152
 21
138.2821670384146
 31
0.0
  0
ARC
  5
15DF6
  8
0
 10
379.8359575362976
 20
138.2105766662076
 30
0.0
 40
0.4602707147282615
 50
171.05190116640409
 51
260.97858907495771
  0
POLYLINE
  5
15DF9
  8
0
 66
     1
 10
0.0
 20
0.0
 30
0.0
 70
   128
  0
VERTEX
  5
17BA8
  8
0
 10
398.93923204907509
 20
108.1108946935273
 30
0.0
  0
VERTEX
  5
17BA9
  8
0
 10
398.95791577690579
 20
108.1052767229266
 30
0.0
  0
VERTEX
  5
17BAA
  8
0
 10
398.99247948595621
 20
108.02581046009431
 30
0.0
  0
SEQEND
  5
17BAB
  8
0
  0
LINE
  5
15DFA
  8
0
 10
398.93923204907509
 20
108.1108946935273
 30
0.0
 11
398.758771536437
 21
108.1108946935273
 31
0.0
  0
LINE
  5
15DFB
  8
0
 10
398.758771536437
 20
108.1108946935273
 30
0.0
 11
398.758771536437
 21
108.10273910174141
 31
0.0
  0
POLYLINE
  5
15DFC
  8
0
 66
     1
 10
0.0
 20
0.0
 30
0.0
 70
   128
  0
VERTEX
  5
17BAC
  8
0
 10
398.758771536437
 20
108.10273910174141
 30
0.0
  0
VERTEX
  5
17BAD
  8
0
 10
398.71766505346932
 20
108.09719563694669
 30
0.0
  0
VERTEX
  5
17BAE
  8
0
 10
398.58112431646617
 20
108.017979899887
 30
0.0
  0
SEQEND
  5
17BAF
  8
0
  0
ARC
  5
15DFD
  8
0
 10
387.13378932042878
 20
135.52371061332931
 30
0.0
 40
29.792728988662791
 50
282.4120167428926
 51
292.59610171982399
  0
LINE
  5
15DFE
  8
0
 10
393.53744330399968
 20
106.42732052365319
 30
0.0
 11
393.00000102774538
 21
106.42732052365319
 31
0.0
  0
POLYLINE
  5
15DFF
  8
0
 66
     1
 10
0.0
 20
0.0
 30
0.0
 70
   128
  0
VERTEX
  5
17BB0
  8
0
 10
391.85667241507508
 20
104.6559999347664
 30
0.0
  0
VERTEX
  5
17BB1
  8
0
 10
391.860615634856
 20
104.8127098591067
 30
0.0
  0
VERTEX
  5
17BB2
  8
0
 10
391.96253142834939
 20
105.44162314618001
 30
0.0
  0
VERTEX
  5
17BB3
  8
0
 10
392.2109018876526
 20
105.980788602028
 30
0.0
  0
VERTEX
  5
17BB4
  8
0
 10
392.50933885158338
 20
106.2786507070996
 30
0.0
  0
VERTEX
  5
17BB5
  8
0
 10
392.83405005515851
 20
106.411872676108
 30
0.0
  0
VERTEX
  5
17BB6
  8
0
 10
393.00000102774538
 20
106.42732052365319
 30
0.0
  0
SEQEND
  5
17BB7
  8
0
  0
LINE
  5
15E00
  8
0
 10
391.85667241507508
 20
104.6559999347664
 30
0.0
 11
391.85667241507508
 21
102.9560000286437
 31
0.0
  0
LINE
  5
15E01
  8
0
 10
391.00000093275048
 20
102.9560000286437
 30
0.0
 11
391.85667241507508
 21
102.9560000286437
 31
0.0
  0
POLYLINE
  5
15E02
  8
0
 66
     1
 10
0.0
 20
0.0
 30
0.0
 70
   128
  0
VERTEX
  5
17BB8
  8
0
 10
391.02560997524603
 20
107.8391547896899
 30
0.0
  0
VERTEX
  5
17BB9
  8
0
 10
391.07777149000498
 20
107.65391798922791
 30
0.0
  0
VERTEX
  5
17BBA
  8
0
 10
391.15649758422109
 20
107.3292789631523
 30
0.0
  0
VERTEX
  5
17BBB
  8
0
 10
391.2407855368528
 20
106.8474918254651
 30
0.0
  0
VERTEX
  5
17BBC
  8
0
 10
391.28686900765928
 20
106.2309618690051
 30
0.0
  0
VERTEX
  5
17BBD
  8
0
 10
391.25747623437383
 20
105.5835539125837
 30
0.0
  0
VERTEX
  5
17BBE
  8
0
 10
391.16449066021778
 20
104.9974828609265
 30
0.0
  0
VERTEX
  5
17BBF
  8
0
 10
391.0573792509112
 20
104.55845413962381
 30
0.0
  0
VERTEX
  5
17BC0
  8
0
 10
391.027305447993
 20
104.4528822065331
 30
0.0
  0
VERTEX
  5
17BC1
  8
0
 10
391.00000093275048
 20
104.3611450436465
 30
0.0
  0
SEQEND
  5
17BC2
  8
0
  0
LINE
  5
15E03
  8
0
 10
391.00465149202682
 20
107.9091520630754
 30
0.0
 11
391.02560997524603
 21
107.8391547896899
 31
0.0
  0
LINE
  5
15E04
  8
0
 10
391.00000093275048
 20
107.9607668914832
 30
0.0
 11
391.00465149202682
 21
107.9091520630754
 31
0.0
  0
LINE
  5
15E05
  8
0
 10
394.42932721975558
 20
102.9560000286437
 30
0.0
 11
399.00000131273009
 21
102.9560000286437
 31
0.0
  0
LINE
  5
15E06
  8
0
 10
394.42932721975558
 20
102.9560000286437
 30
0.0
 11
394.42932721975558
 21
103.0672912136651
 31
0.0
  0
ARC
  5
15E07
  8
0
 10
390.69152256150733
 20
121.0914458310895
 30
0.0
 40
18.407643340092228
 50
281.71579342669622
 51
296.15216196669053
  0
LINE
  5
15E08
  8
0
 10
398.91408773654439
 20
104.5682539814152
 30
0.0
 11
398.8048119335744
 21
104.5682539814152
 31
0.0
  0
POLYLINE
  5
15E09
  8
0
 66
     1
 10
0.0
 20
0.0
 30
0.0
 70
   128
  0
VERTEX
  5
17BC3
  8
0
 10
398.9586473307881
 20
104.4998357654549
 30
0.0
  0
VERTEX
  5
17BC4
  8
0
 10
398.93564273187258
 20
104.5382421114482
 30
0.0
  0
VERTEX
  5
17BC5
  8
0
 10
398.91408773654439
 20
104.5682539814152
 30
0.0
  0
SEQEND
  5
17BC6
  8
0
  0
ARC
  5
15E0A
  8
0
 10
404.45781823602528
 20
106.1436037228206
 30
0.0
 40
5.7395865480598323
 50
162.81766867462781
 51
196.64203440411089
  0
POLYLINE
  5
15E0B
  8
0
 66
     1
 10
0.0
 20
0.0
 30
0.0
 70
   128
  0
VERTEX
  5
17BC7
  8
0
 10
399.00000131273009
 20
104.3713714578189
 30
0.0
  0
VERTEX
  5
17BC8
  8
0
 10
398.98547640585639
 20
104.40859316149719
 30
0.0
  0
VERTEX
  5
17BC9
  8
0
 10
398.9586473307881
 20
104.4998357654549
 30
0.0
  0
SEQEND
  5
17BCA
  8
0
  0
LINE
  5
15E0C
  8
0
 10
398.99535075345369
 20
107.9091520630754
 30
0.0
 11
398.9743922702346
 21
107.8391547896899
 31
0.0
  0
POLYLINE
  5
15E0D
  8
0
 66
     1
 10
0.0
 20
0.0
 30
0.0
 70
   128
  0
VERTEX
  5
17BCB
  8
0
 10
398.99247948595621
 20
108.02581046009431
 30
0.0
  0
VERTEX
  5
17BCC
  8
0
 10
399.00000131273009
 20
107.96088051283731
 30
0.0
  0
VERTEX
  5
17BCD
  8
0
 10
398.99535075345369
 20
107.9091520630754
 30
0.0
  0
SEQEND
  5
17BCE
  8
0
  0
LINE
  5
15E0E
  8
0
 10
392.01763382696839
 20
108.25599987292659
 30
0.0
 11
392.01763382696839
 21
112.5
 31
0.0
  0
POLYLINE
  5
15E0F
  8
0
 66
     1
 10
0.0
 20
0.0
 30
0.0
 70
   128
  0
VERTEX
  5
17BCF
  8
0
 10
394.18269734413661
 20
108.25599987292659
 30
0.0
  0
VERTEX
  5
17BD0
  8
0
 10
394.11453407773109
 20
107.85385199123991
 30
0.0
  0
VERTEX
  5
17BD1
  8
0
 10
393.9229754596326
 20
107.4972867616452
 30
0.0
  0
VERTEX
  5
17BD2
  8
0
 10
393.6275585419807
 20
107.2137078852392
 30
0.0
  0
VERTEX
  5
17BD3
  8
0
 10
393.26454949149229
 20
107.0422900491394
 30
0.0
  0
VERTEX
  5
17BD4
  8
0
 10
392.90032553070517
 20
107.01140040764579
 30
0.0
  0
VERTEX
  5
17BD5
  8
0
 10
392.5793545185897
 20
107.11216997588051
 30
0.0
  0
VERTEX
  5
17BD6
  8
0
 10
392.31569104411938
 20
107.3320445255376
 30
0.0
  0
VERTEX
  5
17BD7
  8
0
 10
392.12447957651051
 20
107.6622957014478
 30
0.0
  0
VERTEX
  5
17BD8
  8
0
 10
392.02775357806422
 20
108.0667877220548
 30
0.0
  0
VERTEX
  5
17BD9
  8
0
 10
392.01763382696839
 20
108.25599987292659
 30
0.0
  0
SEQEND
  5
17BDA
  8
0
  0
LINE
  5
15E10
  8
0
 10
394.18269734413661
 20
112.5
 30
0.0
 11
394.18269734413661
 21
108.25599987292659
 31
0.0
  0
LINE
  5
15E12
  8
0
 10
397.86648860716559
 20
107.20667500281699
 30
0.0
 11
398.58112431646617
 21
108.017979899887
 31
0.0
  0
LINE
  5
15E13
  8
0
 10
397.86648860716559
 20
107.20667500281699
 30
0.0
 11
397.82024494887628
 21
107.1541758836247
 31
0.0
  0
POLYLINE
  5
15E18
  8
0
 66
     1
 10
0.0
 20
0.0
 30
0.0
 70
   128
  0
VERTEX
  5
17BDB
  8
0
 10
398.8048119335744
 20
104.5682539814152
 30
0.0
  0
VERTEX
  5
17BDC
  8
0
 10
398.37736560547091
 20
105.02334894845259
 30
0.0
  0
VERTEX
  5
17BDD
  8
0
 10
397.94126961895557
 20
105.47933472553269
 30
0.0
  0
SEQEND
  5
17BDE
  8
0
  0
LINE
  5
15E19
  8
0
 10
394.42932721975558
 20
102.9560000286437
 30
0.0
 11
394.33067978642248
 21
101.6601214767433
 31
0.0
  0
ARC
  5
15E1A
  8
0
 10
392.62655140583962
 20
101.74147901401381
 30
0.0
 40
1.7060693380924039
 50
336.93541815817929
 51
357.26669253210571
  0
POLYLINE
  5
15E1C
  8
0
 66
     1
 10
0.0
 20
0.0
 30
0.0
 70
   128
  0
VERTEX
  5
17BDF
  8
0
 10
393.74222507284321
 20
100.9559997008182
 30
0.0
  0
VERTEX
  5
17BE0
  8
0
 10
394.01019952309611
 20
100.9661157266237
 30
0.0
  0
VERTEX
  5
17BE1
  8
0
 10
394.154088045967
 20
101.0206465260125
 30
0.0
  0
VERTEX
  5
17BE2
  8
0
 10
394.19624412947633
 20
101.0730948881246
 30
0.0
  0
SEQEND
  5
17BE3
  8
0
  0
ARC
  5
15E22
  8
0
 10
398.64177739629099
 20
106.4491647272007
 30
0.0
 40
1.082569301632601
 50
139.36493103321951
 51
185.82119068594179
  0
LINE
  5
15E23
  8
0
 10
397.56479061723979
 20
106.33936595404521
 30
0.0
 11
397.58662105121948
 21
106.0869733453728
 31
0.0
  0
POLYLINE
  5
15E24
  8
0
 66
     1
 10
0.0
 20
0.0
 30
0.0
 70
   128
  0
VERTEX
  5
17BE4
  8
0
 10
397.58662105121948
 20
106.0869733453728
 30
0.0
  0
VERTEX
  5
17BE5
  8
0
 10
397.74276426577308
 20
105.7310945005156
 30
0.0
  0
VERTEX
  5
17BE6
  8
0
 10
397.92982226752969
 20
105.4910461069084
 30
0.0
  0
SEQEND
  5
17BE7
  8
0
  0
LINE
  5
15E25
  8
0
 10
397.94126961895557
 20
105.47933472553269
 30
0.0
 11
397.92982226752969
 21
105.4910461069084
 31
0.0
  0
ARC
  5
15E31
  8
0
 10
393.40068449255801
 20
102.8885699686486
 30
0.0
 40
1.9365966794083429
 50
249.62869864469229
 51
266.30467707428153
  0
ARC
  5
15E36
  8
0
 10
393.14023204139431
 20
101.9345799540264
 30
0.0
 40
0.9556616110804007
 50
196.6899263649407
 51
244.34986376427341
  0
LINE
  5
15E37
  8
0
 10
397.735142099298
 20
100.9559997008182
 30
0.0
 11
392.26486015648879
 21
100.9559997008182
 31
0.0
  0
LINE
  5
15E39
  8
0
 10
392.22482958392538
 20
101.6601214767433
 30
0.0
 11
391.85667241507508
 21
102.9560000286437
 31
0.0
  0
LINE
  5
15E4F
  8
0
 10
382.50000093647577
 20
121.4999996707774
 30
0.0
 11
407.5000013090048
 21
121.4999996707774
 31
0.0
  0
ARC
  5
15E50
  8
0
 10
392.5484556883971
 20
131.92680707162279
 30
0.0
 40
1.8215349809387691
 50
138.15893229119899
 51
183.86405899192391
  0
ARC
  5
15E51
  8
0
 10
392.5497945875365
 20
131.68176165038679
 30
0.0
 40
1.822839985279052
 50
176.1531724675568
 51
221.82378716218781
  0
POLYLINE
  5
15E52
  8
0
 66
     1
 10
0.0
 20
0.0
 30
0.0
 70
   128
  0
VERTEX
  5
17BE8
  8
0
 10
392.18794106089808
 20
130.0405396730639
 30
0.0
  0
VERTEX
  5
17BE9
  8
0
 10
391.64438651458659
 20
130.14659496257079
 30
0.0
  0
VERTEX
  5
17BEA
  8
0
 10
391.1914156615112
 20
130.4662155569531
 30
0.0
  0
SEQEND
  5
17BEB
  8
0
  0
POLYLINE
  5
15E53
  8
0
 66
     1
 10
0.0
 20
0.0
 30
0.0
 70
   128
  0
VERTEX
  5
17BEC
  8
0
 10
393.20368942388632
 20
130.4662155569531
 30
0.0
  0
VERTEX
  5
17BED
  8
0
 10
392.7371578156326
 20
130.14659496257079
 30
0.0
  0
VERTEX
  5
17BEE
  8
0
 10
392.18794106089808
 20
130.0405396730639
 30
0.0
  0
SEQEND
  5
17BEF
  8
0
  0
ARC
  5
15E54
  8
0
 10
391.90656119672349
 20
131.69019458772101
 30
0.0
 40
1.7834422630020801
 50
316.66195416722587
 51
3.6604224957300122
  0
ARC
  5
15E55
  8
0
 10
391.90787814853962
 20
131.91838854352051
 30
0.0
 40
1.7821583103114389
 50
356.32168465617031
 51
43.35598961254837
  0
POLYLINE
  5
15E56
  8
0
 66
     1
 10
0.0
 20
0.0
 30
0.0
 70
   128
  0
VERTEX
  5
17BF0
  8
0
 10
392.18794106089808
 20
133.5675681591965
 30
0.0
  0
VERTEX
  5
17BF1
  8
0
 10
392.7371578156326
 20
133.46151473233471
 30
0.0
  0
VERTEX
  5
17BF2
  8
0
 10
393.20368942388632
 20
133.1418922753073
 30
0.0
  0
SEQEND
  5
17BF3
  8
0
  0
POLYLINE
  5
15E57
  8
0
 66
     1
 10
0.0
 20
0.0
 30
0.0
 70
   128
  0
VERTEX
  5
17BF4
  8
0
 10
391.1914156615112
 20
133.1418922753073
 30
0.0
  0
VERTEX
  5
17BF5
  8
0
 10
391.64438651458659
 20
133.46151473233471
 30
0.0
  0
VERTEX
  5
17BF6
  8
0
 10
392.18794106089808
 20
133.5675681591965
 30
0.0
  0
SEQEND
  5
17BF7
  8
0
  0
LINE
  5
15E58
  8
0
 10
399.4616919062409
 20
133.52702768752351
 30
0.0
 11
397.20610267066689
 21
133.52702768752351
 31
0.0
  0
LINE
  5
15E59
  8
0
 10
397.20610267066689
 20
130.06081084022301
 30
0.0
 11
397.20610267066689
 21
133.52702768752351
 31
0.0
  0
LINE
  5
15E5A
  8
0
 10
397.67656166621782
 20
130.06081084022301
 30
0.0
 11
397.20610267066689
 21
130.06081084022301
 31
0.0
  0
LINE
  5
15E5B
  8
0
 10
397.67656166621782
 20
131.62312308559191
 30
0.0
 11
397.67656166621782
 21
130.06081084022301
 31
0.0
  0
LINE
  5
15E5C
  8
0
 10
399.08071112403007
 20
131.62312308559191
 30
0.0
 11
397.67656166621782
 21
131.62312308559191
 31
0.0
  0
LINE
  5
15E5D
  8
0
 10
399.08071112403007
 20
132.00675720581779
 30
0.0
 11
399.08071112403007
 21
131.62312308559191
 31
0.0
  0
LINE
  5
15E5E
  8
0
 10
399.08071112403007
 20
132.00675720581779
 30
0.0
 11
397.67656166621782
 21
132.00675720581779
 31
0.0
  0
LINE
  5
15E5F
  8
0
 10
397.67656166621782
 20
133.14339356729761
 30
0.0
 11
397.67656166621782
 21
132.00675720581779
 31
0.0
  0
LINE
  5
15E60
  8
0
 10
399.4616919062409
 20
133.14339356729761
 30
0.0
 11
397.67656166621782
 21
133.14339356729761
 31
0.0
  0
LINE
  5
15E61
  8
0
 10
399.4616919062409
 20
133.52702768752351
 30
0.0
 11
399.4616919062409
 21
133.14339356729761
 31
0.0
  0
LINE
  5
15E62
  8
0
 10
396.72198513106741
 20
133.52702768752351
 30
0.0
 11
394.38313466779249
 21
133.52702768752351
 31
0.0
  0
LINE
  5
15E63
  8
0
 10
394.38313466779249
 20
130.06081084022301
 30
0.0
 11
394.38313466779249
 21
133.52702768752351
 31
0.0
  0
LINE
  5
15E64
  8
0
 10
394.86261650562119
 20
130.06081084022301
 30
0.0
 11
394.38313466779249
 21
130.06081084022301
 31
0.0
  0
LINE
  5
15E65
  8
0
 10
394.86261650562119
 20
131.62312308559191
 30
0.0
 11
394.86261650562119
 21
130.06081084022301
 31
0.0
  0
LINE
  5
15E66
  8
0
 10
396.3196096574265
 20
131.62312308559191
 30
0.0
 11
394.86261650562119
 21
131.62312308559191
 31
0.0
  0
LINE
  5
15E67
  8
0
 10
396.3196096574265
 20
132.00675720581779
 30
0.0
 11
396.3196096574265
 21
131.62312308559191
 31
0.0
  0
LINE
  5
15E68
  8
0
 10
396.3196096574265
 20
132.00675720581779
 30
0.0
 11
394.86261650562119
 21
132.00675720581779
 31
0.0
  0
LINE
  5
15E69
  8
0
 10
394.86261650562119
 20
133.14339356729761
 30
0.0
 11
394.86261650562119
 21
132.00675720581779
 31
0.0
  0
LINE
  5
15E6A
  8
0
 10
396.72198513106741
 20
133.14339356729761
 30
0.0
 11
394.86261650562119
 21
133.14339356729761
 31
0.0
  0
LINE
  5
15E6B
  8
0
 10
396.72198513106741
 20
133.52702768752351
 30
0.0
 11
396.72198513106741
 21
133.14339356729761
 31
0.0
  0
POLYLINE
  5
15E6C
  8
0
 66
     1
 10
0.0
 20
0.0
 30
0.0
 70
   128
  0
VERTEX
  5
17BF8
  8
0
 10
386.6172569669161
 20
133.50000070640809
 30
0.0
  0
VERTEX
  5
17BF9
  8
0
 10
387.62437802323439
 20
132.7499991864897
 30
0.0
  0
VERTEX
  5
17BFA
  8
0
 10
388.71108385318257
 20
131.99999952921641
 30
0.0
  0
SEQEND
  5
17BFB
  8
0
  0
LINE
  5
15E6D
  8
0
 10
386.6172569669161
 20
132.7499991864897
 30
0.0
 11
386.6172569669161
 21
133.50000070640809
 31
0.0
  0
LINE
  5
15E6E
  8
0
 10
386.6172569669161
 20
132.7499991864897
 30
0.0
 11
382.77839281180241
 21
132.7499991864897
 31
0.0
  0
LINE
  5
15E6F
  8
0
 10
382.77839281180241
 20
133.50000070640809
 30
0.0
 11
382.77839281180241
 21
132.7499991864897
 31
0.0
  0
POLYLINE
  5
15E70
  8
0
 66
     1
 10
0.0
 20
0.0
 30
0.0
 70
   128
  0
VERTEX
  5
17BFC
  8
0
 10
382.50008196153971
 20
131.99999952921641
 30
0.0
  0
VERTEX
  5
17BFD
  8
0
 10
382.57218774923422
 20
132.7499991864897
 30
0.0
  0
VERTEX
  5
17BFE
  8
0
 10
382.77839281180241
 20
133.50000070640809
 30
0.0
  0
SEQEND
  5
17BFF
  8
0
  0
POLYLINE
  5
15E71
  8
0
 66
     1
 10
0.0
 20
0.0
 30
0.0
 70
   128
  0
VERTEX
  5
17C00
  8
0
 10
382.77839281180241
 20
130.5000002146698
 30
0.0
  0
VERTEX
  5
17C01
  8
0
 10
382.57218774923422
 20
131.24999987194309
 30
0.0
  0
VERTEX
  5
17C02
  8
0
 10
382.50008196153971
 20
131.99999952921641
 30
0.0
  0
SEQEND
  5
17C03
  8
0
  0
LINE
  5
15E72
  8
0
 10
382.77839281180241
 20
131.24999987194309
 30
0.0
 11
382.77839281180241
 21
130.5000002146698
 31
0.0
  0
LINE
  5
15E73
  8
0
 10
386.6172569669161
 20
131.24999987194309
 30
0.0
 11
382.77839281180241
 21
131.24999987194309
 31
0.0
  0
LINE
  5
15E74
  8
0
 10
386.6172569669161
 20
130.5000002146698
 30
0.0
 11
386.6172569669161
 21
131.24999987194309
 31
0.0
  0
POLYLINE
  5
15E75
  8
0
 66
     1
 10
0.0
 20
0.0
 30
0.0
 70
   128
  0
VERTEX
  5
17C04
  8
0
 10
388.71108385318257
 20
131.99999952921641
 30
0.0
  0
VERTEX
  5
17C05
  8
0
 10
387.62437802323439
 20
131.24999987194309
 30
0.0
  0
VERTEX
  5
17C06
  8
0
 10
386.6172569669161
 20
130.5000002146698
 30
0.0
  0
SEQEND
  5
17C07
  8
0
  0
LINE
  5
15E76
  8
0
 10
407.00000122704841
 20
120.9999995888211
 30
0.0
 11
383.0000010184321
 21
120.9999995888211
 31
0.0
  0
ARC
  5
15E83
  8
0
 10
392.1852897789351
 20
132.27425376399921
 30
0.0
 40
0.9081828529677501
 50
41.697778854761758
 51
89.832734694277434
  0
ARC
  5
15E84
  8
0
 10
391.77094066722321
 20
131.9412868427865
 30
0.0
 40
1.439305950888573
 50
354.52876824344639
 51
40.622455582527728
  0
ARC
  5
15E85
  8
0
 10
391.7709398957636
 20
131.66682147176539
 30
0.0
 40
1.4393068504451461
 50
319.37754983964089
 51
5.4712835271036226
  0
ARC
  5
15E86
  8
0
 10
392.1823074815116
 20
131.34047923345599
 30
0.0
 40
0.914821494465777
 50
270.35283644349971
 51
318.11665000745188
  0
ARC
  5
15E87
  8
0
 10
392.18868730383042
 20
131.31073562246769
 30
0.0
 40
0.885060851786709
 50
221.03036384512311
 51
269.95169080691898
  0
ARC
  5
15E88
  8
0
 10
392.64658891350678
 20
131.66279140105871
 30
0.0
 40
1.4620138695000979
 50
174.45528768197261
 51
219.65796253392071
  0
ARC
  5
15E89
  8
0
 10
392.64658809767963
 20
131.94531692642619
 30
0.0
 40
1.462012925366964
 50
140.34203200280439
 51
185.54466206923971
  0
ARC
  5
15E8A
  8
0
 10
392.19114318731658
 20
132.2919855009695
 30
0.0
 40
0.8904530035559614
 50
90.206039761714479
 51
138.81190558623791
  0
LINE
  5
15EA2
  8
0
 10
402.00000133880729
 20
117.6535899401642
 30
0.0
 11
401.25000142821358
 21
117.6535899401642
 31
0.0
  0
LINE
  5
15EA5
  8
0
 10
388.00000090667339
 20
113.4999999892898
 30
0.0
 11
398.35000076660231
 21
113.4999999892898
 31
0.0
  0
LINE
  5
15EA6
  8
0
 10
401.00000117489429
 20
112.5
 30
0.0
 11
389.00000107058622
 21
112.5
 31
0.0
  0
LINE
  5
15EA8
  8
0
 10
401.80000121289231
 20
118.0000000284053
 30
0.0
 11
401.25000142821358
 21
118.0000000284053
 31
0.0
  0
ARC
  5
15EAA
  8
0
 10
381.52625310078338
 20
119.6062488831018
 30
0.0
 40
6.747329432907696
 50
351.53062307772518
 51
8.4693717244764084
  0
LINE
  5
15EB1
  8
0
 10
400.80075309195848
 20
151.96881095180279
 30
0.0
 11
383.7448625690613
 21
151.96881095180279
 31
0.0
  0
ARC
  5
15EB6
  8
0
 10
378.32943138943938
 20
158.7672290849568
 30
0.0
 40
8.6936428900718461
 50
297.67599502536882
 51
308.52819414889967
  0
LINE
  5
15EC0
  8
0
 10
382.82899063595869
 20
134.72783217439431
 30
0.0
 11
407.17101160952188
 21
134.72783217439431
 31
0.0
  0
LINE
  5
15EC4
  8
0
 10
385.50000142821409
 20
135.9800829202868
 30
0.0
 11
404.50000112274
 21
135.9800829202868
 31
0.0
  0
LINE
  5
15EC5
  8
0
 10
401.80000121289231
 20
120.60000026831401
 30
0.0
 11
401.25000142821381
 21
120.60000026831401
 31
0.0
  0
CIRCLE
  5
15ED5
  8
0
 10
395.00000112274029
 20
214.799999875308
 30
0.0
 40
3.0000000000000631
  0
LINE
  5
15ED6
  8
0
 10
396.15470164970787
 20
214.79999987530789
 30
0.0
 11
395.57735138622411
 21
215.79999992280551
 31
0.0
  0
LINE
  5
15ED7
  8
0
 10
395.57735138622411
 20
215.79999992280551
 30
0.0
 11
394.42265085925641
 21
215.79999992280551
 31
0.0
  0
LINE
  5
15ED8
  8
0
 10
394.42265085925641
 20
215.79999992280551
 30
0.0
 11
393.84530059577258
 21
214.799999875308
 31
0.0
  0
LINE
  5
15ED9
  8
0
 10
393.84530059577258
 20
214.799999875308
 30
0.0
 11
394.42265085925641
 21
213.79999982781061
 31
0.0
  0
LINE
  5
15EDA
  8
0
 10
394.42265085925641
 20
213.79999982781061
 30
0.0
 11
395.57735138622411
 21
213.79999982781061
 31
0.0
  0
LINE
  5
15EDB
  8
0
 10
395.57735138622411
 20
213.79999982781061
 30
0.0
 11
396.15470164970787
 21
214.79999987530789
 31
0.0
  0
CIRCLE
  5
15EF5
  8
0
 10
395.00000112274029
 20
214.799999875308
 30
0.0
 40
9.4118365096457914
  0
CIRCLE
  5
15EF6
  8
0
 10
395.00000112274029
 20
214.799999875308
 30
0.0
 40
3.499999999999956
  0
ARC
  5
15F00
  8
0
 10
378.00271250064179
 20
215.10361064106169
 30
0.0
 40
5.0275752952631869
 50
358.97667409549121
 51
39.999999999999901
  0
ARC
  5
15F03
  8
0
 10
411.99728974483878
 20
214.49638910955429
 30
0.0
 40
5.0275752952631869
 50
178.9766740954895
 51
219.99999999999989
  0
ARC
  5
15F06
  8
0
 10
386.23842217568631
 20
229.36827823462491
 30
0.0
 40
5.0275752952632029
 50
259.99999999999511
 51
301.02332590451141
  0
ARC
  5
15F09
  8
0
 10
403.76158006979421
 20
200.23172151599121
 30
0.0
 40
5.0275752952632082
 50
79.999999999995083
 51
121.0233259045114
  0
ARC
  5
15F0B
  8
0
 10
395.00000112274029
 20
214.799999875308
 30
0.0
 40
11.97242470473679
 50
358.97667409549121
 51
121.0233259045114
  0
ARC
  5
15F0C
  8
0
 10
395.00000112274029
 20
214.799999875308
 30
0.0
 40
11.97242470473682
 50
178.9766740954895
 51
301.02332590451141
  0
LINE
  5
15F17
  8
0
 10
385.36539288758007
 20
224.41708310499709
 30
0.0
 11
381.5768889016781
 21
225.0850989122996
 31
0.0
  0
LINE
  5
15F19
  8
0
 10
379.38128848144152
 20
221.2822066259692
 30
0.0
 11
381.85405861794038
 21
218.33527374762301
 31
0.0
  0
LINE
  5
15F1C
  8
0
 10
410.618713764039
 20
208.3177931246469
 30
0.0
 11
408.14594362754019
 21
211.264726002993
 31
0.0
  0
LINE
  5
15F20
  8
0
 10
404.63460935790039
 20
205.18291664561889
 30
0.0
 11
408.42311334380253
 21
204.51490083831641
 31
0.0
  0
ARC
  5
15F2B
  8
0
 10
380.14789528676471
 20
221.92431652639809
 30
0.0
 40
0.9999955590884802
 50
154.4272326324184
 51
219.9495431081879
  0
ARC
  5
15F2E
  8
0
 10
381.4041119687563
 20
224.10013652241281
 30
0.0
 40
1.0000013890196591
 50
80.050698736445611
 51
145.57258086109599
  0
ARC
  5
15F2F
  8
0
 10
409.85210695871541
 20
207.67568322421801
 30
0.0
 40
0.9999955590889149
 50
334.42723263242908
 51
39.949543108152028
  0
ARC
  5
15F32
  8
0
 10
408.59589027672399
 20
205.4998632282026
 30
0.0
 40
1.0000013890192281
 50
260.05069873645863
 51
325.57258086113143
  0
ARC
  5
15F33
  8
0
 10
395.00000112274029
 20
214.799999875308
 30
0.0
 40
17.472424704736842
 50
145.62322310232861
 51
154.37677689766679
  0
ARC
  5
15F34
  8
0
 10
395.00000112274029
 20
214.799999875308
 30
0.0
 40
17.472424704736792
 50
325.62322310232861
 51
334.3767768976669
  0
ARC
  5
15F3D
  8
0
 10
395.00000112274029
 20
214.799999875308
 30
0.0
 40
12.500000000000011
 50
350.15592328671482
 51
129.84407671328631
  0
ARC
  5
15F3E
  8
0
 10
395.00000112274029
 20
214.799999875308
 30
0.0
 40
12.500000000000069
 50
170.15592328671471
 51
309.84407671328631
  0
LINE
  5
15F53
  8
0
 10
330.60000089928531
 20
115.50000008428469
 30
0.0
 11
330.60000089928531
 21
113.4999999892898
 31
0.0
  0
LINE
  5
15F54
  8
0
 10
334.4000009633603
 20
113.4999999892898
 30
0.0
 11
334.4000009633603
 21
115.50000008428469
 31
0.0
  0
LINE
  5
15F55
  8
0
 10
333.50000097882031
 20
115.50000008428469
 30
0.0
 11
333.50000097882031
 21
120.9999995888211
 31
0.0
  0
LINE
  5
15F56
  8
0
 10
331.50000088382541
 20
120.9999995888211
 30
0.0
 11
331.50000088382541
 21
115.50000008428469
 31
0.0
  0
LINE
  5
15F57
  8
0
 10
343.09853006154322
 20
152.85616765031591
 30
0.0
 11
342.08284735679649
 21
153.22584683308369
 31
0.0
  0
LINE
  5
15F58
  8
0
 10
322.91715450584911
 20
153.22584683308369
 30
0.0
 11
321.90147221509392
 21
152.85616822205731
 31
0.0
  0
ARC
  5
15F59
  8
0
 10
343.97311022947679
 20
138.25600021206691
 30
0.0
 40
0.5000006259881147
 50
270.0000741980445
 51
2.9999691811015818
  0
LINE
  5
15F5A
  8
0
 10
344.47242563605982
 20
138.28216795437271
 30
0.0
 11
343.75513948500179
 21
151.96881095180279
 31
0.0
  0
POLYLINE
  5
15F5B
  8
0
 66
     1
 10
0.0
 20
0.0
 30
0.0
 70
   128
  0
VERTEX
  5
17C08
  8
0
 10
322.83229722141499
 20
149.2722588283047
 30
0.0
  0
VERTEX
  5
17C09
  8
0
 10
322.60860268026607
 20
145.3899035812355
 30
0.0
  0
VERTEX
  5
17C0A
  8
0
 10
322.2000276957674
 20
138.28742407357359
 30
0.0
  0
SEQEND
  5
17C0B
  8
0
  0
ARC
  5
15F5C
  8
0
 10
322.6990392448397
 20
138.2559999762513
 30
0.0
 40
0.5000000000000137
 50
176.39668891963791
 51
270.005759546006
  0
ARC
  5
15F5D
  8
0
 10
326.015831790329
 20
149.25704954279769
 30
0.0
 40
3.1835708997658472
 50
155.05174299370171
 51
179.7262724119179
  0
ARC
  5
15F5E
  8
0
 10
342.75650989670697
 20
151.91647497957041
 30
0.0
 40
1.0000000543036389
 50
3.0000007543298839
 51
69.999999820885463
  0
ARC
  5
15F5F
  8
0
 10
341.91183608528792
 20
152.75598469258401
 30
0.0
 40
0.5000152858243159
 50
70.000491207960565
 51
89.907924469147929
  0
ARC
  5
15F60
  8
0
 10
323.08816024446043
 20
152.75600536567279
 30
0.0
 40
0.4999939671005209
 50
89.999574569162135
 51
109.9997232191714
  0
POLYLINE
  5
15F61
  8
0
 66
     1
 10
0.0
 20
0.0
 30
0.0
 70
   128
  0
VERTEX
  5
17C0C
  8
0
 10
323.66684589535021
 20
151.52775893220669
 30
0.0
  0
VERTEX
  5
17C0D
  8
0
 10
323.54368314147018
 20
151.3216423452831
 30
0.0
  0
VERTEX
  5
17C0E
  8
0
 10
323.12932282686262
 20
150.59987852582699
 30
0.0
  0
SEQEND
  5
17C0F
  8
0
  0
LINE
  5
15F63
  8
0
 10
321.24486237764381
 20
151.96881095180279
 30
0.0
 11
320.52757622658601
 21
138.28216795437271
 31
0.0
  0
ARC
  5
15F64
  8
0
 10
321.02689163316859
 20
138.25600021206651
 30
0.0
 40
0.500000625987738
 50
177.00003081885441
 51
269.99992675254992
  0
ARC
  5
15F65
  8
0
 10
322.24349313649958
 20
151.91647455929549
 30
0.0
 40
1.000001245256134
 50
110.0000214732511
 51
176.9999787088002
  0
LINE
  5
15F66
  8
0
 10
336.50000112131261
 20
106.8289599032141
 30
0.0
 11
336.50000112131261
 21
112.5
 31
0.0
  0
LINE
  5
15F67
  8
0
 10
336.50000112131261
 20
102.9560000286437
 30
0.0
 11
336.50000112131278
 21
103.2894628704525
 31
0.0
  0
LINE
  5
15F68
  8
0
 10
328.500000741333
 20
103.22174920002
 30
0.0
 11
328.500000741333
 21
102.9560000286437
 31
0.0
  0
LINE
  5
15F69
  8
0
 10
328.500000741333
 20
112.5
 30
0.0
 11
328.500000741333
 21
106.872566754464
 31
0.0
  0
LINE
  5
15F6A
  8
0
 10
328.500000741333
 20
102.9560000286437
 30
0.0
 11
328.84723041979061
 21
101.6601218834038
 31
0.0
  0
ARC
  5
15F6B
  8
0
 10
329.7648599547652
 20
101.90599997625119
 30
0.0
 40
0.9500000000000028
 50
195.00000000000111
 51
270.0
  0
LINE
  5
15F6C
  8
0
 10
329.5758901908996
 20
104.4799161725677
 30
0.0
 11
328.64239274524181
 21
103.5076885134913
 31
0.0
  0
LINE
  5
15F6D
  8
0
 10
328.55437181890028
 20
106.6529590287246
 30
0.0
 11
329.45575633086293
 21
105.73928036028521
 31
0.0
  0
ARC
  5
15F6E
  8
0
 10
328.87005784108311
 20
105.0479971082267
 30
0.0
 40
0.9060437381864067
 50
321.17155586830143
 51
49.726638929746983
  0
ARC
  5
15F70
  8
0
 10
335.23514132270481
 20
101.9060003672531
 30
0.0
 40
0.9500006664351541
 50
270.00003529271299
 51
344.99998635612332
  0
ARC
  5
15F71
  8
0
 10
336.01228671619918
 20
105.0162104087193
 30
0.0
 40
0.7959656969034309
 50
144.16337076552381
 51
222.35835842504031
  0
LINE
  5
15F72
  8
0
 10
336.38197368010901
 20
103.4820762113668
 30
0.0
 11
335.424111671746
 21
104.4799161725677
 31
0.0
  0
LINE
  5
15F73
  8
0
 10
336.15277144285511
 20
101.6601218834038
 30
0.0
 11
336.50000112131261
 21
102.9560000286437
 31
0.0
  0
LINE
  5
15F76
  8
0
 10
345.00000111758732
 20
121.4999996707774
 30
0.0
 11
345.00000111758732
 21
134.25798552343619
 31
0.0
  0
LINE
  5
15F77
  8
0
 10
320.00000074505829
 20
134.25798552343619
 30
0.0
 11
320.00000074505829
 21
121.4999996707774
 31
0.0
  0
ARC
  5
15F78
  8
0
 10
320.5000009313228
 20
134.2579855043478
 30
0.0
 40
0.5
 50
110.00000000000379
 51
180.0
  0
ARC
  5
15F79
  8
0
 10
344.5000009313228
 20
134.2579855043478
 30
0.0
 40
0.5
 50
0.0
 51
69.999999999996604
  0
LINE
  5
15F7A
  8
0
 10
320.00000074505829
 20
121.4999996707774
 30
0.0
 11
320.50000082701467
 21
120.9999995888211
 31
0.0
  0
LINE
  5
15F7B
  8
0
 10
344.50000103563087
 20
120.9999995888211
 30
0.0
 11
345.00000111758732
 21
121.4999996707774
 31
0.0
  0
LINE
  5
15F7C
  8
0
 10
344.6710114181044
 20
134.72783217439431
 30
0.0
 11
342.26319331675791
 21
135.60420671710739
 31
0.0
  0
LINE
  5
15F7D
  8
0
 10
322.7368085458877
 20
135.60420671710739
 30
0.0
 11
320.3289904445412
 21
134.72783217439431
 31
0.0
  0
ARC
  5
15F7E
  8
0
 10
342.40000093132272
 20
135.9800829915352
 30
0.0
 40
0.4000000000000111
 50
180.0
 51
249.99999999999659
  0
ARC
  5
15F7F
  8
0
 10
322.60000093132288
 20
135.9800829915352
 30
0.0
 40
0.4000000000000111
 50
290.00000000000392
 51
0.0
  0
LINE
  5
15F80
  8
0
 10
342.000000625849
 20
135.9800829202868
 30
0.0
 11
342.000000625849
 21
137.75599958607921
 31
0.0
  0
LINE
  5
15F81
  8
0
 10
323.00000123679661
 20
137.75599958607921
 30
0.0
 11
323.00000123679661
 21
135.9800829202868
 31
0.0
  0
ARC
  5
15F82
  8
0
 10
339.7000009313229
 20
120.5999999762512
 30
0.0
 40
0.4000000000000057
 50
90.0
 51
180.0
  0
ARC
  5
15F83
  8
0
 10
325.30000093132281
 20
120.5999999762512
 30
0.0
 40
0.3999999999999915
 50
0.0
 51
90.0
  0
LINE
  5
15F84
  8
0
 10
339.50000114738958
 20
117.6535899401642
 30
0.0
 11
339.30000102147483
 21
118.0000000284053
 31
0.0
  0
LINE
  5
15F85
  8
0
 10
325.70000084117078
 20
118.0000000284053
 30
0.0
 11
325.50000071525602
 21
117.6535899401642
 31
0.0
  0
LINE
  5
15F86
  8
0
 10
325.50000071525602
 20
113.4999999892898
 30
0.0
 11
326.50000087916868
 21
112.5
 31
0.0
  0
LINE
  5
15F87
  8
0
 10
338.50000098347692
 20
112.5
 30
0.0
 11
339.50000114738958
 21
113.4999999892898
 31
0.0
  0
LINE
  5
15F88
  8
0
 10
339.50000114738958
 20
113.4999999892898
 30
0.0
 11
339.50000114738958
 21
117.6535899401642
 31
0.0
  0
LINE
  5
15F89
  8
0
 10
325.50000071525602
 20
117.6535899401642
 30
0.0
 11
325.50000071525602
 21
113.4999999892898
 31
0.0
  0
LINE
  5
15F8A
  8
0
 10
339.30000102147483
 20
118.0000000284053
 30
0.0
 11
339.30000102147483
 21
120.60000026831401
 31
0.0
  0
LINE
  5
15F8B
  8
0
 10
325.70000084117078
 20
120.60000026831401
 30
0.0
 11
325.70000084117078
 21
118.0000000284053
 31
0.0
  0
LINE
  5
15F8E
  8
0
 10
330.60000089928531
 20
115.50000008428469
 30
0.0
 11
334.4000009633603
 21
115.50000008428469
 31
0.0
  0
LINE
  5
15F8F
  8
0
 10
330.60000089928531
 20
113.4999999892898
 30
0.0
 11
334.4000009633603
 21
113.4999999892898
 31
0.0
  0
POLYLINE
  5
15F96
  8
0
 66
     1
 10
0.0
 20
0.0
 30
0.0
 70
   128
  0
VERTEX
  5
17C10
  8
0
 10
328.96472698077582
 20
138.2821670384146
 30
0.0
  0
VERTEX
  5
17C11
  8
0
 10
328.96153277717548
 20
138.18101609358561
 30
0.0
  0
VERTEX
  5
17C12
  8
0
 10
328.94530261866771
 20
138.08294223854321
 30
0.0
  0
VERTEX
  5
17C13
  8
0
 10
328.91670193523191
 20
137.99196692416439
 30
0.0
  0
VERTEX
  5
17C14
  8
0
 10
328.8769044261428
 20
137.91182289132851
 30
0.0
  0
VERTEX
  5
17C15
  8
0
 10
328.82754293270432
 20
137.84579957136879
 30
0.0
  0
VERTEX
  5
17C16
  8
0
 10
328.77064191736298
 20
137.7966052503325
 30
0.0
  0
VERTEX
  5
17C17
  8
0
 10
328.70853620581352
 20
137.76625717291611
 30
0.0
  0
VERTEX
  5
17C18
  8
0
 10
328.64377366378932
 20
137.75599958607921
 30
0.0
  0
SEQEND
  5
17C19
  8
0
  0
POLYLINE
  5
15F97
  8
0
 66
     1
 10
0.0
 20
0.0
 30
0.0
 70
   128
  0
VERTEX
  5
17C1A
  8
0
 10
326.01779418066172
 20
138.2821670384146
 30
0.0
  0
VERTEX
  5
17C1B
  8
0
 10
326.01460020989202
 20
138.18101609358561
 30
0.0
  0
VERTEX
  5
17C1C
  8
0
 10
325.9983700513842
 20
138.08294223854321
 30
0.0
  0
VERTEX
  5
17C1D
  8
0
 10
325.9697696007791
 20
137.99196692416439
 30
0.0
  0
VERTEX
  5
17C1E
  8
0
 10
325.92997185885929
 20
137.91182289132851
 30
0.0
  0
VERTEX
  5
17C1F
  8
0
 10
325.88061036542081
 20
137.84579957136879
 30
0.0
  0
VERTEX
  5
17C20
  8
0
 10
325.82370935007953
 20
137.7966052503325
 30
0.0
  0
VERTEX
  5
17C21
  8
0
 10
325.76160363853
 20
137.76625717291611
 30
0.0
  0
VERTEX
  5
17C22
  8
0
 10
325.69684086367511
 20
137.75599958607921
 30
0.0
  0
SEQEND
  5
17C23
  8
0
  0
ARC
  5
15F99
  8
0
 10
326.86611950631141
 20
149.32589127326409
 30
0.0
 40
0.9322886421829199
 50
117.2882178290857
 51
183.61737428231831
  0
LINE
  5
15F9A
  8
0
 10
328.5340019315484
 20
151.0682406486012
 30
0.0
 11
326.43869610503339
 21
150.1544269383885
 31
0.0
  0
LINE
  5
15F9B
  8
0
 10
328.96472698077582
 20
138.2821670384146
 30
0.0
 11
328.5340019315484
 21
151.0682406486012
 31
0.0
  0
LINE
  5
15F9C
  8
0
 10
325.93568831682228
 20
149.26707023987541
 30
0.0
 11
326.01779418066172
 21
138.2821670384146
 31
0.0
  0
ARC
  5
15FA0
  8
0
 10
325.38840778172039
 20
135.06737804064011
 30
0.0
 40
14.21023485158236
 50
87.792814678189004
 51
92.207185321810982
  0
LINE
  5
15FA5
  8
0
 10
324.8411272466185
 20
149.26707023987541
 30
0.0
 11
323.28601598739652
 21
149.26707023987541
 31
0.0
  0
ARC
  5
15FAA
  8
0
 10
339.78491159429058
 20
138.1460962557482
 30
0.0
 40
7.499966117241315
 50
178.9604340591182
 51
182.9814778628176
  0
LINE
  5
15FAB
  8
0
 10
343.97311087697773
 20
137.75599958607921
 30
0.0
 11
321.02689099396321
 21
137.75599958607921
 31
0.0
  0
LINE
  5
15FAC
  8
0
 10
332.29899027675879
 20
151.96881095180279
 30
0.0
 11
332.28617993474501
 21
138.2821670384146
 31
0.0
  0
ARC
  5
15FB1
  8
0
 10
332.33952903481668
 20
143.47895737821131
 30
0.0
 40
8.4899503586258227
 50
90.273583292200655
 51
116.6307578804859
  0
LINE
  5
15FB4
  8
0
 10
323.08816395700001
 20
153.2559993327595
 30
0.0
 11
341.91263962009361
 21
153.2559993327595
 31
0.0
  0
POLYLINE
  5
15FB7
  8
0
 66
     1
 10
0.0
 20
0.0
 30
0.0
 70
   128
  0
VERTEX
  5
17C24
  8
0
 10
336.22302718460583
 20
106.42732052365319
 30
0.0
  0
VERTEX
  5
17C25
  8
0
 10
336.44497159868502
 20
106.6518824198283
 30
0.0
  0
VERTEX
  5
17C26
  8
0
 10
336.50000112131261
 20
106.8289599032141
 30
0.0
  0
SEQEND
  5
17C27
  8
0
  0
LINE
  5
15FB8
  8
0
 10
336.22302718460583
 20
106.42732052365319
 30
0.0
 11
335.96410251222568
 21
106.42732052365319
 31
0.0
  0
POLYLINE
  5
15FB9
  8
0
 66
     1
 10
0.0
 20
0.0
 30
0.0
 70
   128
  0
VERTEX
  5
17C28
  8
0
 10
334.97376016341173
 20
104.6559999347664
 30
0.0
  0
VERTEX
  5
17C29
  8
0
 10
334.97876252979057
 20
104.8127098591067
 30
0.0
  0
VERTEX
  5
17C2A
  8
0
 10
335.10264915414177
 20
105.44162314618001
 30
0.0
  0
VERTEX
  5
17C2B
  8
0
 10
335.36721647717081
 20
105.980788602028
 30
0.0
  0
VERTEX
  5
17C2C
  8
0
 10
335.62995328567951
 20
106.2786507070996
 30
0.0
  0
VERTEX
  5
17C2D
  8
0
 10
335.86283538490562
 20
106.411872676108
 30
0.0
  0
VERTEX
  5
17C2E
  8
0
 10
335.96410251222568
 20
106.42732052365319
 30
0.0
  0
SEQEND
  5
17C2F
  8
0
  0
LINE
  5
15FBA
  8
0
 10
334.97376016341173
 20
104.6559999347664
 30
0.0
 11
334.97376016341173
 21
102.9560000286437
 31
0.0
  0
LINE
  5
15FBB
  8
0
 10
328.500000741333
 20
102.9560000286437
 30
0.0
 11
334.97376016341173
 21
102.9560000286437
 31
0.0
  0
POLYLINE
  5
15FBC
  8
0
 66
     1
 10
0.0
 20
0.0
 30
0.0
 70
   128
  0
VERTEX
  5
17C30
  8
0
 10
331.26573379151552
 20
104.5682539814152
 30
0.0
  0
VERTEX
  5
17C31
  8
0
 10
330.32662373036169
 20
104.290180618409
 30
0.0
  0
VERTEX
  5
17C32
  8
0
 10
329.53083722852188
 20
104.00779756018891
 30
0.0
  0
VERTEX
  5
17C33
  8
0
 10
328.93997731618612
 20
103.7292538792826
 30
0.0
  0
VERTEX
  5
17C34
  8
0
 10
328.64239274524181
 20
103.5076885134913
 30
0.0
  0
VERTEX
  5
17C35
  8
0
 10
328.50789742544322
 20
103.2894628704525
 30
0.0
  0
VERTEX
  5
17C36
  8
0
 10
328.500000741333
 20
103.22174920002
 30
0.0
  0
SEQEND
  5
17C37
  8
0
  0
LINE
  5
15FBD
  8
0
 10
331.67542526964121
 20
104.5682539814152
 30
0.0
 11
331.26573379151552
 21
104.5682539814152
 31
0.0
  0
POLYLINE
  5
15FBE
  8
0
 66
     1
 10
0.0
 20
0.0
 30
0.0
 70
   128
  0
VERTEX
  5
17C38
  8
0
 10
331.92631128942622
 20
104.4998357654549
 30
0.0
  0
VERTEX
  5
17C39
  8
0
 10
331.78535078652232
 20
104.5382421114482
 30
0.0
  0
VERTEX
  5
17C3A
  8
0
 10
331.67542526964121
 20
104.5682539814152
 30
0.0
  0
SEQEND
  5
17C3B
  8
0
  0
POLYLINE
  5
15FBF
  8
0
 66
     1
 10
0.0
 20
0.0
 30
0.0
 70
   128
  0
VERTEX
  5
17C3C
  8
0
 10
332.95190236414811
 20
107.8391547896899
 30
0.0
  0
VERTEX
  5
17C3D
  8
0
 10
333.2849298417571
 20
107.65391798922791
 30
0.0
  0
VERTEX
  5
17C3E
  8
0
 10
333.60791844781511
 20
107.3292789631523
 30
0.0
  0
VERTEX
  5
17C3F
  8
0
 10
333.86685813777171
 20
106.8474918254651
 30
0.0
  0
VERTEX
  5
17C40
  8
0
 10
333.987498986535
 20
106.2309618690051
 30
0.0
  0
VERTEX
  5
17C41
  8
0
 10
333.91191715374612
 20
105.5835539125837
 30
0.0
  0
VERTEX
  5
17C42
  8
0
 10
333.63528082147258
 20
104.9974828609265
 30
0.0
  0
VERTEX
  5
17C43
  8
0
 10
333.1750797620046
 20
104.55845413962381
 30
0.0
  0
VERTEX
  5
17C44
  8
0
 10
332.96658361679903
 20
104.4528822065331
 30
0.0
  0
VERTEX
  5
17C45
  8
0
 10
332.57157275831582
 20
104.3632978224195
 30
0.0
  0
VERTEX
  5
17C46
  8
0
 10
332.16751696774759
 20
104.40632632235059
 30
0.0
  0
VERTEX
  5
17C47
  8
0
 10
331.92631128942622
 20
104.4998357654549
 30
0.0
  0
SEQEND
  5
17C48
  8
0
  0
LINE
  5
15FC0
  8
0
 10
332.6928225829036
 20
107.9091520630754
 30
0.0
 11
332.95190236414811
 21
107.8391547896899
 31
0.0
  0
POLYLINE
  5
15FC1
  8
0
 66
     1
 10
0.0
 20
0.0
 30
0.0
 70
   128
  0
VERTEX
  5
17C49
  8
0
 10
332.25481501314812
 20
108.02581046009431
 30
0.0
  0
VERTEX
  5
17C4A
  8
0
 10
332.4995766762313
 20
107.96088051283731
 30
0.0
  0
VERTEX
  5
17C4B
  8
0
 10
332.6928225829036
 20
107.9091520630754
 30
0.0
  0
SEQEND
  5
17C4C
  8
0
  0
POLYLINE
  5
15FC2
  8
0
 66
     1
 10
0.0
 20
0.0
 30
0.0
 70
   128
  0
VERTEX
  5
17C4D
  8
0
 10
331.80540821515052
 20
108.1108946935273
 30
0.0
  0
VERTEX
  5
17C4E
  8
0
 10
331.91738508641743
 20
108.1056480878032
 30
0.0
  0
VERTEX
  5
17C4F
  8
0
 10
332.25481501314812
 20
108.02581046009431
 30
0.0
  0
SEQEND
  5
17C50
  8
0
  0
LINE
  5
15FC3
  8
0
 10
331.80540821515052
 20
108.1108946935273
 30
0.0
 11
331.13192031625681
 21
108.1108946935273
 31
0.0
  0
LINE
  5
15FC4
  8
0
 10
331.13192031625681
 20
108.1108946935273
 30
0.0
 11
331.13192031625681
 21
108.10273910174141
 31
0.0
  0
POLYLINE
  5
15FC5
  8
0
 66
     1
 10
0.0
 20
0.0
 30
0.0
 70
   128
  0
VERTEX
  5
17C51
  8
0
 10
331.13192031625681
 20
108.10273910174141
 30
0.0
  0
VERTEX
  5
17C52
  8
0
 10
330.94952765852241
 20
108.0868828692473
 30
0.0
  0
VERTEX
  5
17C53
  8
0
 10
330.7179915532472
 20
108.017979899887
 30
0.0
  0
SEQEND
  5
17C54
  8
0
  0
POLYLINE
  5
15FC6
  8
0
 66
     1
 10
0.0
 20
0.0
 30
0.0
 70
   128
  0
VERTEX
  5
17C55
  8
0
 10
328.55437181890028
 20
106.6529590287246
 30
0.0
  0
VERTEX
  5
17C56
  8
0
 10
328.500000741333
 20
106.872566754464
 30
0.0
  0
VERTEX
  5
17C57
  8
0
 10
328.62342612817912
 20
107.0965679944493
 30
0.0
  0
VERTEX
  5
17C58
  8
0
 10
328.90939058735989
 20
107.31811985606321
 30
0.0
  0
VERTEX
  5
17C59
  8
0
 10
329.3749247491362
 20
107.5519148842431
 30
0.0
  0
VERTEX
  5
17C5A
  8
0
 10
329.98700717464112
 20
107.7846770756878
 30
0.0
  0
VERTEX
  5
17C5B
  8
0
 10
330.7179915532472
 20
108.017979899887
 30
0.0
  0
SEQEND
  5
17C5C
  8
0
  0
POLYLINE
  5
15FC9
  8
0
 66
     1
 10
0.0
 20
0.0
 30
0.0
 70
   128
  0
VERTEX
  5
17C5D
  8
0
 10
336.38197368010901
 20
103.4820762113668
 30
0.0
  0
VERTEX
  5
17C5E
  8
0
 10
336.50000112131278
 20
103.2894628704525
 30
0.0
  0
SEQEND
  5
17C5F
  8
0
  0
LINE
  5
15FCA
  8
0
 10
335.16561261378251
 20
108.25599987292659
 30
0.0
 11
335.16561261378251
 21
112.5
 31
0.0
  0
POLYLINE
  5
15FCB
  8
0
 66
     1
 10
0.0
 20
0.0
 30
0.0
 70
   128
  0
VERTEX
  5
17C60
  8
0
 10
336.41561258584278
 20
108.25599987292659
 30
0.0
  0
VERTEX
  5
17C61
  8
0
 10
336.40076334588252
 20
107.85385199123991
 30
0.0
  0
VERTEX
  5
17C62
  8
0
 10
336.3522749673578
 20
107.4972867616452
 30
0.0
  0
VERTEX
  5
17C63
  8
0
 10
336.25718087889283
 20
107.2137078852392
 30
0.0
  0
VERTEX
  5
17C64
  8
0
 10
336.10391661524801
 20
107.0422900491394
 30
0.0
  0
VERTEX
  5
17C65
  8
0
 10
335.90460985898989
 20
107.01140040764579
 30
0.0
  0
VERTEX
  5
17C66
  8
0
 10
335.68441144190751
 20
107.11216997588051
 30
0.0
  0
VERTEX
  5
17C67
  8
0
 10
335.4655497055503
 20
107.3320445255376
 30
0.0
  0
VERTEX
  5
17C68
  8
0
 10
335.28053618967562
 20
107.6622957014478
 30
0.0
  0
VERTEX
  5
17C69
  8
0
 10
335.17689162865298
 20
108.0667877220548
 30
0.0
  0
VERTEX
  5
17C6A
  8
0
 10
335.16561261378251
 20
108.25599987292659
 30
0.0
  0
SEQEND
  5
17C6B
  8
0
  0
LINE
  5
15FCC
  8
0
 10
336.41561258584278
 20
112.5
 30
0.0
 11
336.41561258584278
 21
108.25599987292659
 31
0.0
  0
LINE
  5
15FCD
  8
0
 10
334.8751126136633
 20
101.6601214767433
 30
0.0
 11
334.97376016341173
 21
102.9560000286437
 31
0.0
  0
ARC
  5
15FD2
  8
0
 10
333.36593419784731
 20
101.6968334271313
 30
0.0
 40
1.5096248732935029
 50
335.5955899154003
 51
358.60650997857869
  0
POLYLINE
  5
15FD3
  8
0
 66
     1
 10
0.0
 20
0.0
 30
0.0
 70
   128
  0
VERTEX
  5
17C6C
  8
0
 10
334.74067689850949
 20
101.0730948881246
 30
0.0
  0
VERTEX
  5
17C6D
  8
0
 10
334.69997577369242
 20
100.983612483833
 30
0.0
  0
VERTEX
  5
17C6E
  8
0
 10
334.73281560465722
 20
100.9579657227732
 30
0.0
  0
VERTEX
  5
17C6F
  8
0
 10
334.80365921743243
 20
100.9559997008182
 30
0.0
  0
SEQEND
  5
17C70
  8
0
  0
LINE
  5
15FD4
  8
0
 10
335.23514190788052
 20
100.9559997008182
 30
0.0
 11
329.76485996507131
 21
100.9559997008182
 31
0.0
  0
POLYLINE
  5
15FFD
  8
0
 66
     1
 10
0.0
 20
0.0
 30
0.0
 70
   128
  0
VERTEX
  5
17C71
  8
0
 10
336.22302718460583
 20
106.42732052365319
 30
0.0
  0
VERTEX
  5
17C72
  8
0
 10
335.79294754192262
 20
105.97195733571419
 30
0.0
  0
VERTEX
  5
17C73
  8
0
 10
335.36700553260772
 20
105.4822292760946
 30
0.0
  0
SEQEND
  5
17C74
  8
0
  0
LINE
  5
16007
  8
0
 10
320.00000074505829
 20
121.4999996707774
 30
0.0
 11
345.00000111758732
 21
121.4999996707774
 31
0.0
  0
ARC
  5
16008
  8
0
 10
325.86250898627139
 20
131.95598871189421
 30
0.0
 40
2.1406913985064091
 50
146.35940412351729
 51
184.06994408417091
  0
ARC
  5
16009
  8
0
 10
325.86088773108668
 20
131.65169142257821
 30
0.0
 40
2.1391047886478618
 50
175.91549711398829
 51
213.65511531127169
  0
POLYLINE
  5
1600A
  8
0
 66
     1
 10
0.0
 20
0.0
 30
0.0
 70
   128
  0
VERTEX
  5
17C75
  8
0
 10
324.87231770530371
 20
130.0405396730639
 30
0.0
  0
VERTEX
  5
17C76
  8
0
 10
324.43574301898502
 20
130.14659496257079
 30
0.0
  0
VERTEX
  5
17C77
  8
0
 10
324.08032145351189
 20
130.4662155569531
 30
0.0
  0
SEQEND
  5
17C78
  8
0
  0
POLYLINE
  5
1600B
  8
0
 66
     1
 10
0.0
 20
0.0
 30
0.0
 70
   128
  0
VERTEX
  5
17C79
  8
0
 10
325.71645591408043
 20
130.4662155569531
 30
0.0
  0
VERTEX
  5
17C7A
  8
0
 10
325.32425083220028
 20
130.14659496257079
 30
0.0
  0
VERTEX
  5
17C7B
  8
0
 10
324.87231770530371
 20
130.0405396730639
 30
0.0
  0
SEQEND
  5
17C7C
  8
0
  0
ARC
  5
1600C
  8
0
 10
324.1742013500666
 20
131.67594063694511
 30
0.0
 40
1.9600979336204389
 50
321.88980894067828
 51
3.747588304842107
  0
ARC
  5
1600D
  8
0
 10
324.17270435230148
 20
131.93170451013199
 30
0.0
 40
1.9615614472848999
 50
356.26880977813693
 51
38.093838001810333
  0
POLYLINE
  5
1600E
  8
0
 66
     1
 10
0.0
 20
0.0
 30
0.0
 70
   128
  0
VERTEX
  5
17C7D
  8
0
 10
324.87231770530371
 20
133.5675681591965
 30
0.0
  0
VERTEX
  5
17C7E
  8
0
 10
325.32425083220028
 20
133.46151473233471
 30
0.0
  0
VERTEX
  5
17C7F
  8
0
 10
325.71645591408043
 20
133.1418922753073
 30
0.0
  0
SEQEND
  5
17C80
  8
0
  0
POLYLINE
  5
1600F
  8
0
 66
     1
 10
0.0
 20
0.0
 30
0.0
 70
   128
  0
VERTEX
  5
17C81
  8
0
 10
324.08032145351189
 20
133.1418922753073
 30
0.0
  0
VERTEX
  5
17C82
  8
0
 10
324.43574301898502
 20
133.46151473233471
 30
0.0
  0
VERTEX
  5
17C83
  8
0
 10
324.87231770530371
 20
133.5675681591965
 30
0.0
  0
SEQEND
  5
17C84
  8
0
  0
LINE
  5
16010
  8
0
 10
327.17105790972732
 20
133.52702768752351
 30
0.0
 11
326.70518567785638
 21
133.52702768752351
 31
0.0
  0
LINE
  5
16011
  8
0
 10
326.70518567785638
 20
130.06081084022301
 30
0.0
 11
326.70518567785638
 21
133.52702768752351
 31
0.0
  0
LINE
  5
16012
  8
0
 10
327.1344140917065
 20
130.06081084022301
 30
0.0
 11
326.70518567785638
 21
130.06081084022301
 31
0.0
  0
LINE
  5
16013
  8
0
 10
327.1344140917065
 20
132.7972973347641
 30
0.0
 11
327.1344140917065
 21
130.06081084022301
 31
0.0
  0
LINE
  5
16014
  8
0
 10
328.64002485759579
 20
130.06081084022301
 30
0.0
 11
327.1344140917065
 21
132.7972973347641
 31
0.0
  0
LINE
  5
16015
  8
0
 10
329.12505462765722
 20
130.06081084022301
 30
0.0
 11
328.64002485759579
 21
130.06081084022301
 31
0.0
  0
LINE
  5
16016
  8
0
 10
329.12505462765722
 20
133.52702768752351
 30
0.0
 11
329.12505462765722
 21
130.06081084022301
 31
0.0
  0
LINE
  5
16017
  8
0
 10
329.12505462765722
 20
133.52702768752351
 30
0.0
 11
328.66573983803409
 21
133.52702768752351
 31
0.0
  0
LINE
  5
16018
  8
0
 10
328.66573983803409
 20
130.79054119298229
 30
0.0
 11
328.66573983803409
 21
133.52702768752351
 31
0.0
  0
LINE
  5
16019
  8
0
 10
327.17105790972732
 20
133.52702768752351
 30
0.0
 11
328.66573983803409
 21
130.79054119298229
 31
0.0
  0
ARC
  5
1601A
  8
0
 10
348.73114151834761
 20
131.95546843837019
 30
0.0
 40
4.485243435921733
 50
164.66173589881731
 51
181.9345679782848
  0
ARC
  5
1601B
  8
0
 10
348.73493078856791
 20
131.65308486493649
 30
0.0
 40
4.4890156073186382
 50
178.07272351127281
 51
195.33095411969751
  0
POLYLINE
  5
1601C
  8
0
 66
     1
 10
0.0
 20
0.0
 30
0.0
 70
   128
  0
VERTEX
  5
17C85
  8
0
 10
344.67958703637152
 20
130.0405396730639
 30
0.0
  0
VERTEX
  5
17C86
  8
0
 10
344.54117387533211
 20
130.14659496257079
 30
0.0
  0
VERTEX
  5
17C87
  8
0
 10
344.40565805882238
 20
130.4662155569531
 30
0.0
  0
SEQEND
  5
17C88
  8
0
  0
POLYLINE
  5
1601D
  8
0
 66
     1
 10
0.0
 20
0.0
 30
0.0
 70
   128
  0
VERTEX
  5
17C89
  8
0
 10
344.87025856971758
 20
130.4662155569531
 30
0.0
  0
VERTEX
  5
17C8A
  8
0
 10
344.79347661137598
 20
130.14659496257079
 30
0.0
  0
VERTEX
  5
17C8B
  8
0
 10
344.67958703637152
 20
130.0405396730639
 30
0.0
  0
SEQEND
  5
17C8C
  8
0
  0
ARC
  5
1601E
  8
0
 10
335.2288994070625
 20
131.57268617132419
 30
0.0
 40
9.7046423800046391
 50
353.45320985065501
 51
1.366119870453457
  0
ARC
  5
1601F
  8
0
 10
335.23621000182311
 20
132.03575271997991
 30
0.0
 40
9.6973417246381697
 50
358.6309058705769
 51
6.5497716114388833
  0
POLYLINE
  5
16020
  8
0
 66
     1
 10
0.0
 20
0.0
 30
0.0
 70
   128
  0
VERTEX
  5
17C8D
  8
0
 10
344.67958703637152
 20
133.5675681591965
 30
0.0
  0
VERTEX
  5
17C8E
  8
0
 10
344.79347661137598
 20
133.46151473233471
 30
0.0
  0
VERTEX
  5
17C8F
  8
0
 10
344.87025856971758
 20
133.1418922753073
 30
0.0
  0
SEQEND
  5
17C90
  8
0
  0
POLYLINE
  5
16021
  8
0
 66
     1
 10
0.0
 20
0.0
 30
0.0
 70
   128
  0
VERTEX
  5
17C91
  8
0
 10
344.40565805882238
 20
133.1418922753073
 30
0.0
  0
VERTEX
  5
17C92
  8
0
 10
344.54117387533211
 20
133.46151473233471
 30
0.0
  0
VERTEX
  5
17C93
  8
0
 10
344.67958703637152
 20
133.5675681591965
 30
0.0
  0
SEQEND
  5
17C94
  8
0
  0
POLYLINE
  5
1602A
  8
0
 66
     1
 10
0.0
 20
0.0
 30
0.0
 70
   128
  0
VERTEX
  5
17C95
  8
0
 10
341.77251949906372
 20
133.50000070640809
 30
0.0
  0
VERTEX
  5
17C96
  8
0
 10
342.59208615869312
 20
132.7499991864897
 30
0.0
  0
VERTEX
  5
17C97
  8
0
 10
343.3027560636404
 20
131.99999952921641
 30
0.0
  0
SEQEND
  5
17C98
  8
0
  0
LINE
  5
1602B
  8
0
 10
341.77251949906372
 20
132.7499991864897
 30
0.0
 11
341.77251949906372
 21
133.50000070640809
 31
0.0
  0
LINE
  5
1602C
  8
0
 10
341.77251949906372
 20
132.7499991864897
 30
0.0
 11
335.12341112829768
 21
132.7499991864897
 31
0.0
  0
LINE
  5
1602D
  8
0
 10
335.12341112829768
 20
133.50000070640809
 30
0.0
 11
335.12341112829768
 21
132.7499991864897
 31
0.0
  0
POLYLINE
  5
1602E
  8
0
 66
     1
 10
0.0
 20
0.0
 30
0.0
 70
   128
  0
VERTEX
  5
17C99
  8
0
 10
332.54498552880273
 20
131.99999952921641
 30
0.0
  0
VERTEX
  5
17C9A
  8
0
 10
333.84143547620653
 20
132.7499991864897
 30
0.0
  0
VERTEX
  5
17C9B
  8
0
 10
335.12341112829768
 20
133.50000070640809
 30
0.0
  0
SEQEND
  5
17C9C
  8
0
  0
POLYLINE
  5
1602F
  8
0
 66
     1
 10
0.0
 20
0.0
 30
0.0
 70
   128
  0
VERTEX
  5
17C9D
  8
0
 10
335.12341112829768
 20
130.5000002146698
 30
0.0
  0
VERTEX
  5
17C9E
  8
0
 10
333.84143547620653
 20
131.24999987194309
 30
0.0
  0
VERTEX
  5
17C9F
  8
0
 10
332.54498552880273
 20
131.99999952921641
 30
0.0
  0
SEQEND
  5
17CA0
  8
0
  0
LINE
  5
16030
  8
0
 10
335.12341112829768
 20
131.24999987194309
 30
0.0
 11
335.12341112829768
 21
130.5000002146698
 31
0.0
  0
LINE
  5
16031
  8
0
 10
341.77251949906372
 20
131.24999987194309
 30
0.0
 11
335.12341112829768
 21
131.24999987194309
 31
0.0
  0
LINE
  5
16032
  8
0
 10
341.77251949906372
 20
130.5000002146698
 30
0.0
 11
341.77251949906372
 21
131.24999987194309
 31
0.0
  0
POLYLINE
  5
16033
  8
0
 66
     1
 10
0.0
 20
0.0
 30
0.0
 70
   128
  0
VERTEX
  5
17CA1
  8
0
 10
343.3027560636404
 20
131.99999952921641
 30
0.0
  0
VERTEX
  5
17CA2
  8
0
 10
342.59208615869312
 20
131.24999987194309
 30
0.0
  0
VERTEX
  5
17CA3
  8
0
 10
341.77251949906372
 20
130.5000002146698
 30
0.0
  0
SEQEND
  5
17CA4
  8
0
  0
LINE
  5
16034
  8
0
 10
344.50000103563087
 20
120.9999995888211
 30
0.0
 11
320.50000082701467
 21
120.9999995888211
 31
0.0
  0
ARC
  5
16044
  8
0
 10
324.85740693061848
 20
131.12613332936269
 30
0.0
 40
0.7007733510025135
 50
271.7182805985189
 51
325.55143608775029
  0
ARC
  5
16045
  8
0
 10
324.11270398924472
 20
131.65794108304681
 30
0.0
 40
1.6157991684730391
 50
324.93819555749928
 51
5.1882399571526951
  0
ARC
  5
16046
  8
0
 10
324.11270496659739
 20
131.95016726326759
 30
0.0
 40
1.6157980731742381
 50
354.81180453367489
 51
35.061809430963983
  0
ARC
  5
16047
  8
0
 10
324.86388470504062
 20
132.4938384020281
 30
0.0
 40
0.6887477323914966
 50
33.939517726725931
 51
88.790765586991299
  0
ARC
  5
1604C
  8
0
 10
324.88168790488561
 20
131.06332006714049
 30
0.0
 40
0.6377138257337625
 50
211.5406781757456
 51
269.15809852689063
  0
ARC
  5
1604D
  8
0
 10
325.79432216559388
 20
131.64734522957031
 30
0.0
 40
1.7211497161358911
 50
174.77601987104319
 51
212.21793389355449
  0
ARC
  5
1604E
  8
0
 10
325.79432101841462
 20
131.96076314973899
 30
0.0
 40
1.72114845393764
 50
147.78206115330789
 51
185.2239399926886
  0
ARC
  5
1604F
  8
0
 10
324.88674448438769
 20
132.53590485470451
 30
0.0
 40
0.6466888335555323
 50
91.278299684146845
 51
148.02292361321801
  0
LINE
  5
16053
  8
0
 10
324.87841973081248
 20
130.42567508528009
 30
0.0
 11
324.87231770530371
 21
130.42567508528009
 31
0.0
  0
LINE
  5
16054
  8
0
 10
324.87841973081248
 20
133.18243274698031
 30
0.0
 11
324.87231770530371
 21
133.18243274698031
 31
0.0
  0
LINE
  5
1605B
  8
0
 10
339.50000114738958
 20
117.6535899401642
 30
0.0
 11
333.50000097882031
 21
117.6535899401642
 31
0.0
  0
LINE
  5
1605C
  8
0
 10
331.50000088382541
 20
117.6535899401642
 30
0.0
 11
325.50000071525602
 21
117.6535899401642
 31
0.0
  0
LINE
  5
1605D
  8
0
 10
339.30000102147483
 20
118.0000000284053
 30
0.0
 11
333.50000097882031
 21
118.0000000284053
 31
0.0
  0
LINE
  5
1605E
  8
0
 10
331.50000088382541
 20
118.0000000284053
 30
0.0
 11
325.70000084117078
 21
118.0000000284053
 31
0.0
  0
LINE
  5
1605F
  8
0
 10
338.50000098347692
 20
112.5
 30
0.0
 11
326.50000087916868
 21
112.5
 31
0.0
  0
LINE
  5
16060
  8
0
 10
325.50000071525602
 20
113.4999999892898
 30
0.0
 11
330.60000089928531
 21
113.4999999892898
 31
0.0
  0
LINE
  5
16061
  8
0
 10
334.4000009633603
 20
113.4999999892898
 30
0.0
 11
339.50000114738958
 21
113.4999999892898
 31
0.0
  0
POLYLINE
  5
1606A
  8
0
 66
     1
 10
0.0
 20
0.0
 30
0.0
 70
   128
  0
VERTEX
  5
17CA5
  8
0
 10
344.81604442000412
 20
132.87837827811009
 30
0.0
  0
VERTEX
  5
17CA6
  8
0
 10
344.75856319069891
 20
133.10181932756669
 30
0.0
  0
VERTEX
  5
17CA7
  8
0
 10
344.72138199955248
 20
133.16269429633391
 30
0.0
  0
VERTEX
  5
17CA8
  8
0
 10
344.70096647739427
 20
133.17780593642959
 30
0.0
  0
VERTEX
  5
17CA9
  8
0
 10
344.67958703637152
 20
133.18243274698031
 30
0.0
  0
SEQEND
  5
17CAA
  8
0
  0
ARC
  5
1606B
  8
0
 10
338.03200037807937
 20
131.99750185282619
 30
0.0
 40
6.8409938488055184
 50
358.37959587815521
 51
7.3981971955037267
  0
ARC
  5
1606C
  8
0
 10
338.03199397687098
 20
131.61060663785759
 30
0.0
 40
6.8410002815068349
 50
352.60180423924101
 51
1.6204126875619931
  0
POLYLINE
  5
1606D
  8
0
 66
     1
 10
0.0
 20
0.0
 30
0.0
 70
   128
  0
VERTEX
  5
17CAB
  8
0
 10
344.67958703637152
 20
130.42567508528009
 30
0.0
  0
VERTEX
  5
17CAC
  8
0
 10
344.72138199955248
 20
130.44541353592649
 30
0.0
  0
VERTEX
  5
17CAD
  8
0
 10
344.75856319069891
 20
130.5062885046936
 30
0.0
  0
VERTEX
  5
17CAE
  8
0
 10
344.81604442000412
 20
130.7297295541502
 30
0.0
  0
SEQEND
  5
17CAF
  8
0
  0
POLYLINE
  5
1606E
  8
0
 66
     1
 10
0.0
 20
0.0
 30
0.0
 70
   128
  0
VERTEX
  5
17CB0
  8
0
 10
344.50611516833328
 20
130.7297295541502
 30
0.0
  0
VERTEX
  5
17CB1
  8
0
 10
344.5896175503733
 20
130.5062885046936
 30
0.0
  0
VERTEX
  5
17CB2
  8
0
 10
344.6349133551123
 20
130.44541353592649
 30
0.0
  0
VERTEX
  5
17CB3
  8
0
 10
344.65748023241781
 20
130.43030189583081
 30
0.0
  0
VERTEX
  5
17CB4
  8
0
 10
344.67958703637152
 20
130.42567508528009
 30
0.0
  0
SEQEND
  5
17CB5
  8
0
  0
ARC
  5
1606F
  8
0
 10
348.48791253930972
 20
131.64391550323799
 30
0.0
 40
4.0853942591902257
 50
177.75354366776651
 51
192.93052108342201
  0
ARC
  5
16070
  8
0
 10
348.48790942083559
 20
131.9641928982679
 30
0.0
 40
4.0853910924142953
 50
167.06947691095331
 51
182.2464399211606
  0
POLYLINE
  5
16071
  8
0
 66
     1
 10
0.0
 20
0.0
 30
0.0
 70
   128
  0
VERTEX
  5
17CB6
  8
0
 10
344.67958703637152
 20
133.18243274698031
 30
0.0
  0
VERTEX
  5
17CB7
  8
0
 10
344.6349133551123
 20
133.16269429633391
 30
0.0
  0
VERTEX
  5
17CB8
  8
0
 10
344.5896175503733
 20
133.10181932756669
 30
0.0
  0
VERTEX
  5
17CB9
  8
0
 10
344.50611516833328
 20
132.87837827811009
 30
0.0
  0
SEQEND
  5
17CBA
  8
0
  0
LINE
  5
16085
  8
0
 10
343.75513948500179
 20
151.96881095180279
 30
0.0
 11
332.29899027675879
 21
151.96881095180279
 31
0.0
  0
ARC
  5
16086
  8
0
 10
323.01582942004052
 20
145.4808967619314
 30
0.0
 40
3.795801678995721
 50
85.918213435607171
 51
92.771409816470822
  0
POLYLINE
  5
1608A
  8
0
 66
     1
 10
0.0
 20
0.0
 30
0.0
 70
   128
  0
VERTEX
  5
17CBB
  8
0
 10
323.66684589535021
 20
151.52775893220669
 30
0.0
  0
VERTEX
  5
17CBC
  8
0
 10
323.62703092396282
 20
151.59561136970291
 30
0.0
  0
VERTEX
  5
17CBD
  8
0
 10
323.49156726151728
 20
151.79622942814601
 30
0.0
  0
VERTEX
  5
17CBE
  8
0
 10
323.23891621083038
 20
151.9227887154556
 30
0.0
  0
VERTEX
  5
17CBF
  8
0
 10
322.85482574254303
 20
151.96881095180279
 30
0.0
  0
SEQEND
  5
17CC0
  8
0
  0
LINE
  5
1608D
  8
0
 10
322.85482574254303
 20
151.96881095180279
 30
0.0
 11
321.24486237764381
 21
151.96881095180279
 31
0.0
  0
LINE
  5
16096
  8
0
 10
320.3289904445412
 20
134.72783217439431
 30
0.0
 11
344.6710114181044
 21
134.72783217439431
 31
0.0
  0
LINE
  5
16098
  8
0
 10
323.00000123679661
 20
135.9800829202868
 30
0.0
 11
342.000000625849
 21
135.9800829202868
 31
0.0
  0
LINE
  5
16099
  8
0
 10
331.50000088382541
 20
120.60000026831401
 30
0.0
 11
325.70000084117078
 21
120.60000026831401
 31
0.0
  0
LINE
  5
1609A
  8
0
 10
339.30000102147483
 20
120.60000026831401
 30
0.0
 11
333.50000097882031
 21
120.60000026831401
 31
0.0
  0
LINE
  5
160A8
  8
0
 10
468.09853043407202
 20
152.85616765031591
 30
0.0
 11
467.08284772932529
 21
153.22584683308369
 31
0.0
  0
LINE
  5
160A9
  8
0
 10
447.91715487837791
 20
153.22584683308369
 30
0.0
 11
446.90147258762289
 21
152.85616822205731
 31
0.0
  0
ARC
  5
160AA
  8
0
 10
468.97311060200582
 20
138.25600021206679
 30
0.0
 40
0.500000625988001
 50
270.00007419801841
 51
2.999969181116259
  0
LINE
  5
160AB
  8
0
 10
469.47242600858863
 20
138.28216795437271
 30
0.0
 11
468.75513985753059
 21
151.96881095180279
 31
0.0
  0
POLYLINE
  5
160AC
  8
0
 66
     1
 10
0.0
 20
0.0
 30
0.0
 70
   128
  0
VERTEX
  5
17CC1
  8
0
 10
447.83229742199183
 20
149.2722558439709
 30
0.0
  0
VERTEX
  5
17CC2
  8
0
 10
447.60860305279488
 20
145.3899035812355
 30
0.0
  0
VERTEX
  5
17CC3
  8
0
 10
447.20002806829638
 20
138.28742407357359
 30
0.0
  0
SEQEND
  5
17CC4
  8
0
  0
ARC
  5
160AD
  8
0
 10
447.69903961736873
 20
138.2559999762513
 30
0.0
 40
0.5000000000000137
 50
176.39668891963791
 51
270.00575954599287
  0
ARC
  5
160AE
  8
0
 10
450.96545050906178
 20
149.2626011139198
 30
0.0
 40
3.1331679624349769
 50
154.76418986808531
 51
179.8234450989103
  0
ARC
  5
160AF
  8
0
 10
467.75651026923578
 20
151.91647497957041
 30
0.0
 40
1.000000054303636
 50
3.0000007543266229
 51
69.999999820885463
  0
ARC
  5
160B0
  8
0
 10
466.91184199070011
 20
152.75600536559651
 30
0.0
 40
0.4999939671768689
 50
70.000276782318863
 51
90.000425429248494
  0
ARC
  5
160B1
  8
0
 10
448.08816061698963
 20
152.75600536567151
 30
0.0
 40
0.4999939671017714
 50
89.999574569214246
 51
109.9997232191714
  0
POLYLINE
  5
160B2
  8
0
 66
     1
 10
0.0
 20
0.0
 30
0.0
 70
   128
  0
VERTEX
  5
17CC5
  8
0
 10
448.66684533655638
 20
151.52775893220669
 30
0.0
  0
VERTEX
  5
17CC6
  8
0
 10
448.54368351399899
 20
151.3216423452831
 30
0.0
  0
VERTEX
  5
17CC7
  8
0
 10
448.13130971044302
 20
150.5984107614494
 30
0.0
  0
SEQEND
  5
17CC8
  8
0
  0
LINE
  5
160B4
  8
0
 10
446.24486275017262
 20
151.96881095180279
 30
0.0
 11
445.52757659911481
 21
138.28216795437271
 31
0.0
  0
ARC
  5
160B5
  8
0
 10
446.02689200569802
 20
138.25600021206699
 30
0.0
 40
0.500000625988397
 50
177.00003081890651
 51
269.9999267524978
  0
ARC
  5
160B6
  8
0
 10
447.24349350902952
 20
151.91647455929481
 30
0.0
 40
1.0000012452570859
 50
110.000021473286
 51
176.99997870876589
  0
LINE
  5
160B7
  8
0
 10
461.50000149384141
 20
106.8289599032141
 30
0.0
 11
461.50000149384141
 21
112.5
 31
0.0
  0
LINE
  5
160B8
  8
0
 10
461.50000149384141
 20
102.9560000286437
 30
0.0
 11
461.50000149384141
 21
103.2894628704525
 31
0.0
  0
LINE
  5
160B9
  8
0
 10
453.5000011138618
 20
103.22174920002
 30
0.0
 11
453.5000011138618
 21
102.9560000286437
 31
0.0
  0
LINE
  5
160BA
  8
0
 10
453.5000011138618
 20
112.5
 30
0.0
 11
453.5000011138618
 21
106.872566754464
 31
0.0
  0
LINE
  5
160BB
  8
0
 10
453.5000011138618
 20
102.9560000286437
 30
0.0
 11
453.84723079231929
 21
101.6601218834038
 31
0.0
  0
ARC
  5
160BC
  8
0
 10
454.76486091246971
 20
101.9060003672531
 30
0.0
 40
0.9500006664350754
 50
195.0000136438766
 51
269.99996532887047
  0
LINE
  5
160BD
  8
0
 10
454.5758905634284
 20
104.4799161725677
 30
0.0
 11
453.6423931177705
 21
103.5076885134913
 31
0.0
  0
LINE
  5
160BE
  8
0
 10
453.55437219142908
 20
106.6529590287246
 30
0.0
 11
454.46387015283119
 21
105.72314054006711
 31
0.0
  0
ARC
  5
160BF
  8
0
 10
453.88274353289052
 20
105.0441193072062
 30
0.0
 40
0.8937438017012942
 50
320.8553328679385
 51
49.44210222004628
  0
ARC
  5
160C1
  8
0
 10
460.23514158788038
 20
101.9060006835048
 30
0.0
 40
0.9500009826868842
 50
270.00004176731522
 51
344.99994632906947
  0
ARC
  5
160C2
  8
0
 10
461.04725521971108
 20
105.03091656049629
 30
0.0
 40
0.8318105821581793
 50
144.3480841270474
 51
221.48400117611811
  0
LINE
  5
160C3
  8
0
 10
461.38197405263782
 20
103.4820762113668
 30
0.0
 11
460.42411204427481
 21
104.4799161725677
 31
0.0
  0
LINE
  5
160C4
  8
0
 10
461.15277184173459
 20
101.6601214767433
 30
0.0
 11
461.50000149384141
 21
102.9560000286437
 31
0.0
  0
LINE
  5
160C5
  8
0
 10
470.00000149011612
 20
121.4999996707774
 30
0.0
 11
470.00000149011612
 21
134.25798552343619
 31
0.0
  0
LINE
  5
160C6
  8
0
 10
445.00000111758709
 20
134.25798552343619
 30
0.0
 11
445.00000111758709
 21
121.4999996707774
 31
0.0
  0
LINE
  5
160C9
  8
0
 10
445.00000111758709
 20
121.4999996707774
 30
0.0
 11
445.50000119954342
 21
120.9999995888211
 31
0.0
  0
LINE
  5
160CA
  8
0
 10
469.50000140815968
 20
120.9999995888211
 30
0.0
 11
470.00000149011612
 21
121.4999996707774
 31
0.0
  0
ARC
  5
160CB
  8
0
 10
445.5000013038516
 20
134.2579855043478
 30
0.0
 40
0.5
 50
110.0000000000034
 51
180.0
  0
ARC
  5
160CC
  8
0
 10
469.50000130385177
 20
134.2579855043478
 30
0.0
 40
0.5
 50
0.0
 51
69.999999999996604
  0
LINE
  5
160CD
  8
0
 10
469.6710117906332
 20
134.72783217439431
 30
0.0
 11
467.26319368928671
 21
135.60420671710739
 31
0.0
  0
LINE
  5
160CE
  8
0
 10
447.7368089184165
 20
135.60420671710739
 30
0.0
 11
445.32899081707001
 21
134.72783217439431
 31
0.0
  0
ARC
  5
160CF
  8
0
 10
467.4000013038517
 20
135.9800829915352
 30
0.0
 40
0.4000000000000305
 50
180.0
 51
249.99999999999611
  0
ARC
  5
160D0
  8
0
 10
447.60000130385168
 20
135.9800829915352
 30
0.0
 40
0.4000000000000111
 50
290.00000000000392
 51
0.0
  0
LINE
  5
160D1
  8
0
 10
467.0000009983778
 20
135.9800829202868
 30
0.0
 11
467.0000009983778
 21
137.75599958607921
 31
0.0
  0
LINE
  5
160D2
  8
0
 10
448.00000160932541
 20
137.75599958607921
 30
0.0
 11
448.00000160932541
 21
135.9800829202868
 31
0.0
  0
ARC
  5
160D3
  8
0
 10
464.70000130385159
 20
120.5999999762512
 30
0.0
 40
0.3999999999999915
 50
90.0
 51
180.0
  0
ARC
  5
160D4
  8
0
 10
450.30000130385167
 20
120.5999999762512
 30
0.0
 40
0.3999999999999915
 50
0.0
 51
89.999999999986969
  0
LINE
  5
160D5
  8
0
 10
450.50000108778471
 20
113.4999999892898
 30
0.0
 11
451.50000125169748
 21
112.5
 31
0.0
  0
LINE
  5
160D6
  8
0
 10
463.50000135600561
 20
112.5
 30
0.0
 11
464.50000151991838
 21
113.4999999892898
 31
0.0
  0
LINE
  5
160D7
  8
0
 10
464.50000151991838
 20
117.6535899401642
 30
0.0
 11
464.30000139400357
 21
118.0000000284053
 31
0.0
  0
LINE
  5
160D8
  8
0
 10
450.70000121369952
 20
118.0000000284053
 30
0.0
 11
450.50000108778471
 21
117.6535899401642
 31
0.0
  0
LINE
  5
160D9
  8
0
 10
464.50000151991838
 20
113.4999999892898
 30
0.0
 11
464.50000151991838
 21
117.6535899401642
 31
0.0
  0
LINE
  5
160DA
  8
0
 10
450.50000108778471
 20
117.6535899401642
 30
0.0
 11
450.50000108778471
 21
113.4999999892898
 31
0.0
  0
LINE
  5
160DB
  8
0
 10
464.30000139400357
 20
118.0000000284053
 30
0.0
 11
464.30000139400357
 21
120.60000026831401
 31
0.0
  0
LINE
  5
160DC
  8
0
 10
450.70000121369952
 20
120.60000026831401
 30
0.0
 11
450.70000121369952
 21
118.0000000284053
 31
0.0
  0
POLYLINE
  5
160E4
  8
0
 66
     1
 10
0.0
 20
0.0
 30
0.0
 70
   128
  0
VERTEX
  5
17CC9
  8
0
 10
450.69684123620391
 20
137.75599958607921
 30
0.0
  0
VERTEX
  5
17CCA
  8
0
 10
450.76160401105881
 20
137.76625717291611
 30
0.0
  0
VERTEX
  5
17CCB
  8
0
 10
450.82370972260833
 20
137.7966052503325
 30
0.0
  0
VERTEX
  5
17CCC
  8
0
 10
450.88061073794961
 20
137.84579957136879
 30
0.0
  0
VERTEX
  5
17CCD
  8
0
 10
450.92997223138809
 20
137.91182289132851
 30
0.0
  0
VERTEX
  5
17CCE
  8
0
 10
450.96976997330779
 20
137.99196692416439
 30
0.0
  0
VERTEX
  5
17CCF
  8
0
 10
450.998370423913
 20
138.08294223854321
 30
0.0
  0
VERTEX
  5
17CD0
  8
0
 10
451.01460058242083
 20
138.18101609358561
 30
0.0
  0
VERTEX
  5
17CD1
  8
0
 10
451.01779455319041
 20
138.2821670384146
 30
0.0
  0
SEQEND
  5
17CD2
  8
0
  0
POLYLINE
  5
160E6
  8
0
 66
     1
 10
0.0
 20
0.0
 30
0.0
 70
   128
  0
VERTEX
  5
17CD3
  8
0
 10
453.64377403631801
 20
137.75599958607921
 30
0.0
  0
VERTEX
  5
17CD4
  8
0
 10
453.70853657834232
 20
137.76625717291611
 30
0.0
  0
VERTEX
  5
17CD5
  8
0
 10
453.77064228989178
 20
137.7966052503325
 30
0.0
  0
VERTEX
  5
17CD6
  8
0
 10
453.82754330523312
 20
137.84579957136879
 30
0.0
  0
VERTEX
  5
17CD7
  8
0
 10
453.8769047986716
 20
137.91182289132851
 30
0.0
  0
VERTEX
  5
17CD8
  8
0
 10
453.91670230776072
 20
137.99196692416439
 30
0.0
  0
VERTEX
  5
17CD9
  8
0
 10
453.94530299119651
 20
138.08294223854321
 30
0.0
  0
VERTEX
  5
17CDA
  8
0
 10
453.96153314970428
 20
138.18101609358561
 30
0.0
  0
VERTEX
  5
17CDB
  8
0
 10
453.96472735330462
 20
138.2821670384146
 30
0.0
  0
SEQEND
  5
17CDC
  8
0
  0
ARC
  5
160E8
  8
0
 10
451.86611987884038
 20
149.32589127326409
 30
0.0
 40
0.9322886421829199
 50
117.2882178290857
 51
183.61737428231831
  0
LINE
  5
160E9
  8
0
 10
453.53400230407709
 20
151.0682406486012
 30
0.0
 11
451.43869647756219
 21
150.1544269383885
 31
0.0
  0
LINE
  5
160EA
  8
0
 10
453.96472735330462
 20
138.2821670384146
 30
0.0
 11
453.53400230407709
 21
151.0682406486012
 31
0.0
  0
LINE
  5
160EB
  8
0
 10
450.93568868935103
 20
149.26707023987541
 30
0.0
 11
451.01779455319041
 21
138.2821670384146
 31
0.0
  0
ARC
  5
160EF
  8
0
 10
450.3884081542493
 20
135.06737804064011
 30
0.0
 40
14.210234851582371
 50
87.792814678189004
 51
92.207185321810982
  0
LINE
  5
160F4
  8
0
 10
449.8411276191473
 20
149.26707023987541
 30
0.0
 11
448.28601635992521
 21
149.26707023987541
 31
0.0
  0
ARC
  5
160F9
  8
0
 10
464.78491196681938
 20
138.1460962557482
 30
0.0
 40
7.4999661172412866
 50
178.9604340591182
 51
182.9814778628176
  0
LINE
  5
160FA
  8
0
 10
468.97311124950642
 20
137.75599958607921
 30
0.0
 11
446.02689136649218
 21
137.75599958607921
 31
0.0
  0
LINE
  5
160FB
  8
0
 10
457.29899064928759
 20
151.96881095180279
 30
0.0
 11
457.2861803072737
 21
138.2821670384146
 31
0.0
  0
ARC
  5
16100
  8
0
 10
457.33952940734559
 20
143.47895737821131
 30
0.0
 40
8.4899503586258227
 50
90.273583292200655
 51
116.6307578804859
  0
LINE
  5
16102
  8
0
 10
448.08816432952881
 20
153.2559993327595
 30
0.0
 11
466.9118382781744
 21
153.2559993327595
 31
0.0
  0
POLYLINE
  5
16105
  8
0
 66
     1
 10
0.0
 20
0.0
 30
0.0
 70
   128
  0
VERTEX
  5
17CDD
  8
0
 10
456.80540858767921
 20
108.1108946935273
 30
0.0
  0
VERTEX
  5
17CDE
  8
0
 10
456.9212849647738
 20
108.1052767229266
 30
0.0
  0
VERTEX
  5
17CDF
  8
0
 10
457.25481538567692
 20
108.02581046009431
 30
0.0
  0
SEQEND
  5
17CE0
  8
0
  0
LINE
  5
16106
  8
0
 10
456.80540858767921
 20
108.1108946935273
 30
0.0
 11
456.13192068878561
 21
108.1108946935273
 31
0.0
  0
LINE
  5
16107
  8
0
 10
456.13192068878561
 20
108.1108946935273
 30
0.0
 11
456.13192068878561
 21
108.10273910174141
 31
0.0
  0
POLYLINE
  5
16108
  8
0
 66
     1
 10
0.0
 20
0.0
 30
0.0
 70
   128
  0
VERTEX
  5
17CE1
  8
0
 10
456.13192068878561
 20
108.10273910174141
 30
0.0
  0
VERTEX
  5
17CE2
  8
0
 10
456.02386596612632
 20
108.09719563694669
 30
0.0
  0
VERTEX
  5
17CE3
  8
0
 10
455.717991925776
 20
108.017979899887
 30
0.0
  0
SEQEND
  5
17CE4
  8
0
  0
POLYLINE
  5
16109
  8
0
 66
     1
 10
0.0
 20
0.0
 30
0.0
 70
   128
  0
VERTEX
  5
17CE5
  8
0
 10
453.55437219142908
 20
106.6529590287246
 30
0.0
  0
VERTEX
  5
17CE6
  8
0
 10
453.5000011138618
 20
106.872566754464
 30
0.0
  0
VERTEX
  5
17CE7
  8
0
 10
453.62342650070781
 20
107.0965679944493
 30
0.0
  0
VERTEX
  5
17CE8
  8
0
 10
453.9093909598887
 20
107.31811985606321
 30
0.0
  0
VERTEX
  5
17CE9
  8
0
 10
454.374925121665
 20
107.5519148842431
 30
0.0
  0
VERTEX
  5
17CEA
  8
0
 10
454.98700754716992
 20
107.7846770756878
 30
0.0
  0
VERTEX
  5
17CEB
  8
0
 10
455.717991925776
 20
108.017979899887
 30
0.0
  0
SEQEND
  5
17CEC
  8
0
  0
POLYLINE
  5
1610C
  8
0
 66
     1
 10
0.0
 20
0.0
 30
0.0
 70
   128
  0
VERTEX
  5
17CED
  8
0
 10
461.38197405263782
 20
103.4820762113668
 30
0.0
  0
VERTEX
  5
17CEE
  8
0
 10
461.50000149384141
 20
103.2894628704525
 30
0.0
  0
SEQEND
  5
17CEF
  8
0
  0
POLYLINE
  5
1610D
  8
0
 66
     1
 10
0.0
 20
0.0
 30
0.0
 70
   128
  0
VERTEX
  5
17CF0
  8
0
 10
461.22302755713463
 20
106.42732052365319
 30
0.0
  0
VERTEX
  5
17CF1
  8
0
 10
461.44497197121382
 20
106.6518824198283
 30
0.0
  0
VERTEX
  5
17CF2
  8
0
 10
461.50000149384141
 20
106.8289599032141
 30
0.0
  0
SEQEND
  5
17CF3
  8
0
  0
LINE
  5
1610E
  8
0
 10
461.22302755713463
 20
106.42732052365319
 30
0.0
 11
460.96410288475448
 21
106.42732052365319
 31
0.0
  0
ARC
  5
1610F
  8
0
 10
461.64216594094341
 20
104.8857069529215
 30
0.0
 40
1.684144266276542
 50
113.741805644542
 51
187.83923055960969
  0
LINE
  5
16110
  8
0
 10
459.97376053594053
 20
104.6559999347664
 30
0.0
 11
459.97376053594053
 21
102.9560000286437
 31
0.0
  0
LINE
  5
16111
  8
0
 10
453.5000011138618
 20
102.9560000286437
 30
0.0
 11
459.97376053594053
 21
102.9560000286437
 31
0.0
  0
POLYLINE
  5
16112
  8
0
 66
     1
 10
0.0
 20
0.0
 30
0.0
 70
   128
  0
VERTEX
  5
17CF4
  8
0
 10
456.2657341640442
 20
104.5682539814152
 30
0.0
  0
VERTEX
  5
17CF5
  8
0
 10
455.32662410289049
 20
104.290180618409
 30
0.0
  0
VERTEX
  5
17CF6
  8
0
 10
454.53083760105068
 20
104.00779756018891
 30
0.0
  0
VERTEX
  5
17CF7
  8
0
 10
453.93997768871481
 20
103.7292538792826
 30
0.0
  0
VERTEX
  5
17CF8
  8
0
 10
453.6423931177705
 20
103.5076885134913
 30
0.0
  0
VERTEX
  5
17CF9
  8
0
 10
453.50789779797191
 20
103.2894628704525
 30
0.0
  0
VERTEX
  5
17CFA
  8
0
 10
453.5000011138618
 20
103.22174920002
 30
0.0
  0
SEQEND
  5
17CFB
  8
0
  0
LINE
  5
16113
  8
0
 10
456.67542564217001
 20
104.5682539814152
 30
0.0
 11
456.2657341640442
 21
104.5682539814152
 31
0.0
  0
POLYLINE
  5
16114
  8
0
 66
     1
 10
0.0
 20
0.0
 30
0.0
 70
   128
  0
VERTEX
  5
17CFC
  8
0
 10
456.92631166195491
 20
104.4998357654549
 30
0.0
  0
VERTEX
  5
17CFD
  8
0
 10
456.785351159051
 20
104.5382421114482
 30
0.0
  0
VERTEX
  5
17CFE
  8
0
 10
456.67542564217001
 20
104.5682539814152
 30
0.0
  0
SEQEND
  5
17CFF
  8
0
  0
POLYLINE
  5
16115
  8
0
 66
     1
 10
0.0
 20
0.0
 30
0.0
 70
   128
  0
VERTEX
  5
17D00
  8
0
 10
457.9519027366768
 20
107.8391547896899
 30
0.0
  0
VERTEX
  5
17D01
  8
0
 10
458.10143900336692
 20
107.7706718468107
 30
0.0
  0
VERTEX
  5
17D02
  8
0
 10
458.44195154961199
 20
107.5191071839072
 30
0.0
  0
VERTEX
  5
17D03
  8
0
 10
458.74182694125921
 20
107.1223763399757
 30
0.0
  0
VERTEX
  5
17D04
  8
0
 10
458.94595364108682
 20
106.5686175250448
 30
0.0
  0
VERTEX
  5
17D05
  8
0
 10
458.97726517170662
 20
105.9225353063084
 30
0.0
  0
VERTEX
  5
17D06
  8
0
 10
458.8063969323411
 20
105.2957081818022
 30
0.0
  0
VERTEX
  5
17D07
  8
0
 10
458.43726577470079
 20
104.76442963117729
 30
0.0
  0
VERTEX
  5
17D08
  8
0
 10
458.04491505725309
 20
104.4873304315842
 30
0.0
  0
VERTEX
  5
17D09
  8
0
 10
457.57313526439242
 20
104.36339235166081
 30
0.0
  0
VERTEX
  5
17D0A
  8
0
 10
457.15943226707162
 20
104.40859316149719
 30
0.0
  0
VERTEX
  5
17D0B
  8
0
 10
456.92631166195491
 20
104.4998357654549
 30
0.0
  0
SEQEND
  5
17D0C
  8
0
  0
LINE
  5
16116
  8
0
 10
457.69282295543229
 20
107.9091520630754
 30
0.0
 11
457.9519027366768
 21
107.8391547896899
 31
0.0
  0
POLYLINE
  5
16117
  8
0
 66
     1
 10
0.0
 20
0.0
 30
0.0
 70
   128
  0
VERTEX
  5
17D0D
  8
0
 10
457.25481538567692
 20
108.02581046009431
 30
0.0
  0
VERTEX
  5
17D0E
  8
0
 10
457.49957704876022
 20
107.96088051283731
 30
0.0
  0
VERTEX
  5
17D0F
  8
0
 10
457.69282295543229
 20
107.9091520630754
 30
0.0
  0
SEQEND
  5
17D10
  8
0
  0
LINE
  5
16118
  8
0
 10
461.41561295837158
 20
108.25599987292659
 30
0.0
 11
461.41561295837158
 21
112.5
 31
0.0
  0
LINE
  5
16119
  8
0
 10
460.16561298631132
 20
112.5
 30
0.0
 11
460.16561298631132
 21
108.25599987292659
 31
0.0
  0
POLYLINE
  5
1611A
  8
0
 66
     1
 10
0.0
 20
0.0
 30
0.0
 70
   128
  0
VERTEX
  5
17D11
  8
0
 10
460.16561298631132
 20
108.25599987292659
 30
0.0
  0
VERTEX
  5
17D12
  8
0
 10
460.21721943281591
 20
107.85385199123991
 30
0.0
  0
VERTEX
  5
17D13
  8
0
 10
460.35886987112463
 20
107.4972867616452
 30
0.0
  0
VERTEX
  5
17D14
  8
0
 10
460.5671613290906
 20
107.2137078852392
 30
0.0
  0
VERTEX
  5
17D15
  8
0
 10
460.80490423366422
 20
107.0422900491394
 30
0.0
  0
VERTEX
  5
17D16
  8
0
 10
461.02067817002529
 20
107.01140040764579
 30
0.0
  0
VERTEX
  5
17D17
  8
0
 10
461.18854789994651
 20
107.11216997588051
 30
0.0
  0
VERTEX
  5
17D18
  8
0
 10
461.30745637230569
 20
107.3320445255376
 30
0.0
  0
VERTEX
  5
17D19
  8
0
 10
461.38054354116321
 20
107.6622957014478
 30
0.0
  0
VERTEX
  5
17D1A
  8
0
 10
461.41248883679509
 20
108.0667877220548
 30
0.0
  0
VERTEX
  5
17D1B
  8
0
 10
461.41561295837158
 20
108.25599987292659
 30
0.0
  0
SEQEND
  5
17D1C
  8
0
  0
LINE
  5
1611B
  8
0
 10
459.97376053594053
 20
102.9560000286437
 30
0.0
 11
459.87511298619211
 21
101.6601214767433
 31
0.0
  0
ARC
  5
16120
  8
0
 10
458.36593457037611
 20
101.6968334271313
 30
0.0
 40
1.5096248732934769
 50
335.5955899154003
 51
358.60650997857869
  0
POLYLINE
  5
16121
  8
0
 66
     1
 10
0.0
 20
0.0
 30
0.0
 70
   128
  0
VERTEX
  5
17D1D
  8
0
 10
459.74067727103829
 20
101.0730948881246
 30
0.0
  0
VERTEX
  5
17D1E
  8
0
 10
459.6999761462211
 20
100.983612483833
 30
0.0
  0
VERTEX
  5
17D1F
  8
0
 10
459.73281597718591
 20
100.9579657227732
 30
0.0
  0
VERTEX
  5
17D20
  8
0
 10
459.80365958996111
 20
100.9559997008182
 30
0.0
  0
SEQEND
  5
17D21
  8
0
  0
LINE
  5
16122
  8
0
 10
460.23514228040949
 20
100.9559997008182
 30
0.0
 11
454.76486033760011
 21
100.9559997008182
 31
0.0
  0
POLYLINE
  5
1614B
  8
0
 66
     1
 10
0.0
 20
0.0
 30
0.0
 70
   128
  0
VERTEX
  5
17D22
  8
0
 10
461.22302755713463
 20
106.42732052365319
 30
0.0
  0
VERTEX
  5
17D23
  8
0
 10
460.7929479144513
 20
105.97195733571419
 30
0.0
  0
VERTEX
  5
17D24
  8
0
 10
460.3713484294712
 20
105.5157452472485
 30
0.0
  0
SEQEND
  5
17D25
  8
0
  0
LINE
  5
16155
  8
0
 10
445.00000111758709
 20
121.4999996707774
 30
0.0
 11
470.00000149011612
 21
121.4999996707774
 31
0.0
  0
LINE
  5
16156
  8
0
 10
445.82338713109488
 20
133.52702768752351
 30
0.0
 11
445.19621681421989
 21
133.52702768752351
 31
0.0
  0
LINE
  5
16157
  8
0
 10
445.19621681421989
 20
130.06081084022301
 30
0.0
 11
445.19621681421989
 21
133.52702768752351
 31
0.0
  0
LINE
  5
16158
  8
0
 10
445.28992276638741
 20
130.06081084022301
 30
0.0
 11
445.19621681421989
 21
130.06081084022301
 31
0.0
  0
LINE
  5
16159
  8
0
 10
445.28992276638741
 20
131.62312308559191
 30
0.0
 11
445.28992276638741
 21
130.06081084022301
 31
0.0
  0
LINE
  5
1615A
  8
0
 10
445.6848501041531
 20
131.62312308559191
 30
0.0
 11
445.28992276638741
 21
131.62312308559191
 31
0.0
  0
LINE
  5
1615B
  8
0
 10
445.6848501041531
 20
132.00675720581779
 30
0.0
 11
445.6848501041531
 21
131.62312308559191
 31
0.0
  0
LINE
  5
1615C
  8
0
 10
445.6848501041531
 20
132.00675720581779
 30
0.0
 11
445.28992276638741
 21
132.00675720581779
 31
0.0
  0
LINE
  5
1615D
  8
0
 10
445.28992276638741
 20
133.14339356729761
 30
0.0
 11
445.28992276638741
 21
132.00675720581779
 31
0.0
  0
LINE
  5
1615E
  8
0
 10
445.82338713109488
 20
133.14339356729761
 30
0.0
 11
445.28992276638741
 21
133.14339356729761
 31
0.0
  0
LINE
  5
1615F
  8
0
 10
445.82338713109488
 20
133.52702768752351
 30
0.0
 11
445.82338713109488
 21
133.14339356729761
 31
0.0
  0
LINE
  5
16160
  8
0
 10
445.11917874217028
 20
133.52702768752351
 30
0.0
 11
445.00000111758709
 21
133.52702768752351
 31
0.0
  0
LINE
  5
16161
  8
0
 10
445.06985124200583
 20
131.62312308559191
 30
0.0
 11
445.00000111758709
 21
131.62312308559191
 31
0.0
  0
LINE
  5
16162
  8
0
 10
445.06985124200583
 20
132.00675720581779
 30
0.0
 11
445.06985124200583
 21
131.62312308559191
 31
0.0
  0
LINE
  5
16163
  8
0
 10
445.06985124200583
 20
132.00675720581779
 30
0.0
 11
445.00000111758709
 21
132.00675720581779
 31
0.0
  0
LINE
  5
16164
  8
0
 10
445.11917874217028
 20
133.14339356729761
 30
0.0
 11
445.00000111758709
 21
133.14339356729761
 31
0.0
  0
LINE
  5
16165
  8
0
 10
445.11917874217028
 20
133.52702768752351
 30
0.0
 11
445.11917874217028
 21
133.14339356729761
 31
0.0
  0
LINE
  5
16166
  8
0
 10
469.50000140815968
 20
120.9999995888211
 30
0.0
 11
445.50000119954342
 21
120.9999995888211
 31
0.0
  0
LINE
  5
16167
  8
0
 10
463.50000135600561
 20
112.5
 30
0.0
 11
451.50000125169748
 21
112.5
 31
0.0
  0
LINE
  5
16168
  8
0
 10
450.50000108778471
 20
113.4999999892898
 30
0.0
 11
464.50000151991838
 21
113.4999999892898
 31
0.0
  0
LINE
  5
16169
  8
0
 10
464.50000151991838
 20
117.6535899401642
 30
0.0
 11
450.50000108778471
 21
117.6535899401642
 31
0.0
  0
LINE
  5
1616A
  8
0
 10
464.30000139400357
 20
118.0000000284053
 30
0.0
 11
450.70000121369952
 21
118.0000000284053
 31
0.0
  0
LINE
  5
16171
  8
0
 10
468.75513985753059
 20
151.96881095180279
 30
0.0
 11
457.29899064928759
 21
151.96881095180279
 31
0.0
  0
ARC
  5
16172
  8
0
 10
448.0158641573766
 20
145.48172768482721
 30
0.0
 40
3.794970417750422
 50
85.917837986655584
 51
92.772539388833053
  0
POLYLINE
  5
16176
  8
0
 66
     1
 10
0.0
 20
0.0
 30
0.0
 70
   128
  0
VERTEX
  5
17D26
  8
0
 10
448.66684533655638
 20
151.52775893220669
 30
0.0
  0
VERTEX
  5
17D27
  8
0
 10
448.62703129649162
 20
151.59561136970291
 30
0.0
  0
VERTEX
  5
17D28
  8
0
 10
448.49156763404602
 20
151.79622942814601
 30
0.0
  0
VERTEX
  5
17D29
  8
0
 10
448.23891658335918
 20
151.9227887154556
 30
0.0
  0
VERTEX
  5
17D2A
  8
0
 10
447.85482611507172
 20
151.96881095180279
 30
0.0
  0
SEQEND
  5
17D2B
  8
0
  0
LINE
  5
16179
  8
0
 10
447.85482611507172
 20
151.96881095180279
 30
0.0
 11
446.24486275017262
 21
151.96881095180279
 31
0.0
  0
LINE
  5
16182
  8
0
 10
445.32899081707001
 20
134.72783217439431
 30
0.0
 11
469.6710117906332
 21
134.72783217439431
 31
0.0
  0
LINE
  5
16184
  8
0
 10
448.00000160932541
 20
135.9800829202868
 30
0.0
 11
467.0000009983778
 21
135.9800829202868
 31
0.0
  0
LINE
  5
16185
  8
0
 10
464.30000139400357
 20
120.60000026831401
 30
0.0
 11
450.70000121369952
 21
120.60000026831401
 31
0.0
  0
ARC
  5
16188
  8
0
 10
386.23842217568631
 20
47.931721640683122
 30
0.0
 40
5.0268900626404927
 50
81.375336405190524
 51
100.0000000000049
  0
LINE
  5
16189
  8
0
 10
381.5768889016781
 20
52.21490096300829
 30
0.0
 11
385.36551187697631
 21
52.882241947911439
 31
0.0
  0
ARC
  5
1618A
  8
0
 10
395.00000112274029
 20
62.5
 30
0.0
 40
17.47310993735956
 50
205.62322310233321
 51
214.37677689767139
  0
LINE
  5
1618B
  8
0
 10
381.8535336158547
 20
58.965166565030813
 30
0.0
 11
379.38128848144152
 21
56.017793249338808
 31
0.0
  0
ARC
  5
1618C
  8
0
 10
378.00271250064179
 20
62.19638923424634
 30
0.0
 40
5.0268900626405042
 50
320.00000000000011
 51
338.62466359480578
  0
ARC
  5
1618D
  8
0
 10
411.99728974483878
 20
62.803610765753596
 30
0.0
 40
5.0268900626404598
 50
140.00000000000011
 51
158.62466359480069
  0
LINE
  5
1618E
  8
0
 10
408.14646854618297
 20
66.034833413275351
 30
0.0
 11
410.61871376403923
 21
68.982206750661192
 31
0.0
  0
ARC
  5
1618F
  8
0
 10
395.00000112274029
 20
62.5
 30
0.0
 40
17.473109937359521
 50
25.623223102333199
 51
34.376776897671377
  0
LINE
  5
16190
  8
0
 10
408.42311334380253
 20
72.785099036991653
 30
0.0
 11
404.63449031629898
 21
72.117757983505726
 31
0.0
  0
ARC
  5
16191
  8
0
 10
403.76158006979421
 20
77.068278359316821
 30
0.0
 40
5.0268900626404829
 50
261.3753364052036
 51
280.00000000000489
  0
LINE
  5
16192
  8
0
 10
384.05399833389851
 20
61.727499996777617
 30
0.0
 11
384.94600419470407
 21
61.727499996777617
 31
0.0
  0
LINE
  5
16193
  8
0
 10
384.94600419470407
 20
61.727499996777617
 30
0.0
 11
385.39200712510677
 21
62.5
 31
0.0
  0
LINE
  5
16194
  8
0
 10
385.39200712510677
 20
62.5
 30
0.0
 11
384.94600419470407
 21
63.272500003222369
 31
0.0
  0
LINE
  5
16195
  8
0
 10
384.94600419470407
 20
63.272500003222369
 30
0.0
 11
384.05399833389851
 21
63.272500003222369
 31
0.0
  0
LINE
  5
16196
  8
0
 10
384.05399833389851
 20
63.272500003222369
 30
0.0
 11
383.60799540349581
 21
62.5
 31
0.0
  0
LINE
  5
16197
  8
0
 10
383.60799540349581
 20
62.5
 30
0.0
 11
384.05399833389851
 21
61.727499996777617
 31
0.0
  0
CIRCLE
  5
16198
  8
0
 10
384.50000112274029
 20
62.5
 30
0.0
 40
1.899999999999991
  0
LINE
  5
1619B
  8
0
 10
384.41844348379709
 20
54.718796629458659
 30
0.0
 11
382.413853138283
 21
54.36533321300692
 31
0.0
  0
ARC
  5
1619E
  8
0
 10
382.27493459614948
 20
55.153179415416673
 30
0.0
 40
0.8000000000000072
 50
140.00000000000011
 51
280.00000000000489
  0
LINE
  5
161A1
  8
0
 10
381.6620990416543
 20
55.66740950316597
 30
0.0
 11
382.97050230720379
 21
57.226703967899077
 31
0.0
  0
LINE
  5
161A5
  8
0
 10
408.33790320382622
 20
69.33259049683403
 30
0.0
 11
407.02949993827679
 21
67.773296032100916
 31
0.0
  0
ARC
  5
161A9
  8
0
 10
407.72506753609099
 20
69.846820594490453
 30
0.0
 40
0.8000000931151056
 50
320.00000466960091
 51
100.0000240450356
  0
LINE
  5
161AC
  8
0
 10
405.58155876168348
 20
70.281203370541334
 30
0.0
 11
407.58614864715668
 21
70.634666830301285
 31
0.0
  0
ARC
  5
161B7
  8
0
 10
406.44987169841153
 20
68.240183091494202
 30
0.0
 40
0.7442798013370459
 50
270.64168421022578
 51
321.14876522585661
  0
ARC
  5
161B8
  8
0
 10
405.67547911805491
 20
69.582515631184549
 30
0.0
 40
0.7049720494235153
 50
97.656030062930739
 51
151.18423104744639
  0
ARC
  5
161B9
  8
0
 10
383.5492117125425
 20
56.761141610066261
 30
0.0
 40
0.7427333874671209
 50
90.565033145908643
 51
141.18388496941199
  0
ARC
  5
161BA
  8
0
 10
384.32692575517717
 20
55.413012544811011
 30
0.0
 40
0.7002222731249228
 50
277.50993535113872
 51
331.42877710402189
  0
ARC
  5
161BB
  8
0
 10
381.40436389467072
 20
53.202098344155843
 30
0.0
 40
1.002159442098653
 50
214.5246396869926
 51
279.91303733903362
  0
ARC
  5
161BE
  8
0
 10
380.14995678113382
 20
55.374784033695839
 30
0.0
 40
1.002153584214345
 50
140.0867207992093
 51
205.47554685430569
  0
ARC
  5
161C0
  8
0
 10
409.85004546434618
 20
69.625215966303927
 30
0.0
 40
1.002153584214736
 50
320.0867207992427
 51
25.475546854294731
  0
ARC
  5
161C2
  8
0
 10
408.59563835080951
 20
71.797901655843589
 30
0.0
 40
1.00215944209909
 50
34.524639687004843
 51
99.913037339013897
  0
POLYLINE
  5
161D1
  8
0
 66
     1
 10
0.0
 20
0.0
 30
0.0
 70
   128
  0
VERTEX
  5
17D2C
  8
0
 10
395.80375811600419
 20
59.410795802250497
 30
0.0
  0
VERTEX
  5
17D2D
  8
0
 10
395.73146693690978
 20
59.141001431271427
 30
0.0
  0
VERTEX
  5
17D2E
  8
0
 10
395.68049908665313
 20
58.95078694447875
 30
0.0
  0
VERTEX
  5
17D2F
  8
0
 10
395.66932245905809
 20
58.909075101837509
 30
0.0
  0
SEQEND
  5
17D30
  8
0
  0
POLYLINE
  5
161D3
  8
0
 66
     1
 10
0.0
 20
0.0
 30
0.0
 70
   128
  0
VERTEX
  5
17D31
  8
0
 10
392.22482958392538
 20
64.875111682340503
 30
0.0
  0
VERTEX
  5
17D32
  8
0
 10
392.35818682753779
 20
64.839378697797656
 30
0.0
  0
VERTEX
  5
17D33
  8
0
 10
392.57073117004069
 20
64.782427623867974
 30
0.0
  0
VERTEX
  5
17D34
  8
0
 10
392.72655028433837
 20
64.740675967186675
 30
0.0
  0
SEQEND
  5
17D35
  8
0
  0
ARC
  5
161D4
  8
0
 10
393.03713299378751
 20
65.89978922063051
 30
0.0
 40
1.2000021473805149
 50
255.00003462408179
 51
345.08897349091143
  0
ARC
  5
161D6
  8
0
 10
396.96286952938021
 20
59.100212763139041
 30
0.0
 40
1.2000004553341519
 50
75.000022916121949
 51
164.9999966812515
  0
POLYLINE
  5
161D7
  8
0
 66
     1
 10
0.0
 20
0.0
 30
0.0
 70
   128
  0
VERTEX
  5
17D36
  8
0
 10
394.19672696066527
 20
65.591006148395991
 30
0.0
  0
VERTEX
  5
17D37
  8
0
 10
394.26853530857079
 20
65.858998568728566
 30
0.0
  0
VERTEX
  5
17D38
  8
0
 10
394.3195031588275
 20
66.049213055521236
 30
0.0
  0
VERTEX
  5
17D39
  8
0
 10
394.33067978642248
 20
66.090924898162484
 30
0.0
  0
SEQEND
  5
17D3A
  8
0
  0
POLYLINE
  5
161D9
  8
0
 66
     1
 10
0.0
 20
0.0
 30
0.0
 70
   128
  0
VERTEX
  5
17D3B
  8
0
 10
397.77517266155519
 20
60.12488831765949
 30
0.0
  0
VERTEX
  5
17D3C
  8
0
 10
397.64181541794278
 20
60.160621302202337
 30
0.0
  0
VERTEX
  5
17D3D
  8
0
 10
397.42927107543977
 20
60.217572376132011
 30
0.0
  0
VERTEX
  5
17D3E
  8
0
 10
397.27345203775212
 20
60.259324318726101
 30
0.0
  0
SEQEND
  5
17D3F
  8
0
  0
LINE
  5
161E0
  8
0
 10
392.22482958392538
 20
64.875111682340503
 30
0.0
 11
391.85667241507508
 21
64.973759232088923
 31
0.0
  0
LINE
  5
161E1
  8
0
 10
395.66932245905809
 20
58.909075101837509
 30
0.0
 11
395.570675025725
 21
58.540917932987213
 31
0.0
  0
LINE
  5
161E3
  8
0
 10
394.42932721975558
 20
66.459082067012787
 30
0.0
 11
394.33067978642248
 21
66.090924898162484
 31
0.0
  0
LINE
  5
161E4
  8
0
 10
398.14332983040549
 20
60.026240767911069
 30
0.0
 11
397.77517266155519
 21
60.12488831765949
 31
0.0
  0
CIRCLE
  5
161FD
  8
0
 10
395.00000112274029
 20
62.5
 30
0.0
 40
5.9999999999999849
  0
CIRCLE
  5
161FE
  8
0
 10
395.00000112274029
 20
62.5
 30
0.0
 40
7.0
  0
CIRCLE
  5
16204
  8
0
 10
395.00000112274029
 20
62.5
 30
0.0
 40
12.500000000000011
  0
LINE
  5
16319
  8
3
 10
115.3000000484285
 20
116.50000008428469
 30
0.0
 11
115.3000000484285
 21
120.9999995888211
 31
0.0
  0
LINE
  5
1631A
  8
3
 10
115.50000067800281
 20
116.1535888323165
 30
0.0
 11
115.3000000484285
 21
116.50000008428469
 31
0.0
  0
LINE
  5
1631B
  8
0
 10
113.5000003501773
 20
116.50000008428469
 30
0.0
 11
115.50000067800281
 21
116.50000008428469
 31
0.0
  0
LINE
  5
1631C
  8
3
 10
113.70000004842861
 20
116.50000008428469
 30
0.0
 11
113.70000004842861
 21
120.9999995888211
 31
0.0
  0
LINE
  5
1631D
  8
3
 10
113.4999994188547
 20
116.1535888323165
 30
0.0
 11
113.70000004842861
 21
116.50000008428469
 31
0.0
  0
LINE
  5
1631E
  8
1
 10
114.5000000484287
 20
111.4999999892898
 30
0.0
 11
114.5000000484289
 21
122.9999995888211
 31
0.0
  0
LINE
  5
16320
  8
3
 10
131.05000030174821
 20
116.50000008428469
 30
0.0
 11
131.05000030174821
 21
120.9999995888211
 31
0.0
  0
LINE
  5
16321
  8
3
 10
131.25000093132249
 20
116.1535888323165
 30
0.0
 11
131.05000030174821
 21
116.50000008428469
 31
0.0
  0
LINE
  5
16322
  8
0
 10
129.250000603497
 20
116.50000008428469
 30
0.0
 11
131.25000093132249
 21
116.50000008428469
 31
0.0
  0
LINE
  5
16323
  8
3
 10
129.4500003017483
 20
116.50000008428469
 30
0.0
 11
129.4500003017483
 21
120.9999995888211
 31
0.0
  0
LINE
  5
16324
  8
3
 10
129.2499996721744
 20
116.1535888323165
 30
0.0
 11
129.4500003017483
 21
116.50000008428469
 31
0.0
  0
LINE
  5
16325
  8
1
 10
130.25000030174851
 20
111.4999999892898
 30
0.0
 11
130.2500003017486
 21
122.9999995888211
 31
0.0
  0
LINE
  5
16326
  8
1
 10
125.000000372529
 20
107.5
 30
0.0
 11
125.000000372529
 21
169.7999998332001
 31
0.0
  0
LINE
  5
163B5
  8
3
 10
72.393266865238274
 20
116.50000008428469
 30
0.0
 11
72.393266865238274
 21
120.9999995888211
 31
0.0
  0
LINE
  5
163B6
  8
3
 10
72.593267494812594
 20
116.1535888323165
 30
0.0
 11
72.393266865238274
 21
116.50000008428469
 31
0.0
  0
LINE
  5
163B7
  8
0
 10
70.593267166987062
 20
116.50000008428469
 30
0.0
 11
72.593267494812594
 21
116.50000008428469
 31
0.0
  0
LINE
  5
163B8
  8
3
 10
70.793266865238365
 20
116.50000008428469
 30
0.0
 11
70.793266865238365
 21
120.9999995888211
 31
0.0
  0
LINE
  5
163B9
  8
3
 10
70.593266235664487
 20
116.1535888323165
 30
0.0
 11
70.793266865238365
 21
116.50000008428469
 31
0.0
  0
LINE
  5
163BA
  8
1
 10
71.593266865238533
 20
111.4999999892898
 30
0.0
 11
71.593266865238661
 21
122.9999995888211
 31
0.0
  0
LINE
  5
163BB
  8
3
 10
63.300000186264242
 20
116.50000008428469
 30
0.0
 11
63.300000186264242
 21
120.9999995888211
 31
0.0
  0
LINE
  5
163BC
  8
3
 10
63.500000815838568
 20
116.1535888323165
 30
0.0
 11
63.300000186264242
 21
116.50000008428469
 31
0.0
  0
LINE
  5
163BD
  8
0
 10
61.500000488013022
 20
116.50000008428469
 30
0.0
 11
63.500000815838568
 21
116.50000008428469
 31
0.0
  0
LINE
  5
163BE
  8
3
 10
61.700000186264333
 20
116.50000008428469
 30
0.0
 11
61.700000186264333
 21
120.9999995888211
 31
0.0
  0
LINE
  5
163BF
  8
3
 10
61.499999556690447
 20
116.1535888323165
 30
0.0
 11
61.700000186264333
 21
116.50000008428469
 31
0.0
  0
LINE
  5
163C0
  8
1
 10
62.500000186264508
 20
107.5
 30
0.0
 11
62.50000018626497
 21
169.79999969014901
 31
0.0
  0
LINE
  5
163C1
  8
3
 10
54.20673350729021
 20
116.50000008428469
 30
0.0
 11
54.20673350729021
 21
120.9999995888211
 31
0.0
  0
LINE
  5
163C2
  8
3
 10
54.406734136864543
 20
116.1535888323165
 30
0.0
 11
54.20673350729021
 21
116.50000008428469
 31
0.0
  0
LINE
  5
163C3
  8
0
 10
52.40673380903899
 20
116.50000008428469
 30
0.0
 11
54.406734136864543
 21
116.50000008428469
 31
0.0
  0
LINE
  5
163C4
  8
3
 10
52.606733507290301
 20
116.50000008428469
 30
0.0
 11
52.606733507290301
 21
120.9999995888211
 31
0.0
  0
LINE
  5
163C5
  8
3
 10
52.406732877716422
 20
116.1535888323165
 30
0.0
 11
52.606733507290301
 21
116.50000008428469
 31
0.0
  0
LINE
  5
163C6
  8
1
 10
53.406733507290483
 20
111.4999999892898
 30
0.0
 11
53.406733507290589
 21
122.9999995888211
 31
0.0
  0
LINE
  5
16476
  8
3
 10
179.2067338798193
 20
116.50000008428469
 30
0.0
 11
179.2067338798193
 21
120.9999995888211
 31
0.0
  0
LINE
  5
16477
  8
3
 10
179.40673450939369
 20
116.1535888323165
 30
0.0
 11
179.2067338798193
 21
116.50000008428469
 31
0.0
  0
LINE
  5
16478
  8
0
 10
177.40673418156811
 20
116.50000008428469
 30
0.0
 11
179.40673450939369
 21
116.50000008428469
 31
0.0
  0
LINE
  5
16479
  8
3
 10
177.60673387981939
 20
116.50000008428469
 30
0.0
 11
177.60673387981939
 21
120.9999995888211
 31
0.0
  0
LINE
  5
1647A
  8
3
 10
177.40673325024551
 20
116.1535888323165
 30
0.0
 11
177.60673387981939
 21
116.50000008428469
 31
0.0
  0
LINE
  5
1647B
  8
1
 10
178.4067338798196
 20
111.4999999892898
 30
0.0
 11
178.40673387981971
 21
122.9999995888211
 31
0.0
  0
LINE
  5
1647C
  8
3
 10
197.39326723776739
 20
116.50000008428469
 30
0.0
 11
197.39326723776739
 21
120.9999995888211
 31
0.0
  0
LINE
  5
1647D
  8
3
 10
197.59326786734169
 20
116.1535888323165
 30
0.0
 11
197.39326723776739
 21
116.50000008428469
 31
0.0
  0
LINE
  5
1647E
  8
0
 10
195.59326753951621
 20
116.50000008428469
 30
0.0
 11
197.59326786734169
 21
116.50000008428469
 31
0.0
  0
LINE
  5
1647F
  8
3
 10
195.79326723776751
 20
116.50000008428469
 30
0.0
 11
195.79326723776751
 21
120.9999995888211
 31
0.0
  0
LINE
  5
16480
  8
3
 10
195.5932666081936
 20
116.1535888323165
 30
0.0
 11
195.79326723776751
 21
116.50000008428469
 31
0.0
  0
LINE
  5
16481
  8
1
 10
196.59326723776769
 20
111.4999999892898
 30
0.0
 11
196.5932672377678
 21
122.9999995888211
 31
0.0
  0
LINE
  5
16482
  8
1
 10
187.5000005587936
 20
169.79999969014901
 30
0.0
 11
187.5000005587936
 21
107.5
 31
0.0
  0
LINE
  5
164F1
  8
1
 10
125.000000372529
 20
235.2724245800448
 30
0.0
 11
125.000000372529
 21
194.32757517057121
 31
0.0
  0
LINE
  5
164F2
  8
1
 10
145.4724250772658
 20
214.799999875308
 30
0.0
 11
104.52757566779221
 21
214.799999875308
 31
0.0
  0
LINE
  5
1656C
  8
1
 10
125.000000372529
 20
82.973109937359524
 30
0.0
 11
125.000000372529
 21
42.026890062640462
 31
0.0
  0
LINE
  5
1656D
  8
1
 10
145.47311030988851
 20
62.5
 30
0.0
 11
104.52689043516951
 21
62.5
 31
0.0
  0
CIRCLE
  5
16577
  8
1
 10
125.000000372529
 20
62.5
 30
0.0
 40
10.50000000000011
  0
LINE
  5
16578
  8
1
 10
132.20000037252871
 20
74.970765814496019
 30
0.0
 11
128.30000037252881
 21
68.215767664977307
 31
0.0
  0
LINE
  5
16579
  8
1
 10
132.2000003725289
 20
50.029234185504151
 30
0.0
 11
128.3000003725289
 21
56.784232335022693
 31
0.0
  0
LINE
  5
16694
  8
1
 10
395.00000112274029
 20
158.2559993327595
 30
0.0
 11
395.00000112274029
 21
95.955999700818211
 31
0.0
  0
LINE
  5
166A5
  8
3
 10
385.3000007986397
 20
116.50000008428469
 30
0.0
 11
385.3000007986397
 21
120.9999995888211
 31
0.0
  0
LINE
  5
166A6
  8
3
 10
385.50000142821409
 20
116.1535888323165
 30
0.0
 11
385.3000007986397
 21
116.50000008428469
 31
0.0
  0
LINE
  5
166A7
  8
0
 10
383.50000110038849
 20
116.50000008428469
 30
0.0
 11
385.50000142821409
 21
116.50000008428469
 31
0.0
  0
LINE
  5
166A8
  8
3
 10
383.70000079863979
 20
116.50000008428469
 30
0.0
 11
383.70000079863979
 21
120.9999995888211
 31
0.0
  0
LINE
  5
166A9
  8
3
 10
383.50000016906603
 20
116.1535888323165
 30
0.0
 11
383.70000079863979
 21
116.50000008428469
 31
0.0
  0
LINE
  5
166AA
  8
1
 10
384.50000079863997
 20
111.4999999892898
 30
0.0
 11
384.50000079864031
 21
122.9999995888211
 31
0.0
  0
LINE
  5
166B5
  8
0
 10
398.35000076660231
 20
115.50000008428469
 30
0.0
 11
398.35000076660231
 21
113.4999999892898
 31
0.0
  0
LINE
  5
166B6
  8
0
 10
402.15000083067719
 20
113.4999999892898
 30
0.0
 11
402.15000083067719
 21
115.50000008428469
 31
0.0
  0
LINE
  5
166B7
  8
0
 10
401.25000142821381
 20
115.50000008428469
 30
0.0
 11
401.25000142821381
 21
120.9999995888211
 31
0.0
  0
LINE
  5
166B8
  8
0
 10
399.25000110038832
 20
120.9999995888211
 30
0.0
 11
399.25000110038832
 21
115.50000008428469
 31
0.0
  0
LINE
  5
166B9
  8
0
 10
398.35000076660231
 20
115.50000008428469
 30
0.0
 11
402.15000083067719
 21
115.50000008428469
 31
0.0
  0
LINE
  5
166BA
  8
0
 10
398.35000076660231
 20
113.4999999892898
 30
0.0
 11
402.15000083067719
 21
113.4999999892898
 31
0.0
  0
LINE
  5
166BB
  8
3
 10
401.05000079863947
 20
116.50000008428469
 30
0.0
 11
401.05000079863947
 21
120.9999995888211
 31
0.0
  0
LINE
  5
166BC
  8
3
 10
401.25000142821381
 20
116.1535888323165
 30
0.0
 11
401.05000079863947
 21
116.50000008428469
 31
0.0
  0
LINE
  5
166BD
  8
0
 10
399.25000110038832
 20
116.50000008428469
 30
0.0
 11
401.25000142821381
 21
116.50000008428469
 31
0.0
  0
LINE
  5
166BE
  8
3
 10
399.45000079863962
 20
116.50000008428469
 30
0.0
 11
399.45000079863962
 21
120.9999995888211
 31
0.0
  0
LINE
  5
166BF
  8
3
 10
399.25000016906569
 20
116.1535888323165
 30
0.0
 11
399.45000079863962
 21
116.50000008428469
 31
0.0
  0
LINE
  5
166C0
  8
1
 10
400.25000079863969
 20
111.4999999892898
 30
0.0
 11
400.25000079863997
 21
122.9999995888211
 31
0.0
  0
LINE
  5
166C1
  8
0
 10
399.25000110038832
 20
117.6535899401642
 30
0.0
 11
388.00000090667339
 21
117.6535899401642
 31
0.0
  0
LINE
  5
166C2
  8
0
 10
399.25000110038832
 20
118.0000000284053
 30
0.0
 11
388.2000010325882
 21
118.0000000284053
 31
0.0
  0
LINE
  5
166C3
  8
0
 10
399.25000110038832
 20
120.60000026831401
 30
0.0
 11
388.2000011227401
 21
120.6000002683141
 31
0.0
  0
LINE
  5
16789
  8
1
 10
332.5000009313228
 20
158.2559993327595
 30
0.0
 11
332.5000009313228
 21
95.955999700818211
 31
0.0
  0
LINE
  5
1682D
  8
1
 10
341.59326767105949
 20
122.9999995888211
 30
0.0
 11
341.59326767105949
 21
111.4999999892898
 31
0.0
  0
LINE
  5
1682E
  8
1
 10
323.40673419158639
 20
122.9999995888211
 30
0.0
 11
323.40673419158639
 21
111.4999999892898
 31
0.0
  0
LINE
  5
1682F
  8
3
 10
333.30000093132247
 20
116.50000008428469
 30
0.0
 11
333.30000093132247
 21
120.9999995888211
 31
0.0
  0
LINE
  5
16830
  8
3
 10
333.50000156089692
 20
116.1535888323165
 30
0.0
 11
333.30000093132247
 21
116.50000008428469
 31
0.0
  0
LINE
  5
16831
  8
0
 10
331.50000123307132
 20
116.50000008428469
 30
0.0
 11
333.50000156089692
 21
116.50000008428469
 31
0.0
  0
LINE
  5
16832
  8
3
 10
331.70000093132262
 20
116.50000008428469
 30
0.0
 11
331.70000093132262
 21
120.9999995888211
 31
0.0
  0
LINE
  5
16833
  8
3
 10
331.50000030174868
 20
116.1535888323165
 30
0.0
 11
331.70000093132262
 21
116.50000008428469
 31
0.0
  0
LINE
  5
1683E
  8
0
 10
321.5067341595489
 20
115.50000008428469
 30
0.0
 11
321.5067341595489
 21
113.4999999892898
 31
0.0
  0
LINE
  5
1683F
  8
0
 10
325.30673422362389
 20
113.4999999892898
 30
0.0
 11
325.30673422362389
 21
115.50000008428469
 31
0.0
  0
LINE
  5
16840
  8
0
 10
324.40673423908379
 20
115.50000008428469
 30
0.0
 11
324.40673423908379
 21
120.9999995888211
 31
0.0
  0
LINE
  5
16841
  8
0
 10
322.40673414408889
 20
120.9999995888211
 30
0.0
 11
322.40673414408889
 21
115.50000008428469
 31
0.0
  0
LINE
  5
16842
  8
0
 10
321.5067341595489
 20
115.50000008428469
 30
0.0
 11
325.30673422362389
 21
115.50000008428469
 31
0.0
  0
LINE
  5
16843
  8
0
 10
321.5067341595489
 20
113.4999999892898
 30
0.0
 11
325.30673422362389
 21
113.4999999892898
 31
0.0
  0
LINE
  5
16844
  8
3
 10
324.20673419158601
 20
116.50000008428469
 30
0.0
 11
324.20673419158601
 21
120.9999995888211
 31
0.0
  0
LINE
  5
16845
  8
3
 10
324.4067348211604
 20
116.1535888323165
 30
0.0
 11
324.20673419158601
 21
116.50000008428469
 31
0.0
  0
LINE
  5
16846
  8
0
 10
322.40673449333491
 20
116.50000008428469
 30
0.0
 11
324.4067348211604
 21
116.50000008428469
 31
0.0
  0
LINE
  5
16847
  8
3
 10
322.6067341915861
 20
116.50000008428469
 30
0.0
 11
322.6067341915861
 21
120.9999995888211
 31
0.0
  0
LINE
  5
16848
  8
3
 10
322.40673356201228
 20
116.1535888323165
 30
0.0
 11
322.6067341915861
 21
116.50000008428469
 31
0.0
  0
LINE
  5
16849
  8
0
 10
339.693267639022
 20
115.50000008428469
 30
0.0
 11
339.693267639022
 21
113.4999999892898
 31
0.0
  0
LINE
  5
1684A
  8
0
 10
343.49326770309699
 20
113.4999999892898
 30
0.0
 11
343.49326770309699
 21
115.50000008428469
 31
0.0
  0
LINE
  5
1684B
  8
0
 10
342.59326771855689
 20
115.50000008428469
 30
0.0
 11
342.59326771855689
 21
120.9999995888211
 31
0.0
  0
LINE
  5
1684C
  8
0
 10
340.59326762356199
 20
120.9999995888211
 30
0.0
 11
340.59326762356199
 21
115.50000008428469
 31
0.0
  0
LINE
  5
1684D
  8
0
 10
339.693267639022
 20
115.50000008428469
 30
0.0
 11
343.49326770309699
 21
115.50000008428469
 31
0.0
  0
LINE
  5
1684E
  8
0
 10
339.693267639022
 20
113.4999999892898
 30
0.0
 11
343.49326770309699
 21
113.4999999892898
 31
0.0
  0
LINE
  5
1684F
  8
3
 10
342.39326767105922
 20
116.50000008428469
 30
0.0
 11
342.39326767105922
 21
120.9999995888211
 31
0.0
  0
LINE
  5
16850
  8
3
 10
342.5932683006335
 20
116.1535888323165
 30
0.0
 11
342.39326767105922
 21
116.50000008428469
 31
0.0
  0
LINE
  5
16851
  8
0
 10
340.59326797280801
 20
116.50000008428469
 30
0.0
 11
342.5932683006335
 21
116.50000008428469
 31
0.0
  0
LINE
  5
16852
  8
3
 10
340.79326767105931
 20
116.50000008428469
 30
0.0
 11
340.79326767105931
 21
120.9999995888211
 31
0.0
  0
LINE
  5
16853
  8
3
 10
340.59326704148538
 20
116.1535888323165
 30
0.0
 11
340.79326767105931
 21
116.50000008428469
 31
0.0
  0
LINE
  5
16967
  8
1
 10
457.5000013038516
 20
158.2559993327595
 30
0.0
 11
457.5000013038516
 21
95.955999700818211
 31
0.0
  0
LINE
  5
16A09
  8
0
 10
446.50673453207742
 20
115.50000008428469
 30
0.0
 11
446.50673453207742
 21
113.4999999892898
 31
0.0
  0
LINE
  5
16A0A
  8
0
 10
450.30673459615241
 20
113.4999999892898
 30
0.0
 11
450.30673459615241
 21
115.50000008428469
 31
0.0
  0
LINE
  5
16A0B
  8
0
 10
449.40673519368892
 20
115.50000008428469
 30
0.0
 11
449.40673519368892
 21
120.9999995888211
 31
0.0
  0
LINE
  5
16A0C
  8
0
 10
447.40673486586343
 20
120.9999995888211
 30
0.0
 11
447.40673486586343
 21
115.50000008428469
 31
0.0
  0
LINE
  5
16A0D
  8
0
 10
446.50673453207742
 20
115.50000008428469
 30
0.0
 11
450.30673459615241
 21
115.50000008428469
 31
0.0
  0
LINE
  5
16A0E
  8
0
 10
446.50673453207742
 20
113.4999999892898
 30
0.0
 11
450.30673459615241
 21
113.4999999892898
 31
0.0
  0
LINE
  5
16A0F
  8
3
 10
449.20673456411458
 20
116.50000008428469
 30
0.0
 11
449.20673456411458
 21
120.9999995888211
 31
0.0
  0
LINE
  5
16A10
  8
3
 10
449.40673519368892
 20
116.1535888323165
 30
0.0
 11
449.20673456411458
 21
116.50000008428469
 31
0.0
  0
LINE
  5
16A11
  8
0
 10
447.40673486586343
 20
116.50000008428469
 30
0.0
 11
449.40673519368892
 21
116.50000008428469
 31
0.0
  0
LINE
  5
16A12
  8
3
 10
447.60673456411467
 20
116.50000008428469
 30
0.0
 11
447.60673456411467
 21
120.9999995888211
 31
0.0
  0
LINE
  5
16A13
  8
3
 10
447.4067339345408
 20
116.1535888323165
 30
0.0
 11
447.60673456411467
 21
116.50000008428469
 31
0.0
  0
LINE
  5
16A14
  8
1
 10
448.40673456411491
 20
111.4999999892898
 30
0.0
 11
448.40673456411508
 21
122.9999995888211
 31
0.0
  0
LINE
  5
16A15
  8
0
 10
464.69326801155051
 20
115.50000008428469
 30
0.0
 11
464.69326801155051
 21
113.4999999892898
 31
0.0
  0
LINE
  5
16A16
  8
0
 10
468.49326807562551
 20
113.4999999892898
 30
0.0
 11
468.49326807562551
 21
115.50000008428469
 31
0.0
  0
LINE
  5
16A17
  8
0
 10
467.59326867316207
 20
115.50000008428469
 30
0.0
 11
467.59326867316207
 21
120.9999995888211
 31
0.0
  0
LINE
  5
16A18
  8
0
 10
465.59326834533653
 20
120.9999995888211
 30
0.0
 11
465.59326834533653
 21
115.50000008428469
 31
0.0
  0
LINE
  5
16A19
  8
0
 10
464.69326801155051
 20
115.50000008428469
 30
0.0
 11
468.49326807562551
 21
115.50000008428469
 31
0.0
  0
LINE
  5
16A1A
  8
0
 10
464.69326801155051
 20
113.4999999892898
 30
0.0
 11
468.49326807562551
 21
113.4999999892898
 31
0.0
  0
LINE
  5
16A1B
  8
3
 10
467.3932680435878
 20
116.50000008428469
 30
0.0
 11
467.3932680435878
 21
120.9999995888211
 31
0.0
  0
LINE
  5
16A1C
  8
3
 10
467.59326867316207
 20
116.1535888323165
 30
0.0
 11
467.3932680435878
 21
116.50000008428469
 31
0.0
  0
LINE
  5
16A1D
  8
0
 10
465.59326834533653
 20
116.50000008428469
 30
0.0
 11
467.59326867316207
 21
116.50000008428469
 31
0.0
  0
LINE
  5
16A1E
  8
3
 10
465.79326804358777
 20
116.50000008428469
 30
0.0
 11
465.79326804358777
 21
120.9999995888211
 31
0.0
  0
LINE
  5
16A1F
  8
3
 10
465.59326741401401
 20
116.1535888323165
 30
0.0
 11
465.79326804358777
 21
116.50000008428469
 31
0.0
  0
LINE
  5
16A20
  8
1
 10
466.59326804358801
 20
111.4999999892898
 30
0.0
 11
466.5932680435883
 21
122.9999995888211
 31
0.0
  0
LINE
  5
16A84
  8
1
 10
395.00000112274029
 20
235.29999987530809
 30
0.0
 11
395.00000112274029
 21
194.29999987530789
 31
0.0
  0
LINE
  5
16A85
  8
1
 10
415.50000112274029
 20
214.799999875308
 30
0.0
 11
374.50000112274029
 21
214.799999875308
 31
0.0
  0
LINE
  5
16A89
  8
1
 10
412.75352190032129
 20
204.54999987530809
 30
0.0
 11
377.24648034515923
 21
225.04999987530809
 31
0.0
  0
CIRCLE
  5
16AD8
  8
0
 10
395.00000112274029
 20
62.5
 30
0.0
 40
4.0
  0
LINE
  5
16AF7
  8
0
 10
399.80399833389828
 20
70.820766736514258
 30
0.0
 11
400.69600419470379
 21
70.820766736514258
 31
0.0
  0
LINE
  5
16AF8
  8
0
 10
400.69600419470379
 20
70.820766736514258
 30
0.0
 11
401.14200712510649
 21
71.593266739736634
 31
0.0
  0
LINE
  5
16AF9
  8
0
 10
401.14200712510649
 20
71.593266739736634
 30
0.0
 11
400.69600419470379
 21
72.365766742959011
 31
0.0
  0
LINE
  5
16AFA
  8
0
 10
400.69600419470379
 20
72.365766742959011
 30
0.0
 11
399.80399833389828
 21
72.365766742959011
 31
0.0
  0
LINE
  5
16AFB
  8
0
 10
399.80399833389828
 20
72.365766742959011
 30
0.0
 11
399.35799540349558
 21
71.593266739736634
 31
0.0
  0
LINE
  5
16AFC
  8
0
 10
399.35799540349558
 20
71.593266739736634
 30
0.0
 11
399.80399833389828
 21
70.820766736514258
 31
0.0
  0
CIRCLE
  5
16AFD
  8
0
 10
400.25000112274
 20
71.593266739736634
 30
0.0
 40
1.899999999999991
  0
LINE
  5
16AFE
  8
0
 10
399.80399833389862
 20
52.634233257041039
 30
0.0
 11
400.69600419470402
 21
52.634233257041039
 31
0.0
  0
LINE
  5
16AFF
  8
0
 10
400.69600419470402
 20
52.634233257041039
 30
0.0
 11
401.14200712510677
 21
53.406733260263422
 31
0.0
  0
LINE
  5
16B00
  8
0
 10
401.14200712510677
 20
53.406733260263422
 30
0.0
 11
400.69600419470402
 21
54.179233263485798
 31
0.0
  0
LINE
  5
16B01
  8
0
 10
400.69600419470402
 20
54.179233263485798
 30
0.0
 11
399.80399833389862
 21
54.179233263485798
 31
0.0
  0
LINE
  5
16B02
  8
0
 10
399.80399833389862
 20
54.179233263485798
 30
0.0
 11
399.35799540349581
 21
53.406733260263422
 31
0.0
  0
LINE
  5
16B03
  8
0
 10
399.35799540349581
 20
53.406733260263422
 30
0.0
 11
399.80399833389862
 21
52.634233257041039
 31
0.0
  0
CIRCLE
  5
16B04
  8
0
 10
400.25000112274017
 20
53.406733260263422
 30
0.0
 40
1.899999999999991
  0
LINE
  5
16B36
  8
1
 10
395.00000112274029
 20
83.0
 30
0.0
 11
395.00000112274029
 21
42.0
 31
0.0
  0
LINE
  5
16B37
  8
1
 10
415.50000112274029
 20
62.5
 30
0.0
 11
374.50000112274029
 21
62.5
 31
0.0
  0
LINE
  5
16B40
  8
1
 10
412.75352190032129
 20
72.749999999999886
 30
0.0
 11
377.24648034515923
 21
52.249999999999879
 31
0.0
  0
CIRCLE
  5
16B41
  8
1
 10
395.00000112274029
 20
62.5
 30
0.0
 40
10.5
  0
LINE
  5
16B50
  8
1
 10
402.20000112273982
 20
74.970765814495905
 30
0.0
 11
398.30000112274001
 21
68.215767664977363
 31
0.0
  0
LINE
  5
16B51
  8
1
 10
398.3000011227403
 20
56.78423233502275
 30
0.0
 11
402.20000112274028
 21
50.029234185503981
 31
0.0
  0
LINE
  5
16C0D
  8
0
 10
240.5000001550917
 20
-96.373270445643016
 30
0.0
 11
240.5000001550917
 21
-103.3732704456429
 31
0.0
  0
LINE
  5
16C0F
  8
0
 10
272.5000006915335
 20
-95.373270445642959
 30
0.0
 11
222.49999884378951
 21
-95.373270445642959
 31
0.0
  0
LINE
  5
16C10
  8
0
 10
272.5000006915335
 20
-104.3732704456429
 30
0.0
 11
222.49999884378951
 21
-104.3732704456429
 31
0.0
  0
LINE
  5
16C11
  8
1
 10
247.49999953532301
 20
-92.373270445642945
 30
0.0
 11
247.49999953532301
 21
-107.3732704456429
 31
0.0
  0
LINE
  5
16C12
  8
1
 10
236.99999910318931
 20
-93.373270445642902
 30
0.0
 11
236.99999910318931
 21
-106.3732704456429
 31
0.0
  0
LINE
  5
16C13
  8
0
 10
254.4999989155543
 20
-96.373270445642945
 30
0.0
 11
254.4999989155543
 21
-103.373270445643
 31
0.0
  0
LINE
  5
16C14
  8
0
 10
239.5000001550917
 20
-95.373270445642959
 30
0.0
 11
240.5000001550917
 21
-96.373270445642959
 31
0.0
  0
LINE
  5
16C15
  8
0
 10
255.4999989155543
 20
-95.373270445642959
 30
0.0
 11
254.4999989155543
 21
-96.373270445642959
 31
0.0
  0
LINE
  5
16C16
  8
0
 10
239.5000001550917
 20
-104.3732704456429
 30
0.0
 11
240.5000001550917
 21
-103.3732704456429
 31
0.0
  0
LINE
  5
16C17
  8
0
 10
255.4999989155543
 20
-104.3732704456429
 30
0.0
 11
254.4999989155543
 21
-103.3732704456429
 31
0.0
  0
LINE
  5
16C18
  8
0
 10
240.5000001550917
 20
-96.373270445642987
 30
0.0
 11
254.4999989155543
 21
-96.373270445642987
 31
0.0
  0
LINE
  5
16C19
  8
0
 10
240.5000001550917
 20
-103.373270445643
 30
0.0
 11
254.4999989155543
 21
-103.373270445643
 31
0.0
  0
LINE
  5
16C1A
  8
0
 10
235.79999953532291
 20
-95.873270445643186
 30
0.0
 11
235.29999953532291
 21
-95.373270445643186
 31
0.0
  0
LINE
  5
16C1B
  8
0
 10
239.19999953532309
 20
-100.8732704456429
 30
0.0
 11
234.799999535323
 21
-100.8732704456429
 31
0.0
  0
LINE
  5
16C1C
  8
0
 10
234.799999535323
 20
-103.873270445643
 30
0.0
 11
234.299999535323
 21
-104.3732704456429
 31
0.0
  0
LINE
  5
16C1D
  8
0
 10
234.799999535323
 20
-100.8732704456429
 30
0.0
 11
234.799999535323
 21
-103.873270445643
 31
0.0
  0
LINE
  5
16C1E
  8
0
 10
235.79999953532291
 20
-100.8732699501796
 30
0.0
 11
235.79999953532291
 21
-95.873270445643186
 31
0.0
  0
LINE
  5
16C1F
  8
0
 10
238.1999995353234
 20
-100.87326995017909
 30
0.0
 11
238.1999995353234
 21
-95.873270445642703
 31
0.0
  0
LINE
  5
16C20
  8
0
 10
239.19999953532309
 20
-100.8732704456429
 30
0.0
 11
239.19999953532309
 21
-103.8732704456429
 31
0.0
  0
LINE
  5
16C21
  8
0
 10
238.1999995353234
 20
-95.873270445642746
 30
0.0
 11
238.6999995353234
 21
-95.373270445642731
 31
0.0
  0
LINE
  5
16C22
  8
0
 10
239.19999953532309
 20
-103.873270445643
 30
0.0
 11
239.59999984520749
 21
-104.27327075552719
 31
0.0
  0
LINE
  5
16C23
  8
0
 10
235.79999953532271
 20
-95.873270445642859
 30
0.0
 11
238.19999953532329
 21
-95.873270445643186
 31
0.0
  0
LINE
  5
16C24
  8
0
 10
234.799999535323
 20
-103.873270445643
 30
0.0
 11
239.19999953532309
 21
-103.873270445643
 31
0.0
  0
LINE
  5
16C25
  8
1
 10
247.49999953532301
 20
-67.594764855300554
 30
0.0
 11
247.49999953532301
 21
-36.594764855300546
 31
0.0
  0
LINE
  5
16C26
  8
1
 10
262.99999953532301
 20
-52.094764855300539
 30
0.0
 11
231.99999953532301
 21
-52.094764855300539
 31
0.0
  0
CIRCLE
  5
16C27
  8
0
 10
247.49999953532301
 20
-52.094764855300539
 30
0.0
 40
7.0
  0
CIRCLE
  5
16C28
  8
1
 10
247.49999953532301
 20
-52.094764855300539
 30
0.0
 40
10.5
  0
CIRCLE
  5
16C29
  8
0
 10
236.99999953532301
 20
-52.094764855300539
 30
0.0
 40
1.1999999999999991
  0
CIRCLE
  5
16C2A
  8
2
 10
236.99999953532301
 20
-52.094764855300539
 30
0.0
 40
2.2000000000000002
  0
LINE
  5
16C2B
  8
1
 10
250.64999953532299
 20
-57.550724899142509
 30
0.0
 11
254.84999953532309
 21
-64.825338290931782
 31
0.0
  0
CIRCLE
  5
16C2C
  8
0
 10
252.74999953532301
 20
-61.188031595037138
 30
0.0
 40
1.1999999999999991
  0
CIRCLE
  5
16C2D
  8
2
 10
252.74999953532301
 20
-61.188031595037138
 30
0.0
 40
2.2000000000000002
  0
LINE
  5
16C2E
  8
1
 10
250.64999953532291
 20
-46.638804811458527
 30
0.0
 11
254.84999953532309
 21
-39.364191419669311
 31
0.0
  0
CIRCLE
  5
16C2F
  8
0
 10
252.74999953532301
 20
-43.00149811556394
 30
0.0
 40
1.1999999999999991
  0
CIRCLE
  5
16C30
  8
2
 10
252.74999953532301
 20
-43.00149811556394
 30
0.0
 40
2.2000000000000002
  0
LINE
  5
16DE2
  8
0
 10
320.09999925878651
 20
-254.74510568415741
 30
0.0
 11
320.09999925878651
 21
-256.74510577915231
 31
0.0
  0
LINE
  5
16DE3
  8
0
 10
323.8999993228615
 20
-256.74510577915231
 30
0.0
 11
323.8999993228615
 21
-254.74510568415741
 31
0.0
  0
LINE
  5
16DE4
  8
0
 10
322.99999992039812
 20
-254.74510568415741
 30
0.0
 11
322.99999992039812
 21
-252.24510620569811
 31
0.0
  0
LINE
  5
16DE5
  8
0
 10
320.99999959257252
 20
-252.24510620569811
 30
0.0
 11
320.99999959257252
 21
-254.74510568415741
 31
0.0
  0
LINE
  5
16DEA
  8
0
 10
343.0985283311532
 20
-205.84493754638481
 30
0.0
 11
342.08284604039801
 21
-205.47525857796879
 31
0.0
  0
LINE
  5
16DEB
  8
0
 10
322.91715303361548
 20
-205.47525948179791
 30
0.0
 11
321.90147089869538
 21
-205.84493754638481
 31
0.0
  0
ARC
  5
16DEC
  8
0
 10
321.02688667977918
 20
-220.44510689813231
 30
0.0
 40
0.4999970642049957
 50
176.9998554627812
 51
270.00034257235689
  0
ARC
  5
16DED
  8
0
 10
343.97310955228357
 20
-220.44510579219079
 30
0.0
 40
0.5
 50
270.0
 51
2.9999999999958149
  0
LINE
  5
16DEE
  8
0
 10
321.24486106124527
 20
-206.73229445924969
 30
0.0
 11
320.52757491018718
 21
-220.41893781406941
 31
0.0
  0
LINE
  5
16DEF
  8
0
 10
344.4724241891206
 20
-220.41893650999279
 30
0.0
 11
343.75513816860331
 21
-206.73229445924969
 31
0.0
  0
ARC
  5
16DF0
  8
0
 10
322.24349185528013
 20
-206.78463125625649
 30
0.0
 40
1.0000013015569491
 50
110.0000224441149
 51
176.99995566997441
  0
ARC
  5
16DF1
  8
0
 10
342.75650737456789
 20
-206.7846312562568
 30
0.0
 40
1.000001301557311
 50
3.000044330041947
 51
69.999977555878061
  0
ARC
  5
16DF2
  8
0
 10
341.9118338323774
 20
-205.94513199207319
 30
0.0
 40
0.5000261998877555
 50
70.000832177096513
 51
89.999738218638484
  0
ARC
  5
16DF3
  8
0
 10
323.08816065894081
 20
-205.9450966623333
 30
0.0
 40
0.4999905840441605
 50
89.999772914129494
 51
110.0000944011222
  0
LINE
  5
16DF4
  8
0
 10
344.99999980118878
 20
-248.7451060976646
 30
0.0
 11
344.99999980118878
 21
-235.9871202450058
 31
0.0
  0
LINE
  5
16DF5
  8
0
 10
319.99999942865969
 20
-235.9871202450058
 30
0.0
 11
319.99999942865969
 21
-248.7451060976646
 31
0.0
  0
LINE
  5
16DF6
  8
0
 10
319.99999942865969
 20
-248.7451060976646
 30
0.0
 11
320.49999951061608
 21
-249.24510617962099
 31
0.0
  0
LINE
  5
16DF7
  8
0
 10
344.49999971923239
 20
-249.24510617962099
 30
0.0
 11
344.99999980118878
 21
-248.7451060976646
 31
0.0
  0
ARC
  5
16DF8
  8
0
 10
320.49999961492432
 20
-235.9871202640943
 30
0.0
 40
0.500000000000012
 50
110.0000000000035
 51
180.0
  0
ARC
  5
16DF9
  8
0
 10
344.49999961492432
 20
-235.9871202640943
 30
0.0
 40
0.5000000000000169
 50
0.0
 51
69.999999999996504
  0
LINE
  5
16DFA
  8
0
 10
344.67101010170592
 20
-235.51727359404779
 30
0.0
 11
342.26319200035942
 21
-234.6408990513346
 31
0.0
  0
LINE
  5
16DFB
  8
0
 10
322.73680722948922
 20
-234.6408990513346
 30
0.0
 11
320.32898912814272
 21
-235.51727359404779
 31
0.0
  0
ARC
  5
16DFC
  8
0
 10
342.39999961492413
 20
-234.2650227769069
 30
0.0
 40
0.4000000000000057
 50
180.0
 51
249.9999999999965
  0
ARC
  5
16DFD
  8
0
 10
322.59999961492417
 20
-234.2650227769069
 30
0.0
 40
0.3999999999999915
 50
290.00000000000341
 51
0.0
  0
LINE
  5
16DFE
  8
0
 10
341.99999930945052
 20
-234.2650228481553
 30
0.0
 11
341.99999930945052
 21
-220.9451039623282
 31
0.0
  0
LINE
  5
16DFF
  8
0
 10
322.99999992039812
 20
-220.9451039623282
 30
0.0
 11
322.99999992039812
 21
-234.2650228481553
 31
0.0
  0
LINE
  5
16E02
  8
0
 10
325.49999939885743
 20
-256.74510577915231
 30
0.0
 11
326.4999995627702
 21
-257.7451057684421
 31
0.0
  0
LINE
  5
16E03
  8
0
 10
338.49999966707833
 20
-257.7451057684421
 30
0.0
 11
339.4999998309911
 21
-256.74510577915231
 31
0.0
  0
LINE
  5
16E06
  8
0
 10
339.4999998309911
 20
-252.59151582827789
 30
0.0
 11
339.29999970507629
 21
-252.24510574003679
 31
0.0
  0
LINE
  5
16E07
  8
0
 10
325.69999952477218
 20
-252.24510574003679
 30
0.0
 11
325.49999939885743
 21
-252.59151582827789
 31
0.0
  0
LINE
  5
16E0B
  8
0
 10
320.09999925878651
 20
-256.74510577915231
 30
0.0
 11
323.8999993228615
 21
-256.74510577915231
 31
0.0
  0
LINE
  5
16E10
  8
0
 10
343.97310955228357
 20
-220.94510579219079
 30
0.0
 11
321.02688966926939
 21
-220.9451039623282
 31
0.0
  0
LINE
  5
16E11
  8
0
 10
323.08816264060152
 20
-205.44510607829309
 30
0.0
 11
341.91183611697062
 21
-205.44510579219079
 31
0.0
  0
ARC
  5
16E13
  8
0
 10
330.11606158488621
 20
-238.341562621268
 30
0.0
 40
1.8876251922317679
 50
139.0017865900063
 51
183.0212046931145
  0
ARC
  5
16E14
  8
0
 10
330.11706951402198
 20
-238.54019411367659
 30
0.0
 40
1.888613573276547
 50
176.9908620650088
 51
220.98609756473471
  0
POLYLINE
  5
16E15
  8
0
 66
     1
 10
0.0
 20
0.0
 30
0.0
 70
   128
  0
VERTEX
  5
17D40
  8
0
 10
329.68793955308212
 20
-240.2045660953782
 30
0.0
  0
VERTEX
  5
17D41
  8
0
 10
329.14438500677062
 20
-240.09851080587131
 30
0.0
  0
VERTEX
  5
17D42
  8
0
 10
328.69141415369518
 20
-239.778890211489
 30
0.0
  0
SEQEND
  5
17D43
  8
0
  0
POLYLINE
  5
16E16
  8
0
 66
     1
 10
0.0
 20
0.0
 30
0.0
 70
   128
  0
VERTEX
  5
17D44
  8
0
 10
330.70368791607029
 20
-239.778890211489
 30
0.0
  0
VERTEX
  5
17D45
  8
0
 10
330.23715630781658
 20
-240.09851080587131
 30
0.0
  0
VERTEX
  5
17D46
  8
0
 10
329.68793955308212
 20
-240.2045660953782
 30
0.0
  0
SEQEND
  5
17D47
  8
0
  0
ARC
  5
16E17
  8
0
 10
329.34478956291809
 20
-238.5326252894138
 30
0.0
 40
1.8438495031304949
 50
317.47562362168088
 51
2.8467530412775721
  0
ARC
  5
16E18
  8
0
 10
329.3457643249742
 20
-238.34912660522801
 30
0.0
 40
1.842893367002254
 50
357.14087536529382
 51
42.536798903419466
  0
POLYLINE
  5
16E19
  8
0
 66
     1
 10
0.0
 20
0.0
 30
0.0
 70
   128
  0
VERTEX
  5
17D48
  8
0
 10
329.68793955308212
 20
-236.67753760924549
 30
0.0
  0
VERTEX
  5
17D49
  8
0
 10
330.23715630781658
 20
-236.78359103610731
 30
0.0
  0
VERTEX
  5
17D4A
  8
0
 10
330.70368791607029
 20
-237.10321349313469
 30
0.0
  0
SEQEND
  5
17D4B
  8
0
  0
POLYLINE
  5
16E1A
  8
0
 66
     1
 10
0.0
 20
0.0
 30
0.0
 70
   128
  0
VERTEX
  5
17D4C
  8
0
 10
328.69141415369518
 20
-237.10321349313469
 30
0.0
  0
VERTEX
  5
17D4D
  8
0
 10
329.14438500677062
 20
-236.78359103610731
 30
0.0
  0
VERTEX
  5
17D4E
  8
0
 10
329.68793955308212
 20
-236.67753760924549
 30
0.0
  0
SEQEND
  5
17D4F
  8
0
  0
LINE
  5
16E1B
  8
0
 10
336.96169039842488
 20
-236.71807808091859
 30
0.0
 11
334.70610116285093
 21
-236.71807808091859
 31
0.0
  0
LINE
  5
16E1C
  8
0
 10
334.70610116285093
 20
-240.18429492821909
 30
0.0
 11
334.70610116285093
 21
-236.71807808091859
 31
0.0
  0
LINE
  5
16E1D
  8
0
 10
335.1765601584018
 20
-240.18429492821909
 30
0.0
 11
334.70610116285093
 21
-240.18429492821909
 31
0.0
  0
LINE
  5
16E1E
  8
0
 10
335.1765601584018
 20
-238.6219826828501
 30
0.0
 11
335.1765601584018
 21
-240.18429492821909
 31
0.0
  0
LINE
  5
16E1F
  8
0
 10
336.58070961621411
 20
-238.6219826828501
 30
0.0
 11
335.1765601584018
 21
-238.6219826828501
 31
0.0
  0
LINE
  5
16E20
  8
0
 10
336.58070961621411
 20
-238.2383485626242
 30
0.0
 11
336.58070961621411
 21
-238.6219826828501
 31
0.0
  0
LINE
  5
16E21
  8
0
 10
336.58070961621411
 20
-238.2383485626242
 30
0.0
 11
335.1765601584018
 21
-238.2383485626242
 31
0.0
  0
LINE
  5
16E22
  8
0
 10
335.1765601584018
 20
-237.10171220114449
 30
0.0
 11
335.1765601584018
 21
-238.2383485626242
 31
0.0
  0
LINE
  5
16E23
  8
0
 10
336.96169039842488
 20
-237.10171220114449
 30
0.0
 11
335.1765601584018
 21
-237.10171220114449
 31
0.0
  0
LINE
  5
16E24
  8
0
 10
336.96169039842488
 20
-236.71807808091859
 30
0.0
 11
336.96169039842488
 21
-237.10171220114449
 31
0.0
  0
LINE
  5
16E25
  8
0
 10
334.22198362325139
 20
-236.71807808091859
 30
0.0
 11
331.88313315997652
 21
-236.71807808091859
 31
0.0
  0
LINE
  5
16E26
  8
0
 10
331.88313315997652
 20
-240.18429492821909
 30
0.0
 11
331.88313315997652
 21
-236.71807808091859
 31
0.0
  0
LINE
  5
16E27
  8
0
 10
332.36261499780522
 20
-240.18429492821909
 30
0.0
 11
331.88313315997652
 21
-240.18429492821909
 31
0.0
  0
LINE
  5
16E28
  8
0
 10
332.36261499780522
 20
-238.6219826828501
 30
0.0
 11
332.36261499780522
 21
-240.18429492821909
 31
0.0
  0
LINE
  5
16E29
  8
0
 10
333.81960814961047
 20
-238.6219826828501
 30
0.0
 11
332.36261499780522
 21
-238.6219826828501
 31
0.0
  0
LINE
  5
16E2A
  8
0
 10
333.81960814961047
 20
-238.2383485626242
 30
0.0
 11
333.81960814961047
 21
-238.6219826828501
 31
0.0
  0
LINE
  5
16E2B
  8
0
 10
333.81960814961047
 20
-238.2383485626242
 30
0.0
 11
332.36261499780522
 21
-238.2383485626242
 31
0.0
  0
LINE
  5
16E2C
  8
0
 10
332.36261499780522
 20
-237.10171220114449
 30
0.0
 11
332.36261499780522
 21
-238.2383485626242
 31
0.0
  0
LINE
  5
16E2D
  8
0
 10
334.22198362325139
 20
-237.10171220114449
 30
0.0
 11
332.36261499780522
 21
-237.10171220114449
 31
0.0
  0
LINE
  5
16E2E
  8
0
 10
334.22198362325139
 20
-236.71807808091859
 30
0.0
 11
334.22198362325139
 21
-237.10171220114449
 31
0.0
  0
POLYLINE
  5
16E2F
  8
0
 66
     1
 10
0.0
 20
0.0
 30
0.0
 70
   128
  0
VERTEX
  5
17D50
  8
0
 10
324.11725545910008
 20
-236.7451050620339
 30
0.0
  0
VERTEX
  5
17D51
  8
0
 10
325.12437651541842
 20
-237.49510658195231
 30
0.0
  0
VERTEX
  5
17D52
  8
0
 10
326.21108234536649
 20
-238.24510623922561
 30
0.0
  0
SEQEND
  5
17D53
  8
0
  0
LINE
  5
16E30
  8
0
 10
324.11725545910008
 20
-237.49510658195231
 30
0.0
 11
324.11725545910008
 21
-236.7451050620339
 31
0.0
  0
LINE
  5
16E31
  8
0
 10
324.11725545910008
 20
-237.49510658195231
 30
0.0
 11
320.27839130398638
 21
-237.49510658195231
 31
0.0
  0
LINE
  5
16E32
  8
0
 10
320.27839130398638
 20
-236.7451050620339
 30
0.0
 11
320.27839130398638
 21
-237.49510658195231
 31
0.0
  0
POLYLINE
  5
16E33
  8
0
 66
     1
 10
0.0
 20
0.0
 30
0.0
 70
   128
  0
VERTEX
  5
17D54
  8
0
 10
320.00008045372368
 20
-238.24510623922561
 30
0.0
  0
VERTEX
  5
17D55
  8
0
 10
320.07218624141819
 20
-237.49510658195231
 30
0.0
  0
VERTEX
  5
17D56
  8
0
 10
320.27839130398638
 20
-236.7451050620339
 30
0.0
  0
SEQEND
  5
17D57
  8
0
  0
POLYLINE
  5
16E34
  8
0
 66
     1
 10
0.0
 20
0.0
 30
0.0
 70
   128
  0
VERTEX
  5
17D58
  8
0
 10
320.27839130398638
 20
-239.74510555377219
 30
0.0
  0
VERTEX
  5
17D59
  8
0
 10
320.07218624141819
 20
-238.9951058964989
 30
0.0
  0
VERTEX
  5
17D5A
  8
0
 10
320.00008045372368
 20
-238.24510623922561
 30
0.0
  0
SEQEND
  5
17D5B
  8
0
  0
LINE
  5
16E35
  8
0
 10
320.27839130398638
 20
-238.9951058964989
 30
0.0
 11
320.27839130398638
 21
-239.74510555377219
 31
0.0
  0
LINE
  5
16E36
  8
0
 10
324.11725545910008
 20
-238.9951058964989
 30
0.0
 11
320.27839130398638
 21
-238.9951058964989
 31
0.0
  0
LINE
  5
16E37
  8
0
 10
324.11725545910008
 20
-239.74510555377219
 30
0.0
 11
324.11725545910008
 21
-238.9951058964989
 31
0.0
  0
POLYLINE
  5
16E38
  8
0
 66
     1
 10
0.0
 20
0.0
 30
0.0
 70
   128
  0
VERTEX
  5
17D5C
  8
0
 10
326.21108234536649
 20
-238.24510623922561
 30
0.0
  0
VERTEX
  5
17D5D
  8
0
 10
325.12437651541842
 20
-238.9951058964989
 30
0.0
  0
VERTEX
  5
17D5E
  8
0
 10
324.11725545910008
 20
-239.74510555377219
 30
0.0
  0
SEQEND
  5
17D5F
  8
0
  0
ARC
  5
16E3A
  8
0
 10
329.27093838794758
 20
-238.57828429667671
 30
0.0
 40
1.4393068504451489
 50
319.37754983964072
 51
5.4712835271052054
  0
ARC
  5
16E3B
  8
0
 10
329.68528827111891
 20
-237.97085200444289
 30
0.0
 40
0.9081828529677796
 50
41.697778854760863
 51
89.832734694277434
  0
ARC
  5
16E3C
  8
0
 10
329.27093915940691
 20
-238.30381892565561
 30
0.0
 40
1.439305950888573
 50
354.52876824344651
 51
40.622455582527138
  0
ARC
  5
16E3D
  8
0
 10
329.68230597369529
 20
-238.90462653498599
 30
0.0
 40
0.9148214944657839
 50
270.35283644349971
 51
318.11665000745279
  0
ARC
  5
16E3E
  8
0
 10
329.68868579601423
 20
-238.93437014597441
 30
0.0
 40
0.8850608517866806
 50
221.0303638451208
 51
269.95169080691898
  0
ARC
  5
16E3F
  8
0
 10
330.14658740569081
 20
-238.5823143673833
 30
0.0
 40
1.4620138695000979
 50
174.45528768197269
 51
219.6579625339194
  0
ARC
  5
16E40
  8
0
 10
330.14658658986332
 20
-238.299788842016
 30
0.0
 40
1.4620129253669369
 50
140.3420320028022
 51
185.54466206923641
  0
ARC
  5
16E41
  8
0
 10
329.69114167950062
 20
-237.95312026747251
 30
0.0
 40
0.8904530035559614
 50
90.206039761714479
 51
138.81190558623589
  0
LINE
  5
16E42
  8
0
 10
338.49999966707833
 20
-257.7451057684421
 30
0.0
 11
326.4999995627702
 21
-257.7451057684421
 31
0.0
  0
LINE
  5
16E43
  8
0
 10
325.49999939885743
 20
-256.74510577915231
 30
0.0
 11
339.49999899515558
 21
-256.74510577915231
 31
0.0
  0
LINE
  5
16E44
  8
0
 10
339.4999998309911
 20
-252.59151582827789
 30
0.0
 11
325.49999939885743
 21
-252.59151582827789
 31
0.0
  0
ARC
  5
16E49
  8
0
 10
334.20974525534422
 20
-220.45796798301191
 30
0.0
 40
0.4874205324402663
 50
271.95789108894758
 51
4.5930269757664144
  0
ARC
  5
16E4A
  8
0
 10
333.84051395489661
 20
-218.3457785932269
 30
0.0
 40
8.9227309592618216
 50
87.156301906204007
 51
92.843698093796007
  0
LINE
  5
16E4B
  8
0
 10
334.28318420567371
 20
-209.43403517117719
 30
0.0
 11
334.69560050082208
 21
-220.41893650999279
 31
0.0
  0
ARC
  5
16E4C
  8
0
 10
330.79025397450408
 20
-220.45796798301191
 30
0.0
 40
0.487420532440255
 50
175.40697302423351
 51
268.04210891105242
  0
ARC
  5
16E4D
  8
0
 10
331.15948527495198
 20
-218.3457785932269
 30
0.0
 40
8.9227309592618216
 50
87.156301906204007
 51
92.843698093796007
  0
LINE
  5
16E4E
  8
0
 10
330.30439872902639
 20
-220.41893650999279
 30
0.0
 11
330.71681502417482
 21
-209.43403517117719
 31
0.0
  0
LINE
  5
16E4F
  8
0
 10
333.3978437041194
 20
-209.43403517117719
 30
0.0
 11
331.60215552572907
 21
-209.43403517117719
 31
0.0
  0
ARC
  5
16E50
  8
0
 10
329.28999426026098
 20
-209.2814069799204
 30
0.0
 40
1.4349609252875699
 50
353.89424157860321
 51
30.798466208757169
  0
ARC
  5
16E51
  8
0
 10
335.59230554074128
 20
-209.2556445877367
 30
0.0
 40
1.3212198417332299
 50
147.54753856048691
 51
187.75975365215791
  0
ARC
  5
16E52
  8
0
 10
329.47452051303708
 20
-220.4579680255747
 30
0.0
 40
0.4874204923901652
 50
175.40696762670021
 51
268.04210018556267
  0
ARC
  5
16E53
  8
0
 10
335.52547871681122
 20
-220.4579680255747
 30
0.0
 40
0.4874204923901961
 50
271.95789981443733
 51
4.5930323732997387
  0
LINE
  5
16E54
  8
0
 10
335.38165555012228
 20
-207.63286476245139
 30
0.0
 11
334.47741141219439
 21
-208.5466784726641
 31
0.0
  0
LINE
  5
16E55
  8
0
 10
336.01133391869081
 20
-220.41893650999279
 30
0.0
 11
335.38165555012228
 21
-207.63286476245139
 31
0.0
  0
LINE
  5
16E56
  8
0
 10
330.52258781765408
 20
-208.5466784726641
 30
0.0
 11
329.61834367972619
 21
-207.63286476245139
 31
0.0
  0
LINE
  5
16E57
  8
0
 10
329.61834367972619
 20
-207.63286476245139
 30
0.0
 11
328.98866531115777
 21
-220.41893650999279
 31
0.0
  0
POLYLINE
  5
16E58
  8
0
 66
     1
 10
0.0
 20
0.0
 30
0.0
 70
   128
  0
VERTEX
  5
17D60
  8
0
 10
338.30008289453389
 20
-220.41893650999279
 30
0.0
  0
VERTEX
  5
17D61
  8
0
 10
338.29767542567862
 20
-220.52008931746701
 30
0.0
  0
VERTEX
  5
17D62
  8
0
 10
338.28544296932228
 20
-220.61816503515459
 30
0.0
  0
VERTEX
  5
17D63
  8
0
 10
338.2638875083328
 20
-220.7091403495333
 30
0.0
  0
VERTEX
  5
17D64
  8
0
 10
338.23389286783339
 20
-220.78928251972411
 30
0.0
  0
VERTEX
  5
17D65
  8
0
 10
338.19669025626791
 20
-220.85530583968381
 30
0.0
  0
VERTEX
  5
17D66
  8
0
 10
338.15380564567448
 20
-220.9045020233653
 30
0.0
  0
VERTEX
  5
17D67
  8
0
 10
338.10699783873571
 20
-220.93484823813651
 30
0.0
  0
VERTEX
  5
17D68
  8
0
 10
338.05818815392257
 20
-220.9451039623282
 30
0.0
  0
SEQEND
  5
17D69
  8
0
  0
POLYLINE
  5
16E59
  8
0
 66
     1
 10
0.0
 20
0.0
 30
0.0
 70
   128
  0
VERTEX
  5
17D6A
  8
0
 10
326.9418110759259
 20
-220.9451039623282
 30
0.0
  0
VERTEX
  5
17D6B
  8
0
 10
326.89300139111288
 20
-220.93484823813651
 30
0.0
  0
VERTEX
  5
17D6C
  8
0
 10
326.84619358417399
 20
-220.9045020233653
 30
0.0
  0
VERTEX
  5
17D6D
  8
0
 10
326.80330897358073
 20
-220.85530583968381
 30
0.0
  0
VERTEX
  5
17D6E
  8
0
 10
326.76610636201508
 20
-220.78928251972411
 30
0.0
  0
VERTEX
  5
17D6F
  8
0
 10
326.73611172151573
 20
-220.7091403495333
 30
0.0
  0
VERTEX
  5
17D70
  8
0
 10
326.71455626052631
 20
-220.61816503515459
 30
0.0
  0
VERTEX
  5
17D71
  8
0
 10
326.70232380417002
 20
-220.52008931746701
 30
0.0
  0
VERTEX
  5
17D72
  8
0
 10
326.69991633531458
 20
-220.41893650999279
 30
0.0
  0
SEQEND
  5
17D73
  8
0
  0
ARC
  5
16E5A
  8
0
 10
327.29951419740769
 20
-210.13260634791581
 30
0.0
 40
3.40964487332166
 50
47.150146486983559
 51
94.240259595009178
  0
LINE
  5
16E5B
  8
0
 10
326.69991633531458
 20
-220.41893650999279
 30
0.0
 11
327.04740862038739
 21
-206.73229445924969
 31
0.0
  0
ARC
  5
16E5C
  8
0
 10
337.70110667574448
 20
-210.13438100621741
 30
0.0
 40
3.4113687930177972
 50
85.772356510721494
 51
132.8372374072884
  0
LINE
  5
16E5D
  8
0
 10
337.95259060946108
 20
-206.73229445924969
 30
0.0
 11
338.30008289453389
 21
-220.41893650999279
 31
0.0
  0
LINE
  5
16E5E
  8
0
 10
327.04740862038739
 20
-206.73229445924969
 30
0.0
 11
321.24486106124527
 21
-206.73229445924969
 31
0.0
  0
LINE
  5
16E5F
  8
0
 10
343.75513816860331
 20
-206.73229445924969
 30
0.0
 11
337.95259060946108
 21
-206.73229445924969
 31
0.0
  0
LINE
  5
16E60
  8
0
 10
320.32898912814272
 20
-235.51727359404779
 30
0.0
 11
344.67101010170592
 21
-235.51727359404779
 31
0.0
  0
LINE
  5
16E61
  8
0
 10
322.99999992039812
 20
-234.2650228481553
 30
0.0
 11
341.99999961492432
 21
-234.2650228481553
 31
0.0
  0
LINE
  5
16E64
  8
3
 10
322.79999929082368
 20
-253.74510568415741
 30
0.0
 11
322.79999929082362
 21
-252.24510620569811
 31
0.0
  0
LINE
  5
16E65
  8
3
 10
322.99999992039812
 20
-254.09151693612549
 30
0.0
 11
322.79999929082368
 21
-253.74510568415741
 31
0.0
  0
LINE
  5
16E66
  8
0
 10
320.99999959257252
 20
-253.74510568415741
 30
0.0
 11
322.99999992039812
 21
-253.74510568415741
 31
0.0
  0
LINE
  5
16E67
  8
3
 10
321.19999929082383
 20
-253.74510568415741
 30
0.0
 11
321.19999929082383
 21
-252.24510620569811
 31
0.0
  0
LINE
  5
16E68
  8
3
 10
320.99999866124989
 20
-254.09151693612549
 30
0.0
 11
321.19999929082383
 21
-253.74510568415741
 31
0.0
  0
LINE
  5
16E70
  8
1
 10
332.49999961492432
 20
-263.24510617962079
 30
0.0
 11
332.49999961492432
 21
-200.44510593524191
 31
0.0
  0
LINE
  5
16E9C
  8
0
 10
170.50000038742991
 20
-96.373270445643016
 30
0.0
 11
170.50000038742991
 21
-103.3732704456429
 31
0.0
  0
LINE
  5
16E9D
  8
0
 10
202.5000009238718
 20
-95.373270445642959
 30
0.0
 11
152.49999907612781
 21
-95.373270445642959
 31
0.0
  0
LINE
  5
16E9E
  8
0
 10
202.5000009238718
 20
-104.3732704456429
 30
0.0
 11
152.49999907612781
 21
-104.3732704456429
 31
0.0
  0
LINE
  5
16EA0
  8
1
 10
166.9999993355276
 20
-93.373270445642902
 30
0.0
 11
166.9999993355276
 21
-106.3732704456429
 31
0.0
  0
LINE
  5
16EA1
  8
0
 10
184.49999914789259
 20
-96.373270445642945
 30
0.0
 11
184.49999914789259
 21
-103.373270445643
 31
0.0
  0
LINE
  5
16EA2
  8
0
 10
169.50000038742991
 20
-95.373270445642959
 30
0.0
 11
170.50000038742991
 21
-96.373270445642959
 31
0.0
  0
LINE
  5
16EA3
  8
0
 10
185.49999914789259
 20
-95.373270445642959
 30
0.0
 11
184.49999914789259
 21
-96.373270445642959
 31
0.0
  0
LINE
  5
16EA4
  8
0
 10
169.50000038742991
 20
-104.3732704456429
 30
0.0
 11
170.50000038742991
 21
-103.3732704456429
 31
0.0
  0
LINE
  5
16EA5
  8
0
 10
185.49999914789259
 20
-104.3732704456429
 30
0.0
 11
184.49999914789259
 21
-103.3732704456429
 31
0.0
  0
LINE
  5
16EA6
  8
0
 10
170.50000038742991
 20
-96.373270445642987
 30
0.0
 11
170.6999996775092
 21
-96.373270445643016
 31
0.0
  0
LINE
  5
16EA7
  8
0
 10
170.50000038742991
 20
-103.373270445643
 30
0.0
 11
171.00000003937481
 21
-103.373270445643
 31
0.0
  0
LINE
  5
16EA8
  8
0
 10
165.79999976766109
 20
-95.873270445643186
 30
0.0
 11
165.29999976766109
 21
-95.373270445643186
 31
0.0
  0
LINE
  5
16EA9
  8
0
 10
169.1999997676613
 20
-100.8732704456429
 30
0.0
 11
164.79999976766121
 21
-100.8732704456429
 31
0.0
  0
LINE
  5
16EAA
  8
0
 10
164.79999976766121
 20
-103.873270445643
 30
0.0
 11
164.29999976766121
 21
-104.3732704456429
 31
0.0
  0
LINE
  5
16EAB
  8
0
 10
164.79999976766121
 20
-100.8732704456429
 30
0.0
 11
164.79999976766121
 21
-103.873270445643
 31
0.0
  0
LINE
  5
16EAC
  8
0
 10
165.79999976766109
 20
-100.8732699501796
 30
0.0
 11
165.79999976766109
 21
-95.873270445643186
 31
0.0
  0
LINE
  5
16EAD
  8
0
 10
168.19999976766161
 20
-100.87326995017909
 30
0.0
 11
168.19999976766161
 21
-95.873270445642703
 31
0.0
  0
LINE
  5
16EAE
  8
0
 10
169.1999997676613
 20
-100.8732704456429
 30
0.0
 11
169.1999997676613
 21
-103.8732704456429
 31
0.0
  0
LINE
  5
16EAF
  8
0
 10
168.19999976766161
 20
-95.873270445642746
 30
0.0
 11
168.69999976766169
 21
-95.373270445642731
 31
0.0
  0
LINE
  5
16EB0
  8
0
 10
169.1999997676613
 20
-103.873270445643
 30
0.0
 11
169.6000000775457
 21
-104.27327075552719
 31
0.0
  0
LINE
  5
16EB1
  8
0
 10
165.79999976766101
 20
-95.873270445642859
 30
0.0
 11
165.9999997453094
 21
-95.873270445642902
 31
0.0
  0
LINE
  5
16EB2
  8
0
 10
164.79999976766121
 20
-103.873270445643
 30
0.0
 11
169.1999997676613
 21
-103.873270445643
 31
0.0
  0
LINE
  5
16EB3
  8
0
 10
165.0999994115235
 20
-100.87326995017931
 30
0.0
 11
165.0999994115235
 21
-102.87327004517419
 31
0.0
  0
LINE
  5
16EB4
  8
0
 10
168.89999947559849
 20
-102.87327004517419
 30
0.0
 11
168.89999947559849
 21
-100.87326995017931
 31
0.0
  0
LINE
  5
16EB5
  8
0
 10
168.00000007313511
 20
-100.87326995017931
 30
0.0
 11
168.00000007313511
 21
-95.373270445642959
 31
0.0
  0
LINE
  5
16EB6
  8
0
 10
165.99999974530951
 20
-95.373270445642959
 30
0.0
 11
165.99999974530951
 21
-100.87326995017931
 31
0.0
  0
LINE
  5
16EBB
  8
0
 10
188.09852848388999
 20
-51.973101812406753
 30
0.0
 11
187.08284619313491
 21
-51.60342284399082
 31
0.0
  0
LINE
  5
16EBC
  8
0
 10
167.91715318635261
 20
-51.603423747819868
 30
0.0
 11
166.9014710514324
 21
-51.973101812406753
 31
0.0
  0
ARC
  5
16EBD
  8
0
 10
166.0268868325162
 20
-66.573271164154221
 30
0.0
 40
0.4999970642049957
 50
176.99985546278151
 51
270.00034257235689
  0
ARC
  5
16EBE
  8
0
 10
188.97310970502059
 20
-66.573270058212756
 30
0.0
 40
0.5
 50
270.0
 51
2.9999999999955098
  0
LINE
  5
16EBF
  8
0
 10
166.24486121398229
 20
-52.860458725271712
 30
0.0
 11
165.52757506292431
 21
-66.547102080091335
 31
0.0
  0
LINE
  5
16EC0
  8
0
 10
189.47242434185759
 20
-66.547100776014815
 30
0.0
 11
188.75513832134021
 21
-52.860458725271712
 31
0.0
  0
ARC
  5
16EC1
  8
0
 10
167.24349200801711
 20
-52.912795522278429
 30
0.0
 40
1.0000013015569491
 50
110.0000224441149
 51
176.9999556699741
  0
ARC
  5
16EC2
  8
0
 10
187.75650752730499
 20
-52.91279552227877
 30
0.0
 40
1.000001301557311
 50
3.0000443300419981
 51
69.999977555878061
  0
ARC
  5
16EC3
  8
0
 10
186.91183398511441
 20
-52.073296258095183
 30
0.0
 40
0.5000261998877555
 50
70.000832177096285
 51
89.999738218638484
  0
ARC
  5
16EC4
  8
0
 10
168.08816081167771
 20
-52.073260928355289
 30
0.0
 40
0.4999905840441605
 50
89.999772914129494
 51
110.0000944011222
  0
LINE
  5
16EC5
  8
0
 10
189.99999995392579
 20
-94.873270363686572
 30
0.0
 11
189.99999995392579
 21
-82.115284511027824
 31
0.0
  0
LINE
  5
16EC6
  8
0
 10
164.99999958139671
 20
-82.115284511027824
 30
0.0
 11
164.99999958139671
 21
-94.873270363686572
 31
0.0
  0
LINE
  5
16EC7
  8
0
 10
164.99999958139671
 20
-94.873270363686572
 30
0.0
 11
165.49999966335309
 21
-95.373270445642959
 31
0.0
  0
LINE
  5
16EC8
  8
0
 10
189.49999987196941
 20
-95.373270445642959
 30
0.0
 11
189.99999995392579
 21
-94.873270363686572
 31
0.0
  0
ARC
  5
16EC9
  8
0
 10
165.49999976766111
 20
-82.115284530116242
 30
0.0
 40
0.500000000000012
 50
110.0000000000035
 51
180.0
  0
ARC
  5
16ECA
  8
0
 10
189.49999976766111
 20
-82.115284530116242
 30
0.0
 40
0.5000000000000169
 50
0.0
 51
69.999999999996504
  0
LINE
  5
16ECB
  8
0
 10
189.67101025444279
 20
-81.645437860069762
 30
0.0
 11
187.26319215309641
 21
-80.769063317356597
 31
0.0
  0
LINE
  5
16ECC
  8
0
 10
167.7368073822262
 20
-80.769063317356597
 30
0.0
 11
165.32898928087971
 21
-81.645437860069762
 31
0.0
  0
ARC
  5
16ECD
  8
0
 10
187.39999976766109
 20
-80.393187042928901
 30
0.0
 40
0.4000000000000057
 50
180.0
 51
249.9999999999965
  0
ARC
  5
16ECE
  8
0
 10
167.59999976766119
 20
-80.393187042928901
 30
0.0
 40
0.3999999999999915
 50
290.00000000000341
 51
0.0
  0
LINE
  5
16ECF
  8
0
 10
186.99999946218739
 20
-80.393187114177238
 30
0.0
 11
186.99999946218739
 21
-67.073268228350173
 31
0.0
  0
LINE
  5
16ED0
  8
0
 10
168.00000007313511
 20
-67.073268228350173
 30
0.0
 11
168.00000007313511
 21
-80.393187114177238
 31
0.0
  0
ARC
  5
16ED1
  8
0
 10
184.69999976766121
 20
-95.773270058212788
 30
0.0
 40
0.4000000000000057
 50
90.0
 51
180.0
  0
ARC
  5
16ED2
  8
0
 10
170.29999976766121
 20
-95.773270058212788
 30
0.0
 40
0.4000000000000057
 50
0.0
 51
90.0
  0
LINE
  5
16ED3
  8
0
 10
170.49999955159441
 20
-102.87327004517419
 30
0.0
 11
171.49999971550719
 21
-103.873270034464
 31
0.0
  0
LINE
  5
16ED4
  8
0
 10
183.49999981981529
 20
-103.873270034464
 30
0.0
 11
184.49999998372809
 21
-102.87327004517419
 31
0.0
  0
LINE
  5
16ED7
  8
0
 10
184.49999998372809
 20
-98.719680094299804
 30
0.0
 11
184.2999998578133
 21
-98.373270006058704
 31
0.0
  0
LINE
  5
16ED8
  8
0
 10
170.6999996775092
 20
-98.373270006058704
 30
0.0
 11
170.49999955159441
 21
-98.719680094299804
 31
0.0
  0
LINE
  5
16ED9
  8
0
 10
184.2999998578133
 20
-98.373270006058704
 30
0.0
 11
184.2999998578133
 21
-95.773269766150008
 31
0.0
  0
LINE
  5
16EDC
  8
0
 10
165.0999994115235
 20
-102.87327004517419
 30
0.0
 11
168.89999947559849
 21
-102.87327004517419
 31
0.0
  0
LINE
  5
16EE0
  8
0
 10
170.6999996775092
 20
-98.373270006058704
 30
0.0
 11
170.6999996775092
 21
-95.773269766150008
 31
0.0
  0
LINE
  5
16EE1
  8
0
 10
188.97310970502059
 20
-67.073270058212756
 30
0.0
 11
166.02688982200641
 21
-67.073268228350173
 31
0.0
  0
LINE
  5
16EE2
  8
0
 10
168.08816279333851
 20
-51.573270344315063
 30
0.0
 11
186.91183626970741
 21
-51.573270058212763
 31
0.0
  0
ARC
  5
16EE4
  8
0
 10
175.1160617376232
 20
-84.469726887289994
 30
0.0
 40
1.8876251922317679
 50
139.0017865900065
 51
183.02120469311421
  0
ARC
  5
16EE5
  8
0
 10
175.11706966675899
 20
-84.668358379698574
 30
0.0
 40
1.888613573276547
 50
176.9908620650105
 51
220.98609756473451
  0
POLYLINE
  5
16EE6
  8
0
 66
     1
 10
0.0
 20
0.0
 30
0.0
 70
   128
  0
VERTEX
  5
17D74
  8
0
 10
174.6879397058191
 20
-86.332730361400138
 30
0.0
  0
VERTEX
  5
17D75
  8
0
 10
174.14438515950761
 20
-86.226675071893226
 30
0.0
  0
VERTEX
  5
17D76
  8
0
 10
173.69141430643219
 20
-85.90705447751094
 30
0.0
  0
SEQEND
  5
17D77
  8
0
  0
POLYLINE
  5
16EE7
  8
0
 66
     1
 10
0.0
 20
0.0
 30
0.0
 70
   128
  0
VERTEX
  5
17D78
  8
0
 10
175.70368806880731
 20
-85.90705447751094
 30
0.0
  0
VERTEX
  5
17D79
  8
0
 10
175.23715646055359
 20
-86.226675071893226
 30
0.0
  0
VERTEX
  5
17D7A
  8
0
 10
174.6879397058191
 20
-86.332730361400138
 30
0.0
  0
SEQEND
  5
17D7B
  8
0
  0
ARC
  5
16EE8
  8
0
 10
174.34478971565511
 20
-84.660789555435699
 30
0.0
 40
1.8438495031304949
 50
317.475623621681
 51
2.846753041277521
  0
ARC
  5
16EE9
  8
0
 10
174.34576447771121
 20
-84.47729087124992
 30
0.0
 40
1.842893367002254
 50
357.14087536529411
 51
42.536798903419687
  0
POLYLINE
  5
16EEA
  8
0
 66
     1
 10
0.0
 20
0.0
 30
0.0
 70
   128
  0
VERTEX
  5
17D7C
  8
0
 10
174.6879397058191
 20
-82.805701875267516
 30
0.0
  0
VERTEX
  5
17D7D
  8
0
 10
175.23715646055359
 20
-82.911755302129279
 30
0.0
  0
VERTEX
  5
17D7E
  8
0
 10
175.70368806880731
 20
-83.231377759156715
 30
0.0
  0
SEQEND
  5
17D7F
  8
0
  0
POLYLINE
  5
16EEB
  8
0
 66
     1
 10
0.0
 20
0.0
 30
0.0
 70
   128
  0
VERTEX
  5
17D80
  8
0
 10
173.69141430643219
 20
-83.231377759156715
 30
0.0
  0
VERTEX
  5
17D81
  8
0
 10
174.14438515950761
 20
-82.911755302129279
 30
0.0
  0
VERTEX
  5
17D82
  8
0
 10
174.6879397058191
 20
-82.805701875267516
 30
0.0
  0
SEQEND
  5
17D83
  8
0
  0
LINE
  5
16EEC
  8
0
 10
181.96169055116189
 20
-82.846242346940528
 30
0.0
 11
179.70610131558789
 21
-82.846242346940528
 31
0.0
  0
LINE
  5
16EED
  8
0
 10
179.70610131558789
 20
-86.312459194241058
 30
0.0
 11
179.70610131558789
 21
-82.846242346940528
 31
0.0
  0
LINE
  5
16EEE
  8
0
 10
180.17656031113879
 20
-86.312459194241058
 30
0.0
 11
179.70610131558789
 21
-86.312459194241058
 31
0.0
  0
LINE
  5
16EEF
  8
0
 10
180.17656031113879
 20
-84.7501469488721
 30
0.0
 11
180.17656031113879
 21
-86.312459194241058
 31
0.0
  0
LINE
  5
16EF0
  8
0
 10
181.5807097689511
 20
-84.7501469488721
 30
0.0
 11
180.17656031113879
 21
-84.7501469488721
 31
0.0
  0
LINE
  5
16EF1
  8
0
 10
181.5807097689511
 20
-84.366512828646194
 30
0.0
 11
181.5807097689511
 21
-84.7501469488721
 31
0.0
  0
LINE
  5
16EF2
  8
0
 10
181.5807097689511
 20
-84.366512828646194
 30
0.0
 11
180.17656031113879
 21
-84.366512828646194
 31
0.0
  0
LINE
  5
16EF3
  8
0
 10
180.17656031113879
 20
-83.229876467166434
 30
0.0
 11
180.17656031113879
 21
-84.366512828646194
 31
0.0
  0
LINE
  5
16EF4
  8
0
 10
181.96169055116189
 20
-83.229876467166434
 30
0.0
 11
180.17656031113879
 21
-83.229876467166434
 31
0.0
  0
LINE
  5
16EF5
  8
0
 10
181.96169055116189
 20
-82.846242346940528
 30
0.0
 11
181.96169055116189
 21
-83.229876467166434
 31
0.0
  0
LINE
  5
16EF6
  8
0
 10
179.22198377598841
 20
-82.846242346940528
 30
0.0
 11
176.88313331271351
 21
-82.846242346940528
 31
0.0
  0
LINE
  5
16EF7
  8
0
 10
176.88313331271351
 20
-86.312459194241058
 30
0.0
 11
176.88313331271351
 21
-82.846242346940528
 31
0.0
  0
LINE
  5
16EF8
  8
0
 10
177.36261515054221
 20
-86.312459194241058
 30
0.0
 11
176.88313331271351
 21
-86.312459194241058
 31
0.0
  0
LINE
  5
16EF9
  8
0
 10
177.36261515054221
 20
-84.7501469488721
 30
0.0
 11
177.36261515054221
 21
-86.312459194241058
 31
0.0
  0
LINE
  5
16EFA
  8
0
 10
178.81960830234749
 20
-84.7501469488721
 30
0.0
 11
177.36261515054221
 21
-84.7501469488721
 31
0.0
  0
LINE
  5
16EFB
  8
0
 10
178.81960830234749
 20
-84.366512828646194
 30
0.0
 11
178.81960830234749
 21
-84.7501469488721
 31
0.0
  0
LINE
  5
16EFC
  8
0
 10
178.81960830234749
 20
-84.366512828646194
 30
0.0
 11
177.36261515054221
 21
-84.366512828646194
 31
0.0
  0
LINE
  5
16EFD
  8
0
 10
177.36261515054221
 20
-83.229876467166434
 30
0.0
 11
177.36261515054221
 21
-84.366512828646194
 31
0.0
  0
LINE
  5
16EFE
  8
0
 10
179.22198377598841
 20
-83.229876467166434
 30
0.0
 11
177.36261515054221
 21
-83.229876467166434
 31
0.0
  0
LINE
  5
16EFF
  8
0
 10
179.22198377598841
 20
-82.846242346940528
 30
0.0
 11
179.22198377598841
 21
-83.229876467166434
 31
0.0
  0
POLYLINE
  5
16F00
  8
0
 66
     1
 10
0.0
 20
0.0
 30
0.0
 70
   128
  0
VERTEX
  5
17D84
  8
0
 10
169.11725561183709
 20
-82.873269328055869
 30
0.0
  0
VERTEX
  5
17D85
  8
0
 10
170.12437666815541
 20
-83.623270847974311
 30
0.0
  0
VERTEX
  5
17D86
  8
0
 10
171.21108249810351
 20
-84.373270505247604
 30
0.0
  0
SEQEND
  5
17D87
  8
0
  0
LINE
  5
16F01
  8
0
 10
169.11725561183709
 20
-83.623270847974311
 30
0.0
 11
169.11725561183709
 21
-82.873269328055869
 31
0.0
  0
LINE
  5
16F02
  8
0
 10
169.11725561183709
 20
-83.623270847974311
 30
0.0
 11
165.2783914567234
 21
-83.623270847974311
 31
0.0
  0
LINE
  5
16F03
  8
0
 10
165.2783914567234
 20
-82.873269328055869
 30
0.0
 11
165.2783914567234
 21
-83.623270847974311
 31
0.0
  0
POLYLINE
  5
16F04
  8
0
 66
     1
 10
0.0
 20
0.0
 30
0.0
 70
   128
  0
VERTEX
  5
17D88
  8
0
 10
165.0000806064607
 20
-84.373270505247604
 30
0.0
  0
VERTEX
  5
17D89
  8
0
 10
165.07218639415521
 20
-83.623270847974311
 30
0.0
  0
VERTEX
  5
17D8A
  8
0
 10
165.2783914567234
 20
-82.873269328055869
 30
0.0
  0
SEQEND
  5
17D8B
  8
0
  0
POLYLINE
  5
16F05
  8
0
 66
     1
 10
0.0
 20
0.0
 30
0.0
 70
   128
  0
VERTEX
  5
17D8C
  8
0
 10
165.2783914567234
 20
-85.873269819794189
 30
0.0
  0
VERTEX
  5
17D8D
  8
0
 10
165.07218639415521
 20
-85.123270162520896
 30
0.0
  0
VERTEX
  5
17D8E
  8
0
 10
165.0000806064607
 20
-84.373270505247604
 30
0.0
  0
SEQEND
  5
17D8F
  8
0
  0
LINE
  5
16F06
  8
0
 10
165.2783914567234
 20
-85.123270162520896
 30
0.0
 11
165.2783914567234
 21
-85.873269819794189
 31
0.0
  0
LINE
  5
16F07
  8
0
 10
169.11725561183709
 20
-85.123270162520896
 30
0.0
 11
165.2783914567234
 21
-85.123270162520896
 31
0.0
  0
LINE
  5
16F08
  8
0
 10
169.11725561183709
 20
-85.873269819794189
 30
0.0
 11
169.11725561183709
 21
-85.123270162520896
 31
0.0
  0
POLYLINE
  5
16F09
  8
0
 66
     1
 10
0.0
 20
0.0
 30
0.0
 70
   128
  0
VERTEX
  5
17D90
  8
0
 10
171.21108249810351
 20
-84.373270505247604
 30
0.0
  0
VERTEX
  5
17D91
  8
0
 10
170.12437666815541
 20
-85.123270162520896
 30
0.0
  0
VERTEX
  5
17D92
  8
0
 10
169.11725561183709
 20
-85.873269819794189
 30
0.0
  0
SEQEND
  5
17D93
  8
0
  0
ARC
  5
16F0B
  8
0
 10
174.2709385406846
 20
-84.706448562698654
 30
0.0
 40
1.4393068504451489
 50
319.37754983964021
 51
5.4712835271058191
  0
ARC
  5
16F0C
  8
0
 10
174.68528842385601
 20
-84.099016270464844
 30
0.0
 40
0.9081828529677796
 50
41.697778854761353
 51
89.832734694277434
  0
ARC
  5
16F0D
  8
0
 10
174.27093931214401
 20
-84.431983191677546
 30
0.0
 40
1.439305950888573
 50
354.52876824344651
 51
40.622455582526861
  0
ARC
  5
16F0E
  8
0
 10
174.68230612643231
 20
-85.032790801007991
 30
0.0
 40
0.9148214944657839
 50
270.35283644349971
 51
318.1166500074529
  0
ARC
  5
16F0F
  8
0
 10
174.6886859487513
 20
-85.062534411996353
 30
0.0
 40
0.8850608517866806
 50
221.03036384512029
 51
269.95169080691898
  0
ARC
  5
16F10
  8
0
 10
175.1465875584278
 20
-84.710478633405273
 30
0.0
 40
1.4620138695000979
 50
174.45528768197221
 51
219.6579625339204
  0
ARC
  5
16F11
  8
0
 10
175.14658674260039
 20
-84.427953108037912
 30
0.0
 40
1.4620129253669369
 50
140.34203200280291
 51
185.5446620692359
  0
ARC
  5
16F12
  8
0
 10
174.69114183223749
 20
-84.081284533494511
 30
0.0
 40
0.8904530035559614
 50
90.206039761714479
 51
138.811905586237
  0
LINE
  5
16F13
  8
0
 10
183.49999981981529
 20
-103.873270034464
 30
0.0
 11
171.4999997155071
 21
-103.873270034464
 31
0.0
  0
LINE
  5
16F14
  8
0
 10
170.4999995515943
 20
-102.87327004517419
 30
0.0
 11
184.49999998372809
 21
-102.87327004517419
 31
0.0
  0
LINE
  5
16F15
  8
0
 10
184.499999983728
 20
-98.719680094299804
 30
0.0
 11
170.49999955159441
 21
-98.719680094299804
 31
0.0
  0
LINE
  5
16F17
  8
0
 10
184.2999998578133
 20
-98.373270006058704
 30
0.0
 11
170.6999996775092
 21
-98.373270006058704
 31
0.0
  0
ARC
  5
16F1A
  8
0
 10
179.20974540808129
 20
-66.586132249033881
 30
0.0
 40
0.4874205324402663
 50
271.95789108894758
 51
4.5930269757679971
  0
ARC
  5
16F1B
  8
0
 10
178.84051410763351
 20
-64.473942859248837
 30
0.0
 40
8.9227309592618216
 50
87.156301906204007
 51
92.843698093796007
  0
LINE
  5
16F1C
  8
0
 10
179.28318435841069
 20
-55.562199437199133
 30
0.0
 11
179.6956006535591
 21
-66.547100776014815
 31
0.0
  0
ARC
  5
16F1D
  8
0
 10
175.7902541272411
 20
-66.586132249033881
 30
0.0
 40
0.487420532440255
 50
175.40697302423189
 51
268.04210891105242
  0
ARC
  5
16F1E
  8
0
 10
176.15948542768899
 20
-64.473942859248837
 30
0.0
 40
8.9227309592618216
 50
87.156301906204007
 51
92.843698093796007
  0
LINE
  5
16F1F
  8
0
 10
175.3043988817634
 20
-66.547100776014815
 30
0.0
 11
175.71681517691181
 21
-55.562199437199133
 31
0.0
  0
LINE
  5
16F20
  8
0
 10
178.39784385685641
 20
-55.562199437199133
 30
0.0
 11
176.60215567846609
 21
-55.562199437199133
 31
0.0
  0
ARC
  5
16F21
  8
0
 10
174.28999441299791
 20
-55.409571245942402
 30
0.0
 40
1.4349609252875699
 50
353.89424157860333
 51
30.79846620875788
  0
ARC
  5
16F22
  8
0
 10
180.59230569347829
 20
-55.383808853758687
 30
0.0
 40
1.3212198417332299
 50
147.547538560486
 51
187.7597536521555
  0
ARC
  5
16F23
  8
0
 10
174.47452066577409
 20
-66.586132291596641
 30
0.0
 40
0.4874204923901652
 50
175.40696762670021
 51
268.04210018556267
  0
ARC
  5
16F24
  8
0
 10
180.52547886954821
 20
-66.586132291596641
 30
0.0
 40
0.4874204923901961
 50
271.95789981443733
 51
4.5930323732997387
  0
LINE
  5
16F25
  8
0
 10
180.38165570285929
 20
-53.761029028473388
 30
0.0
 11
179.4774115649314
 21
-54.674842738686102
 31
0.0
  0
LINE
  5
16F26
  8
0
 10
181.01133407142771
 20
-66.547100776014815
 30
0.0
 11
180.38165570285929
 21
-53.761029028473388
 31
0.0
  0
LINE
  5
16F27
  8
0
 10
175.5225879703911
 20
-54.674842738686102
 30
0.0
 11
174.61834383246321
 21
-53.761029028473388
 31
0.0
  0
LINE
  5
16F28
  8
0
 10
174.61834383246321
 20
-53.761029028473388
 30
0.0
 11
173.98866546389479
 21
-66.547100776014815
 31
0.0
  0
POLYLINE
  5
16F29
  8
0
 66
     1
 10
0.0
 20
0.0
 30
0.0
 70
   128
  0
VERTEX
  5
17D94
  8
0
 10
183.3000830472709
 20
-66.547100776014815
 30
0.0
  0
VERTEX
  5
17D95
  8
0
 10
183.29767557841549
 20
-66.648253583488952
 30
0.0
  0
VERTEX
  5
17D96
  8
0
 10
183.28544312205929
 20
-66.746329301176559
 30
0.0
  0
VERTEX
  5
17D97
  8
0
 10
183.26388766106979
 20
-66.837304615555297
 30
0.0
  0
VERTEX
  5
17D98
  8
0
 10
183.23389302057041
 20
-66.917446785746108
 30
0.0
  0
VERTEX
  5
17D99
  8
0
 10
183.19669040900479
 20
-66.983470105705749
 30
0.0
  0
VERTEX
  5
17D9A
  8
0
 10
183.1538057984115
 20
-67.032666289387237
 30
0.0
  0
VERTEX
  5
17D9B
  8
0
 10
183.10699799147261
 20
-67.063012504158507
 30
0.0
  0
VERTEX
  5
17D9C
  8
0
 10
183.05818830665959
 20
-67.073268228350173
 30
0.0
  0
SEQEND
  5
17D9D
  8
0
  0
POLYLINE
  5
16F2A
  8
0
 66
     1
 10
0.0
 20
0.0
 30
0.0
 70
   128
  0
VERTEX
  5
17D9E
  8
0
 10
171.94181122866291
 20
-67.073268228350173
 30
0.0
  0
VERTEX
  5
17D9F
  8
0
 10
171.89300154384989
 20
-67.063012504158507
 30
0.0
  0
VERTEX
  5
17DA0
  8
0
 10
171.846193736911
 20
-67.032666289387237
 30
0.0
  0
VERTEX
  5
17DA1
  8
0
 10
171.80330912631771
 20
-66.983470105705749
 30
0.0
  0
VERTEX
  5
17DA2
  8
0
 10
171.7661065147521
 20
-66.917446785746108
 30
0.0
  0
VERTEX
  5
17DA3
  8
0
 10
171.73611187425271
 20
-66.837304615555297
 30
0.0
  0
VERTEX
  5
17DA4
  8
0
 10
171.71455641326321
 20
-66.746329301176559
 30
0.0
  0
VERTEX
  5
17DA5
  8
0
 10
171.70232395690701
 20
-66.648253583488952
 30
0.0
  0
VERTEX
  5
17DA6
  8
0
 10
171.6999164880516
 20
-66.547100776014815
 30
0.0
  0
SEQEND
  5
17DA7
  8
0
  0
ARC
  5
16F2B
  8
0
 10
172.29951435014479
 20
-56.26077061393778
 30
0.0
 40
3.40964487332166
 50
47.150146486983402
 51
94.240259595009178
  0
LINE
  5
16F2C
  8
0
 10
171.6999164880516
 20
-66.547100776014815
 30
0.0
 11
172.0474087731244
 21
-52.860458725271712
 31
0.0
  0
ARC
  5
16F2D
  8
0
 10
182.7011068284815
 20
-56.262545272239322
 30
0.0
 40
3.4113687930177972
 50
85.772356510721494
 51
132.8372374072878
  0
LINE
  5
16F2E
  8
0
 10
182.9525907621981
 20
-52.860458725271712
 30
0.0
 11
183.3000830472709
 21
-66.547100776014815
 31
0.0
  0
LINE
  5
16F2F
  8
0
 10
172.0474087731244
 20
-52.860458725271712
 30
0.0
 11
166.24486121398229
 21
-52.860458725271712
 31
0.0
  0
LINE
  5
16F30
  8
0
 10
188.75513832134021
 20
-52.860458725271712
 30
0.0
 11
182.9525907621981
 21
-52.860458725271712
 31
0.0
  0
LINE
  5
16F31
  8
0
 10
165.32898928087971
 20
-81.645437860069762
 30
0.0
 11
189.67101025444279
 21
-81.645437860069762
 31
0.0
  0
LINE
  5
16F32
  8
0
 10
168.00000007313511
 20
-80.393187114177238
 30
0.0
 11
186.99999976766111
 21
-80.393187114177238
 31
0.0
  0
LINE
  5
16F34
  8
0
 10
184.29999985781319
 20
-95.773269766150008
 30
0.0
 11
170.6999996775092
 21
-95.773269766150008
 31
0.0
  0
LINE
  5
16F35
  8
3
 10
167.79999944356069
 20
-99.873269950179349
 30
0.0
 11
167.79999944356069
 21
-95.373270445642959
 31
0.0
  0
LINE
  5
16F36
  8
3
 10
168.00000007313511
 20
-100.2196812021475
 30
0.0
 11
167.79999944356069
 21
-99.873269950179349
 31
0.0
  0
LINE
  5
16F37
  8
0
 10
165.99999974530951
 20
-99.873269950179349
 30
0.0
 11
168.00000007313511
 21
-99.873269950179349
 31
0.0
  0
LINE
  5
16F38
  8
3
 10
166.19999944356081
 20
-99.873269950179349
 30
0.0
 11
166.19999944356081
 21
-95.373270445642959
 31
0.0
  0
LINE
  5
16F39
  8
3
 10
165.99999881398691
 20
-100.2196812021475
 30
0.0
 11
166.19999944356081
 21
-99.873269950179349
 31
0.0
  0
LINE
  5
16F41
  8
1
 10
177.49999976766131
 20
-109.373270445643
 30
0.0
 11
177.49999976766131
 21
-46.573270201263881
 31
0.0
  0
LINE
  5
16F42
  8
0
 10
168.00000007313511
 20
-95.873270445643158
 30
0.0
 11
168.1999997676615
 21
-95.873270445643186
 31
0.0
  0
LINE
  5
16F4A
  8
0
 10
184.29999985781319
 20
-96.373270445642987
 30
0.0
 11
184.49999914789259
 21
-96.373270445642987
 31
0.0
  0
LINE
  5
16F4B
  8
0
 10
183.99999949594789
 20
-103.373270445643
 30
0.0
 11
184.49999914789259
 21
-103.373270445643
 31
0.0
  0
LINE
  5
16F64
  8
0
 10
395.49999923122022
 20
-102.373270445643
 30
0.0
 11
395.49999923122022
 21
-109.3732704456428
 31
0.0
  0
LINE
  5
16F65
  8
0
 10
415.49999861145159
 20
-101.3732704456429
 30
0.0
 11
389.49999861145159
 21
-101.3732704456429
 31
0.0
  0
LINE
  5
16F66
  8
0
 10
427.4999997676619
 20
-110.3732704456429
 30
0.0
 11
377.49999791991797
 21
-110.3732704456429
 31
0.0
  0
LINE
  5
16F67
  8
1
 10
402.4999986114513
 20
-92.373270445642945
 30
0.0
 11
402.49999861145147
 21
-113.3732704456429
 31
0.0
  0
LINE
  5
16F68
  8
1
 10
391.99999817931791
 20
-99.373270445642916
 30
0.0
 11
391.99999817931791
 21
-112.3732704456429
 31
0.0
  0
LINE
  5
16F69
  8
0
 10
409.4999979916829
 20
-102.3732704456429
 30
0.0
 11
409.4999979916829
 21
-109.373270445643
 31
0.0
  0
LINE
  5
16F6A
  8
0
 10
394.49999923122022
 20
-101.3732704456429
 30
0.0
 11
395.49999923122022
 21
-102.3732704456429
 31
0.0
  0
LINE
  5
16F6B
  8
0
 10
410.49999799168302
 20
-101.3732704456429
 30
0.0
 11
409.4999979916829
 21
-102.3732704456429
 31
0.0
  0
LINE
  5
16F6C
  8
0
 10
394.49999923122022
 20
-110.3732704456429
 30
0.0
 11
395.49999923122022
 21
-109.3732704456429
 31
0.0
  0
LINE
  5
16F6D
  8
0
 10
410.49999799168302
 20
-110.3732704456429
 30
0.0
 11
409.4999979916829
 21
-109.3732704456429
 31
0.0
  0
LINE
  5
16F6E
  8
0
 10
395.49999923122022
 20
-102.373270445643
 30
0.0
 11
409.4999979916829
 21
-102.373270445643
 31
0.0
  0
LINE
  5
16F6F
  8
0
 10
395.49999923122022
 20
-109.373270445643
 30
0.0
 11
409.4999979916829
 21
-109.373270445643
 31
0.0
  0
LINE
  5
16F70
  8
0
 10
390.7999986114516
 20
-101.8732704456432
 30
0.0
 11
390.2999986114516
 21
-101.3732704456432
 31
0.0
  0
LINE
  5
16F71
  8
0
 10
394.19999861145158
 20
-106.8732704456429
 30
0.0
 11
389.79999861145149
 21
-106.8732704456429
 31
0.0
  0
LINE
  5
16F72
  8
0
 10
389.79999861145149
 20
-109.8732704456429
 30
0.0
 11
389.29999861145149
 21
-110.373270445643
 31
0.0
  0
LINE
  5
16F73
  8
0
 10
389.79999861145149
 20
-106.8732704456429
 30
0.0
 11
389.79999861145149
 21
-109.8732704456429
 31
0.0
  0
LINE
  5
16F74
  8
0
 10
390.7999986114516
 20
-106.8732699501796
 30
0.0
 11
390.7999986114516
 21
-101.8732704456432
 31
0.0
  0
LINE
  5
16F75
  8
0
 10
393.19999861145209
 20
-106.87326995017909
 30
0.0
 11
393.19999861145209
 21
-101.8732704456427
 31
0.0
  0
LINE
  5
16F76
  8
0
 10
394.19999861145158
 20
-106.8732704456429
 30
0.0
 11
394.19999861145158
 21
-109.8732704456429
 31
0.0
  0
LINE
  5
16F77
  8
0
 10
393.19999861145209
 20
-101.8732704456427
 30
0.0
 11
393.69999861145209
 21
-101.3732704456427
 31
0.0
  0
LINE
  5
16F78
  8
0
 10
394.19999861145158
 20
-109.8732704456429
 30
0.0
 11
394.59999892133618
 21
-110.27327075552719
 31
0.0
  0
LINE
  5
16F79
  8
0
 10
390.79999861145131
 20
-101.8732704456428
 30
0.0
 11
393.19999861145192
 21
-101.8732704456432
 31
0.0
  0
LINE
  5
16F7A
  8
0
 10
389.79999861145149
 20
-109.873270445643
 30
0.0
 11
394.19999861145158
 21
-109.8732704456429
 31
0.0
  0
LINE
  5
16F7B
  8
1
 10
402.49999861145147
 20
-70.094764855300554
 30
0.0
 11
402.49999861145147
 21
-34.094764855300546
 31
0.0
  0
LINE
  5
16F7C
  8
1
 10
420.49999861145159
 20
-52.094764855300539
 30
0.0
 11
384.49999861145159
 21
-52.094764855300539
 31
0.0
  0
CIRCLE
  5
16F7D
  8
0
 10
402.49999861145147
 20
-52.094764855300539
 30
0.0
 40
7.0
  0
CIRCLE
  5
16F7E
  8
1
 10
402.49999861145147
 20
-52.094764855300539
 30
0.0
 40
10.5
  0
CIRCLE
  5
16F7F
  8
0
 10
391.99999861145159
 20
-52.094764855300539
 30
0.0
 40
1.1999999999999991
  0
CIRCLE
  5
16F80
  8
2
 10
391.99999861145159
 20
-52.094764855300539
 30
0.0
 40
2.2000000000000002
  0
LINE
  5
16F81
  8
1
 10
405.64999861145151
 20
-57.550724899142509
 30
0.0
 11
409.84999861145172
 21
-64.825338290931782
 31
0.0
  0
CIRCLE
  5
16F82
  8
0
 10
407.74999861145147
 20
-61.188031595037138
 30
0.0
 40
1.1999999999999991
  0
CIRCLE
  5
16F83
  8
2
 10
407.74999861145147
 20
-61.188031595037138
 30
0.0
 40
2.2000000000000002
  0
LINE
  5
16F84
  8
1
 10
405.64999861145151
 20
-46.638804811458527
 30
0.0
 11
409.84999861145172
 21
-39.364191419669311
 31
0.0
  0
CIRCLE
  5
16F85
  8
0
 10
407.74999861145147
 20
-43.00149811556394
 30
0.0
 40
1.1999999999999991
  0
CIRCLE
  5
16F86
  8
2
 10
407.74999861145147
 20
-43.00149811556394
 30
0.0
 40
2.2000000000000002
  0
CIRCLE
  5
17018
  8
0
 10
402.49999861145147
 20
-52.094764855300539
 30
0.0
 40
13.0
  0
LINE
  5
17025
  8
0
 10
415.49999861145159
 20
-95.873270445642945
 30
0.0
 11
415.49999861145159
 21
-101.3732704456429
 31
0.0
  0
LINE
  5
17026
  8
0
 10
389.49999861145159
 20
-95.873270445642973
 30
0.0
 11
389.49999861145159
 21
-101.3732704456429
 31
0.0
  0
LINE
  5
17027
  8
0
 10
427.4999997676619
 20
-95.373270445642959
 30
0.0
 11
377.49999791991797
 21
-95.373270445642959
 31
0.0
  0
LINE
  5
1702B
  8
0
 10
415.49999861145159
 20
-95.873270445642973
 30
0.0
 11
415.99999861145159
 21
-95.373270445642973
 31
0.0
  0
LINE
  5
1702C
  8
0
 10
389.49999861145159
 20
-95.873270445642973
 30
0.0
 11
388.99999861145159
 21
-95.373270445642973
 31
0.0
  0
LINE
  5
1702D
  8
0
 10
415.49999861145159
 20
-95.873270445642945
 30
0.0
 11
389.49999861145159
 21
-95.873270445642973
 31
0.0
  0
LINE
  5
17038
  8
0
 10
325.5000004670315
 20
-102.373270445643
 30
0.0
 11
325.5000004670315
 21
-109.3732704456428
 31
0.0
  0
LINE
  5
17039
  8
0
 10
345.49999984726293
 20
-101.3732704456429
 30
0.0
 11
319.49999984726293
 21
-101.3732704456429
 31
0.0
  0
LINE
  5
1703A
  8
0
 10
357.50000100347319
 20
-95.373270445642959
 30
0.0
 11
345.00000003352739
 21
-95.373270445642973
 31
0.0
  0
LINE
  5
1703B
  8
0
 10
319.49999984726293
 20
-95.873270445642973
 30
0.0
 11
318.99999984726293
 21
-95.373270445642973
 31
0.0
  0
LINE
  5
1703C
  8
0
 10
345.49999984726293
 20
-95.873270445642973
 30
0.0
 11
345.99999984726293
 21
-95.373270445642973
 31
0.0
  0
LINE
  5
1703D
  8
0
 10
357.50000100347319
 20
-110.3732704456429
 30
0.0
 11
307.49999915572931
 21
-110.3732704456429
 31
0.0
  0
LINE
  5
1703F
  8
1
 10
321.9999994151292
 20
-99.373270445642916
 30
0.0
 11
321.9999994151292
 21
-112.3732704456429
 31
0.0
  0
LINE
  5
17040
  8
0
 10
339.4999992274943
 20
-102.3732704456429
 30
0.0
 11
339.4999992274943
 21
-109.373270445643
 31
0.0
  0
LINE
  5
17041
  8
0
 10
324.50000046703138
 20
-101.3732704456429
 30
0.0
 11
325.5000004670315
 21
-102.3732704456429
 31
0.0
  0
LINE
  5
17042
  8
0
 10
340.4999992274943
 20
-101.3732704456429
 30
0.0
 11
339.4999992274943
 21
-102.3732704456429
 31
0.0
  0
LINE
  5
17043
  8
0
 10
324.50000046703138
 20
-110.3732704456429
 30
0.0
 11
325.5000004670315
 21
-109.3732704456429
 31
0.0
  0
LINE
  5
17044
  8
0
 10
340.4999992274943
 20
-110.3732704456429
 30
0.0
 11
339.4999992274943
 21
-109.3732704456429
 31
0.0
  0
LINE
  5
17045
  8
0
 10
325.5000004670315
 20
-102.373270445643
 30
0.0
 11
325.69999975711079
 21
-102.3732704456429
 31
0.0
  0
LINE
  5
17046
  8
0
 10
325.5000004670315
 20
-109.373270445643
 30
0.0
 11
326.0000001189764
 21
-109.373270445643
 31
0.0
  0
LINE
  5
17047
  8
0
 10
320.79999984726282
 20
-101.8732704456432
 30
0.0
 11
320.29999984726282
 21
-101.3732704456432
 31
0.0
  0
LINE
  5
17048
  8
0
 10
324.19999984726292
 20
-106.8732704456429
 30
0.0
 11
319.79999984726282
 21
-106.8732704456429
 31
0.0
  0
LINE
  5
17049
  8
0
 10
319.79999984726282
 20
-109.8732704456429
 30
0.0
 11
319.29999984726282
 21
-110.373270445643
 31
0.0
  0
LINE
  5
1704A
  8
0
 10
319.79999984726282
 20
-106.8732704456429
 30
0.0
 11
319.79999984726282
 21
-109.8732704456429
 31
0.0
  0
LINE
  5
1704B
  8
0
 10
320.79999984726282
 20
-106.8732699501796
 30
0.0
 11
320.79999984726282
 21
-101.8732704456432
 31
0.0
  0
LINE
  5
1704C
  8
0
 10
323.19999984726343
 20
-106.87326995017909
 30
0.0
 11
323.19999984726343
 21
-101.8732704456427
 31
0.0
  0
LINE
  5
1704D
  8
0
 10
324.19999984726292
 20
-106.8732704456429
 30
0.0
 11
324.19999984726292
 21
-109.8732704456429
 31
0.0
  0
LINE
  5
1704E
  8
0
 10
323.19999984726343
 20
-101.8732704456427
 30
0.0
 11
323.69999984726343
 21
-101.3732704456427
 31
0.0
  0
LINE
  5
1704F
  8
0
 10
324.19999984726292
 20
-109.8732704456429
 30
0.0
 11
324.60000015714741
 21
-110.27327075552719
 31
0.0
  0
LINE
  5
17050
  8
0
 10
320.7999998472626
 20
-101.8732704456428
 30
0.0
 11
320.99999982491107
 21
-101.8732704456429
 31
0.0
  0
LINE
  5
17051
  8
0
 10
319.79999984726282
 20
-109.873270445643
 30
0.0
 11
324.19999984726292
 21
-109.8732704456429
 31
0.0
  0
LINE
  5
17052
  8
0
 10
345.49999984726293
 20
-95.873270445642945
 30
0.0
 11
345.49999984726293
 21
-101.3732704456429
 31
0.0
  0
LINE
  5
17053
  8
0
 10
319.49999984726293
 20
-95.873270445642973
 30
0.0
 11
319.49999984726293
 21
-101.3732704456429
 31
0.0
  0
LINE
  5
17054
  8
0
 10
345.49999984726293
 20
-95.873270445642945
 30
0.0
 11
345.00000003352739
 21
-95.873270445642945
 31
0.0
  0
LINE
  5
17055
  8
0
 10
320.09999949112512
 20
-106.87326995017931
 30
0.0
 11
320.09999949112512
 21
-108.87327004517419
 31
0.0
  0
LINE
  5
17056
  8
0
 10
323.89999955520011
 20
-108.87327004517419
 30
0.0
 11
323.89999955520011
 21
-106.87326995017931
 31
0.0
  0
LINE
  5
17057
  8
0
 10
323.00000015273667
 20
-106.87326995017931
 30
0.0
 11
323.00000015273667
 21
-101.3732704456429
 31
0.0
  0
LINE
  5
17058
  8
0
 10
320.99999982491107
 20
-101.3732704456429
 30
0.0
 11
320.99999982491107
 21
-106.87326995017931
 31
0.0
  0
LINE
  5
1705D
  8
0
 10
343.09852856349181
 20
-57.973101812406767
 30
0.0
 11
342.0828462727365
 21
-57.603422843990828
 31
0.0
  0
LINE
  5
1705E
  8
0
 10
322.91715326595408
 20
-57.603423747819889
 30
0.0
 11
321.90147113103399
 21
-57.973101812406767
 31
0.0
  0
ARC
  5
1705F
  8
0
 10
321.02688691211779
 20
-72.573271164154235
 30
0.0
 40
0.4999970642049957
 50
176.99985546278131
 51
270.00034257235689
  0
ARC
  5
17060
  8
0
 10
343.97310978462218
 20
-72.573270058212771
 30
0.0
 40
0.5
 50
270.0
 51
2.999999999995663
  0
LINE
  5
17061
  8
0
 10
321.24486129358388
 20
-58.860458725271727
 30
0.0
 11
320.52757514252579
 21
-72.547102080091364
 31
0.0
  0
LINE
  5
17062
  8
0
 10
344.47242442145921
 20
-72.54710077601483
 30
0.0
 11
343.7551384009418
 21
-58.860458725271727
 31
0.0
  0
ARC
  5
17063
  8
0
 10
322.24349208761868
 20
-58.912795522278437
 30
0.0
 40
1.0000013015569491
 50
110.0000224441149
 51
176.99995566997421
  0
ARC
  5
17064
  8
0
 10
342.75650760690661
 20
-58.912795522278778
 30
0.0
 40
1.000001301557311
 50
3.000044330041947
 51
69.999977555878061
  0
ARC
  5
17065
  8
0
 10
341.911834064716
 20
-58.073296258095191
 30
0.0
 40
0.5000261998877555
 50
70.000832177096285
 51
89.999738218638484
  0
ARC
  5
17066
  8
0
 10
323.08816089127941
 20
-58.07326092835531
 30
0.0
 40
0.4999905840441605
 50
89.999772914129494
 51
110.0000944011222
  0
LINE
  5
17067
  8
0
 10
345.00000003352739
 20
-100.8732703636866
 30
0.0
 11
345.00000003352739
 21
-88.115284511027838
 31
0.0
  0
LINE
  5
17068
  8
0
 10
319.9999996609983
 20
-88.115284511027838
 30
0.0
 11
319.9999996609983
 21
-100.8732703636866
 31
0.0
  0
LINE
  5
17069
  8
0
 10
319.9999996609983
 20
-100.8732703636866
 30
0.0
 11
320.49999974295469
 21
-101.3732704456429
 31
0.0
  0
LINE
  5
1706A
  8
0
 10
344.499999951571
 20
-101.3732704456429
 30
0.0
 11
345.00000003352739
 21
-100.8732703636866
 31
0.0
  0
ARC
  5
1706B
  8
0
 10
320.49999984726293
 20
-88.115284530116256
 30
0.0
 40
0.500000000000012
 50
110.0000000000035
 51
180.0
  0
ARC
  5
1706C
  8
0
 10
344.49999984726293
 20
-88.115284530116256
 30
0.0
 40
0.5000000000000169
 50
0.0
 51
69.999999999996504
  0
LINE
  5
1706D
  8
0
 10
344.67101033404452
 20
-87.645437860069777
 30
0.0
 11
342.26319223269797
 21
-86.769063317356611
 31
0.0
  0
LINE
  5
1706E
  8
0
 10
322.73680746182782
 20
-86.769063317356611
 30
0.0
 11
320.32898936048127
 21
-87.645437860069777
 31
0.0
  0
ARC
  5
1706F
  8
0
 10
342.39999984726268
 20
-86.393187042928915
 30
0.0
 40
0.4000000000000057
 50
180.0
 51
249.9999999999965
  0
ARC
  5
17070
  8
0
 10
322.59999984726278
 20
-86.393187042928915
 30
0.0
 40
0.3999999999999915
 50
290.00000000000341
 51
0.0
  0
LINE
  5
17071
  8
0
 10
341.99999954178912
 20
-86.393187114177252
 30
0.0
 11
341.99999954178912
 21
-73.073268228350187
 31
0.0
  0
LINE
  5
17072
  8
0
 10
323.00000015273667
 20
-73.073268228350187
 30
0.0
 11
323.00000015273667
 21
-86.393187114177252
 31
0.0
  0
ARC
  5
17073
  8
0
 10
339.69999984726269
 20
-101.7732700582128
 30
0.0
 40
0.4000000000000057
 50
90.0
 51
180.0
  0
ARC
  5
17074
  8
0
 10
325.29999984726282
 20
-101.7732700582128
 30
0.0
 40
0.4000000000000057
 50
0.0
 51
90.0
  0
LINE
  5
17075
  8
0
 10
325.49999963119598
 20
-108.87327004517419
 30
0.0
 11
326.49999979510881
 21
-109.873270034464
 31
0.0
  0
LINE
  5
17076
  8
0
 10
338.49999989941688
 20
-109.873270034464
 30
0.0
 11
339.50000006332971
 21
-108.87327004517419
 31
0.0
  0
LINE
  5
17079
  8
0
 10
339.50000006332971
 20
-104.7196800942998
 30
0.0
 11
339.2999999374149
 21
-104.3732700060587
 31
0.0
  0
LINE
  5
1707A
  8
0
 10
325.69999975711079
 20
-104.3732700060587
 30
0.0
 11
325.49999963119598
 21
-104.7196800942998
 31
0.0
  0
LINE
  5
1707B
  8
0
 10
339.2999999374149
 20
-104.3732700060587
 30
0.0
 11
339.2999999374149
 21
-101.77326976614999
 31
0.0
  0
LINE
  5
1707E
  8
0
 10
320.09999949112512
 20
-108.87327004517419
 30
0.0
 11
323.89999955520011
 21
-108.87327004517419
 31
0.0
  0
LINE
  5
17082
  8
0
 10
325.69999975711062
 20
-104.3732700060587
 30
0.0
 11
325.69999975711079
 21
-101.77326976614999
 31
0.0
  0
LINE
  5
17083
  8
0
 10
343.97310978462218
 20
-73.073270058212771
 30
0.0
 11
321.026889901608
 21
-73.073268228350187
 31
0.0
  0
LINE
  5
17084
  8
0
 10
323.08816287294007
 20
-57.573270344315077
 30
0.0
 11
341.91183634930923
 21
-57.573270058212771
 31
0.0
  0
ARC
  5
17086
  8
0
 10
330.11606181722482
 20
-90.469726887290008
 30
0.0
 40
1.8876251922317679
 50
139.00178659000699
 51
183.02120469311441
  0
ARC
  5
17087
  8
0
 10
330.11706974636058
 20
-90.668358379698589
 30
0.0
 40
1.888613573276547
 50
176.9908620650105
 51
220.98609756473411
  0
POLYLINE
  5
17088
  8
0
 66
     1
 10
0.0
 20
0.0
 30
0.0
 70
   128
  0
VERTEX
  5
17DA8
  8
0
 10
329.68793978542072
 20
-92.332730361400152
 30
0.0
  0
VERTEX
  5
17DA9
  8
0
 10
329.14438523910923
 20
-92.22667507189324
 30
0.0
  0
VERTEX
  5
17DAA
  8
0
 10
328.69141438603378
 20
-91.907054477510954
 30
0.0
  0
SEQEND
  5
17DAB
  8
0
  0
POLYLINE
  5
17089
  8
0
 66
     1
 10
0.0
 20
0.0
 30
0.0
 70
   128
  0
VERTEX
  5
17DAC
  8
0
 10
330.7036881484089
 20
-91.907054477510954
 30
0.0
  0
VERTEX
  5
17DAD
  8
0
 10
330.23715654015518
 20
-92.22667507189324
 30
0.0
  0
VERTEX
  5
17DAE
  8
0
 10
329.68793978542072
 20
-92.332730361400152
 30
0.0
  0
SEQEND
  5
17DAF
  8
0
  0
ARC
  5
1708A
  8
0
 10
329.3447897952567
 20
-90.660789555435727
 30
0.0
 40
1.8438495031304949
 50
317.475623621681
 51
2.8467530412775721
  0
ARC
  5
1708B
  8
0
 10
329.3457645573128
 20
-90.477290871249934
 30
0.0
 40
1.842893367002254
 50
357.14087536529399
 51
42.536798903419211
  0
POLYLINE
  5
1708C
  8
0
 66
     1
 10
0.0
 20
0.0
 30
0.0
 70
   128
  0
VERTEX
  5
17DB0
  8
0
 10
329.68793978542072
 20
-88.80570187526753
 30
0.0
  0
VERTEX
  5
17DB1
  8
0
 10
330.23715654015518
 20
-88.911755302129293
 30
0.0
  0
VERTEX
  5
17DB2
  8
0
 10
330.7036881484089
 20
-89.231377759156729
 30
0.0
  0
SEQEND
  5
17DB3
  8
0
  0
POLYLINE
  5
1708D
  8
0
 66
     1
 10
0.0
 20
0.0
 30
0.0
 70
   128
  0
VERTEX
  5
17DB4
  8
0
 10
328.69141438603378
 20
-89.231377759156729
 30
0.0
  0
VERTEX
  5
17DB5
  8
0
 10
329.14438523910923
 20
-88.911755302129293
 30
0.0
  0
VERTEX
  5
17DB6
  8
0
 10
329.68793978542072
 20
-88.80570187526753
 30
0.0
  0
SEQEND
  5
17DB7
  8
0
  0
LINE
  5
1708E
  8
0
 10
336.96169063076348
 20
-88.846242346940542
 30
0.0
 11
334.70610139518948
 21
-88.846242346940542
 31
0.0
  0
LINE
  5
1708F
  8
0
 10
334.70610139518948
 20
-92.312459194241072
 30
0.0
 11
334.70610139518948
 21
-88.846242346940542
 31
0.0
  0
LINE
  5
17090
  8
0
 10
335.17656039074041
 20
-92.312459194241072
 30
0.0
 11
334.70610139518948
 21
-92.312459194241072
 31
0.0
  0
LINE
  5
17091
  8
0
 10
335.17656039074041
 20
-90.750146948872114
 30
0.0
 11
335.17656039074041
 21
-92.312459194241072
 31
0.0
  0
LINE
  5
17092
  8
0
 10
336.58070984855271
 20
-90.750146948872114
 30
0.0
 11
335.17656039074041
 21
-90.750146948872114
 31
0.0
  0
LINE
  5
17093
  8
0
 10
336.58070984855271
 20
-90.366512828646208
 30
0.0
 11
336.58070984855271
 21
-90.750146948872114
 31
0.0
  0
LINE
  5
17094
  8
0
 10
336.58070984855271
 20
-90.366512828646208
 30
0.0
 11
335.17656039074041
 21
-90.366512828646208
 31
0.0
  0
LINE
  5
17095
  8
0
 10
335.17656039074041
 20
-89.229876467166449
 30
0.0
 11
335.17656039074041
 21
-90.366512828646208
 31
0.0
  0
LINE
  5
17096
  8
0
 10
336.96169063076348
 20
-89.229876467166449
 30
0.0
 11
335.17656039074041
 21
-89.229876467166449
 31
0.0
  0
LINE
  5
17097
  8
0
 10
336.96169063076348
 20
-88.846242346940542
 30
0.0
 11
336.96169063076348
 21
-89.229876467166449
 31
0.0
  0
LINE
  5
17098
  8
0
 10
334.22198385559
 20
-88.846242346940542
 30
0.0
 11
331.88313339231507
 21
-88.846242346940542
 31
0.0
  0
LINE
  5
17099
  8
0
 10
331.88313339231507
 20
-92.312459194241072
 30
0.0
 11
331.88313339231507
 21
-88.846242346940542
 31
0.0
  0
LINE
  5
1709A
  8
0
 10
332.36261523014377
 20
-92.312459194241072
 30
0.0
 11
331.88313339231507
 21
-92.312459194241072
 31
0.0
  0
LINE
  5
1709B
  8
0
 10
332.36261523014377
 20
-90.750146948872114
 30
0.0
 11
332.36261523014377
 21
-92.312459194241072
 31
0.0
  0
LINE
  5
1709C
  8
0
 10
333.81960838194908
 20
-90.750146948872114
 30
0.0
 11
332.36261523014377
 21
-90.750146948872114
 31
0.0
  0
LINE
  5
1709D
  8
0
 10
333.81960838194908
 20
-90.366512828646208
 30
0.0
 11
333.81960838194908
 21
-90.750146948872114
 31
0.0
  0
LINE
  5
1709E
  8
0
 10
333.81960838194908
 20
-90.366512828646208
 30
0.0
 11
332.36261523014377
 21
-90.366512828646208
 31
0.0
  0
LINE
  5
1709F
  8
0
 10
332.36261523014377
 20
-89.229876467166449
 30
0.0
 11
332.36261523014377
 21
-90.366512828646208
 31
0.0
  0
LINE
  5
170A0
  8
0
 10
334.22198385559
 20
-89.229876467166449
 30
0.0
 11
332.36261523014377
 21
-89.229876467166449
 31
0.0
  0
LINE
  5
170A1
  8
0
 10
334.22198385559
 20
-88.846242346940542
 30
0.0
 11
334.22198385559
 21
-89.229876467166449
 31
0.0
  0
POLYLINE
  5
170A2
  8
0
 66
     1
 10
0.0
 20
0.0
 30
0.0
 70
   128
  0
VERTEX
  5
17DB8
  8
0
 10
324.11725569143869
 20
-88.873269328055883
 30
0.0
  0
VERTEX
  5
17DB9
  8
0
 10
325.12437674775703
 20
-89.623270847974325
 30
0.0
  0
VERTEX
  5
17DBA
  8
0
 10
326.2110825777051
 20
-90.373270505247618
 30
0.0
  0
SEQEND
  5
17DBB
  8
0
  0
LINE
  5
170A3
  8
0
 10
324.11725569143869
 20
-89.623270847974325
 30
0.0
 11
324.11725569143869
 21
-88.873269328055883
 31
0.0
  0
LINE
  5
170A4
  8
0
 10
324.11725569143869
 20
-89.623270847974325
 30
0.0
 11
320.27839153632499
 21
-89.623270847974325
 31
0.0
  0
LINE
  5
170A5
  8
0
 10
320.27839153632499
 20
-88.873269328055883
 30
0.0
 11
320.27839153632499
 21
-89.623270847974325
 31
0.0
  0
POLYLINE
  5
170A6
  8
0
 66
     1
 10
0.0
 20
0.0
 30
0.0
 70
   128
  0
VERTEX
  5
17DBC
  8
0
 10
320.00008068606229
 20
-90.373270505247618
 30
0.0
  0
VERTEX
  5
17DBD
  8
0
 10
320.0721864737568
 20
-89.623270847974325
 30
0.0
  0
VERTEX
  5
17DBE
  8
0
 10
320.27839153632499
 20
-88.873269328055883
 30
0.0
  0
SEQEND
  5
17DBF
  8
0
  0
POLYLINE
  5
170A7
  8
0
 66
     1
 10
0.0
 20
0.0
 30
0.0
 70
   128
  0
VERTEX
  5
17DC0
  8
0
 10
320.27839153632499
 20
-91.873269819794203
 30
0.0
  0
VERTEX
  5
17DC1
  8
0
 10
320.0721864737568
 20
-91.12327016252091
 30
0.0
  0
VERTEX
  5
17DC2
  8
0
 10
320.00008068606229
 20
-90.373270505247618
 30
0.0
  0
SEQEND
  5
17DC3
  8
0
  0
LINE
  5
170A8
  8
0
 10
320.27839153632499
 20
-91.12327016252091
 30
0.0
 11
320.27839153632499
 21
-91.873269819794203
 31
0.0
  0
LINE
  5
170A9
  8
0
 10
324.11725569143869
 20
-91.12327016252091
 30
0.0
 11
320.27839153632499
 21
-91.12327016252091
 31
0.0
  0
LINE
  5
170AA
  8
0
 10
324.11725569143869
 20
-91.873269819794203
 30
0.0
 11
324.11725569143869
 21
-91.12327016252091
 31
0.0
  0
POLYLINE
  5
170AB
  8
0
 66
     1
 10
0.0
 20
0.0
 30
0.0
 70
   128
  0
VERTEX
  5
17DC4
  8
0
 10
326.2110825777051
 20
-90.373270505247618
 30
0.0
  0
VERTEX
  5
17DC5
  8
0
 10
325.12437674775703
 20
-91.12327016252091
 30
0.0
  0
VERTEX
  5
17DC6
  8
0
 10
324.11725569143869
 20
-91.873269819794203
 30
0.0
  0
SEQEND
  5
17DC7
  8
0
  0
ARC
  5
170AD
  8
0
 10
329.27093862028619
 20
-90.706448562698668
 30
0.0
 40
1.4393068504451489
 50
319.37754983964038
 51
5.4712835271054612
  0
ARC
  5
170AE
  8
0
 10
329.68528850345751
 20
-90.099016270464858
 30
0.0
 40
0.9081828529677796
 50
41.697778854760593
 51
89.832734694277434
  0
ARC
  5
170AF
  8
0
 10
329.27093939174551
 20
-90.431983191677546
 30
0.0
 40
1.439305950888573
 50
354.52876824344639
 51
40.622455582526442
  0
ARC
  5
170B0
  8
0
 10
329.6823062060339
 20
-91.032790801008005
 30
0.0
 40
0.9148214944657839
 50
270.35283644349971
 51
318.11665000745307
  0
ARC
  5
170B1
  8
0
 10
329.68868602835278
 20
-91.062534411996367
 30
0.0
 40
0.8850608517866806
 50
221.03036384512089
 51
269.95169080691898
  0
ARC
  5
170B2
  8
0
 10
330.1465876380293
 20
-90.710478633405287
 30
0.0
 40
1.4620138695000979
 50
174.45528768197241
 51
219.6579625339204
  0
ARC
  5
170B3
  8
0
 10
330.14658682220193
 20
-90.427953108037926
 30
0.0
 40
1.4620129253669369
 50
140.34203200280251
 51
185.54466206923621
  0
ARC
  5
170B4
  8
0
 10
329.69114191183922
 20
-90.081284533494525
 30
0.0
 40
0.8904530035559614
 50
90.206039761714479
 51
138.811905586237
  0
LINE
  5
170B5
  8
0
 10
338.49999989941688
 20
-109.873270034464
 30
0.0
 11
326.49999979510881
 21
-109.873270034464
 31
0.0
  0
LINE
  5
170B6
  8
0
 10
325.49999963119598
 20
-108.87327004517419
 30
0.0
 11
339.50000006332971
 21
-108.87327004517419
 31
0.0
  0
LINE
  5
170B7
  8
0
 10
339.50000006332971
 20
-104.7196800942998
 30
0.0
 11
325.49999963119598
 21
-104.7196800942998
 31
0.0
  0
LINE
  5
170B9
  8
0
 10
339.2999999374149
 20
-104.3732700060587
 30
0.0
 11
325.69999975711079
 21
-104.3732700060587
 31
0.0
  0
ARC
  5
170BC
  8
0
 10
334.20974548768282
 20
-72.586132249033895
 30
0.0
 40
0.4874205324402663
 50
271.95789108894758
 51
4.5930269757680477
  0
ARC
  5
170BD
  8
0
 10
333.8405141872351
 20
-70.473942859248851
 30
0.0
 40
8.9227309592618216
 50
87.156301906204007
 51
92.843698093796007
  0
LINE
  5
170BE
  8
0
 10
334.28318443801231
 20
-61.562199437199141
 30
0.0
 11
334.69560073316069
 21
-72.54710077601483
 31
0.0
  0
ARC
  5
170BF
  8
0
 10
330.79025420684269
 20
-72.586132249033895
 30
0.0
 40
0.487420532440255
 50
175.40697302423189
 51
268.04210891105242
  0
ARC
  5
170C0
  8
0
 10
331.15948550729058
 20
-70.473942859248851
 30
0.0
 40
8.9227309592618216
 50
87.156301906204007
 51
92.843698093796007
  0
LINE
  5
170C1
  8
0
 10
330.304398961365
 20
-72.54710077601483
 30
0.0
 11
330.71681525651343
 21
-61.562199437199141
 31
0.0
  0
LINE
  5
170C2
  8
0
 10
333.397843936458
 20
-61.562199437199141
 30
0.0
 11
331.60215575806768
 21
-61.562199437199141
 31
0.0
  0
ARC
  5
170C3
  8
0
 10
329.28999449259959
 20
-61.409571245942409
 30
0.0
 40
1.4349609252875699
 50
353.8942415786031
 51
30.798466208757048
  0
ARC
  5
170C4
  8
0
 10
335.59230577307989
 20
-61.383808853758708
 30
0.0
 40
1.3212198417332299
 50
147.5475385604868
 51
187.75975365215601
  0
ARC
  5
170C5
  8
0
 10
329.47452074537568
 20
-72.586132291596655
 30
0.0
 40
0.4874204923901652
 50
175.40696762670021
 51
268.04210018556267
  0
ARC
  5
170C6
  8
0
 10
335.52547894914977
 20
-72.586132291596655
 30
0.0
 40
0.4874204923901961
 50
271.95789981443733
 51
4.5930323732996889
  0
LINE
  5
170C7
  8
0
 10
335.38165578246088
 20
-59.761029028473402
 30
0.0
 11
334.47741164453299
 21
-60.67484273868611
 31
0.0
  0
LINE
  5
170C8
  8
0
 10
336.0113341510293
 20
-72.54710077601483
 30
0.0
 11
335.38165578246088
 21
-59.761029028473402
 31
0.0
  0
LINE
  5
170C9
  8
0
 10
330.52258804999269
 20
-60.67484273868611
 30
0.0
 11
329.6183439120648
 21
-59.761029028473402
 31
0.0
  0
LINE
  5
170CA
  8
0
 10
329.6183439120648
 20
-59.761029028473402
 30
0.0
 11
328.98866554349638
 21
-72.54710077601483
 31
0.0
  0
POLYLINE
  5
170CB
  8
0
 66
     1
 10
0.0
 20
0.0
 30
0.0
 70
   128
  0
VERTEX
  5
17DC8
  8
0
 10
338.30008312687249
 20
-72.54710077601483
 30
0.0
  0
VERTEX
  5
17DC9
  8
0
 10
338.29767565801723
 20
-72.648253583488966
 30
0.0
  0
VERTEX
  5
17DCA
  8
0
 10
338.28544320166088
 20
-72.746329301176573
 30
0.0
  0
VERTEX
  5
17DCB
  8
0
 10
338.26388774067141
 20
-72.837304615555311
 30
0.0
  0
VERTEX
  5
17DCC
  8
0
 10
338.233893100172
 20
-72.917446785746122
 30
0.0
  0
VERTEX
  5
17DCD
  8
0
 10
338.19669048860641
 20
-72.983470105705763
 30
0.0
  0
VERTEX
  5
17DCE
  8
0
 10
338.15380587801309
 20
-73.032666289387251
 30
0.0
  0
VERTEX
  5
17DCF
  8
0
 10
338.1069980710742
 20
-73.063012504158522
 30
0.0
  0
VERTEX
  5
17DD0
  8
0
 10
338.05818838626118
 20
-73.073268228350187
 30
0.0
  0
SEQEND
  5
17DD1
  8
0
  0
POLYLINE
  5
170CC
  8
0
 66
     1
 10
0.0
 20
0.0
 30
0.0
 70
   128
  0
VERTEX
  5
17DD2
  8
0
 10
326.9418113082645
 20
-73.073268228350187
 30
0.0
  0
VERTEX
  5
17DD3
  8
0
 10
326.89300162345148
 20
-73.063012504158522
 30
0.0
  0
VERTEX
  5
17DD4
  8
0
 10
326.8461938165126
 20
-73.032666289387251
 30
0.0
  0
VERTEX
  5
17DD5
  8
0
 10
326.80330920591928
 20
-72.983470105705763
 30
0.0
  0
VERTEX
  5
17DD6
  8
0
 10
326.76610659435369
 20
-72.917446785746122
 30
0.0
  0
VERTEX
  5
17DD7
  8
0
 10
326.73611195385428
 20
-72.837304615555311
 30
0.0
  0
VERTEX
  5
17DD8
  8
0
 10
326.7145564928648
 20
-72.746329301176573
 30
0.0
  0
VERTEX
  5
17DD9
  8
0
 10
326.70232403650863
 20
-72.648253583488966
 30
0.0
  0
VERTEX
  5
17DDA
  8
0
 10
326.69991656765319
 20
-72.54710077601483
 30
0.0
  0
SEQEND
  5
17DDB
  8
0
  0
ARC
  5
170CD
  8
0
 10
327.2995144297463
 20
-62.260770613937787
 30
0.0
 40
3.40964487332166
 50
47.150146486983033
 51
94.240259595009178
  0
LINE
  5
170CE
  8
0
 10
326.69991656765319
 20
-72.54710077601483
 30
0.0
 11
327.04740885272599
 21
-58.860458725271727
 31
0.0
  0
ARC
  5
170CF
  8
0
 10
337.7011069080832
 20
-62.262545272239329
 30
0.0
 40
3.4113687930177972
 50
85.772356510721494
 51
132.8372374072878
  0
LINE
  5
170D0
  8
0
 10
337.95259084179969
 20
-58.860458725271727
 30
0.0
 11
338.30008312687249
 21
-72.54710077601483
 31
0.0
  0
LINE
  5
170D1
  8
0
 10
327.04740885272599
 20
-58.860458725271727
 30
0.0
 11
321.24486129358388
 21
-58.860458725271727
 31
0.0
  0
LINE
  5
170D2
  8
0
 10
343.7551384009418
 20
-58.860458725271727
 30
0.0
 11
337.95259084179969
 21
-58.860458725271727
 31
0.0
  0
LINE
  5
170D3
  8
0
 10
320.32898936048127
 20
-87.645437860069777
 30
0.0
 11
344.67101033404452
 21
-87.645437860069777
 31
0.0
  0
LINE
  5
170D4
  8
0
 10
323.00000015273667
 20
-86.393187114177252
 30
0.0
 11
341.99999984726293
 21
-86.393187114177252
 31
0.0
  0
LINE
  5
170D6
  8
0
 10
339.2999999374149
 20
-101.77326976614999
 30
0.0
 11
325.69999975711079
 21
-101.77326976614999
 31
0.0
  0
LINE
  5
170D7
  8
3
 10
322.79999952316228
 20
-105.87326995017931
 30
0.0
 11
322.79999952316228
 21
-101.3732704456429
 31
0.0
  0
LINE
  5
170D8
  8
3
 10
323.00000015273667
 20
-106.2196812021475
 30
0.0
 11
322.79999952316228
 21
-105.87326995017931
 31
0.0
  0
LINE
  5
170D9
  8
0
 10
320.99999982491107
 20
-105.87326995017931
 30
0.0
 11
323.00000015273667
 21
-105.87326995017931
 31
0.0
  0
LINE
  5
170DA
  8
3
 10
321.19999952316238
 20
-105.87326995017931
 30
0.0
 11
321.19999952316238
 21
-101.3732704456429
 31
0.0
  0
LINE
  5
170DB
  8
3
 10
320.9999988935885
 20
-106.2196812021475
 30
0.0
 11
321.19999952316238
 21
-105.87326995017931
 31
0.0
  0
LINE
  5
170E3
  8
1
 10
332.49999984726293
 20
-115.3732704456429
 30
0.0
 11
332.49999984726293
 21
-52.573270201263888
 31
0.0
  0
LINE
  5
170E5
  8
0
 10
323.00000015273667
 20
-101.8732704456431
 30
0.0
 11
323.19999984726309
 21
-101.8732704456432
 31
0.0
  0
LINE
  5
170E6
  8
0
 10
339.2999999374149
 20
-102.3732704456429
 30
0.0
 11
339.4999992274943
 21
-102.373270445643
 31
0.0
  0
LINE
  5
170E7
  8
0
 10
338.99999957554928
 20
-109.373270445643
 30
0.0
 11
339.4999992274943
 21
-109.373270445643
 31
0.0
  0
LINE
  5
170EF
  8
0
 10
319.9999996609983
 20
-95.873270445642973
 30
0.0
 11
319.49999984726293
 21
-95.873270445642973
 31
0.0
  0
LINE
  5
170F0
  8
0
 10
319.99999966099858
 20
-95.373270445642973
 30
0.0
 11
307.49999915572931
 21
-95.373270445642959
 31
0.0
  0
LINE
  5
17112
  8
1
 10
247.49999976766151
 20
-222.46660061535559
 30
0.0
 11
247.49999976766151
 21
-191.46660061535559
 31
0.0
  0
LINE
  5
17113
  8
1
 10
262.99999976766151
 20
-206.96660061535559
 30
0.0
 11
231.99999976766151
 21
-206.96660061535559
 31
0.0
  0
CIRCLE
  5
17114
  8
0
 10
247.49999976766151
 20
-206.96660061535559
 30
0.0
 40
7.0
  0
CIRCLE
  5
17115
  8
1
 10
247.49999976766151
 20
-206.96660061535559
 30
0.0
 40
10.5
  0
CIRCLE
  5
17116
  8
0
 10
236.99999976766151
 20
-206.96660061535559
 30
0.0
 40
1.1999999999999991
  0
CIRCLE
  5
17117
  8
2
 10
236.99999976766151
 20
-206.96660061535559
 30
0.0
 40
2.2000000000000002
  0
LINE
  5
17118
  8
1
 10
250.64999976766151
 20
-212.42256065919759
 30
0.0
 11
254.8499997676615
 21
-219.6971740509868
 31
0.0
  0
CIRCLE
  5
17119
  8
0
 10
252.74999976766151
 20
-216.05986735509219
 30
0.0
 40
1.1999999999999991
  0
CIRCLE
  5
1711A
  8
2
 10
252.74999976766151
 20
-216.05986735509219
 30
0.0
 40
2.2000000000000002
  0
LINE
  5
1711B
  8
1
 10
250.64999976766151
 20
-201.5106405715137
 30
0.0
 11
254.8499997676615
 21
-194.23602717972429
 31
0.0
  0
CIRCLE
  5
1711C
  8
0
 10
252.74999976766151
 20
-197.87333387561901
 30
0.0
 40
1.1999999999999991
  0
CIRCLE
  5
1711D
  8
2
 10
252.74999976766151
 20
-197.87333387561901
 30
0.0
 40
2.2000000000000002
  0
LINE
  5
1711E
  8
0
 10
240.5000001550917
 20
-251.24510623177511
 30
0.0
 11
240.5000001550917
 21
-255.24510617962071
 31
0.0
  0
LINE
  5
1711F
  8
0
 10
272.5000006915335
 20
-256.24510617962079
 30
0.0
 11
222.49999884378951
 21
-256.24510617962079
 31
0.0
  0
LINE
  5
17120
  8
1
 10
247.49999953532301
 20
-245.24510620569791
 30
0.0
 11
247.4999995353229
 21
-261.24510617962079
 31
0.0
  0
LINE
  5
17121
  8
1
 10
236.99999976766151
 20
-248.24510620569799
 30
0.0
 11
236.99999976766151
 21
-258.24510617962079
 31
0.0
  0
LINE
  5
17122
  8
0
 10
254.49999891555419
 20
-251.24510623177511
 30
0.0
 11
254.4999989155543
 21
-255.24510617962079
 31
0.0
  0
LINE
  5
17123
  8
0
 10
239.5000001550917
 20
-256.24510617962079
 30
0.0
 11
240.5000001550917
 21
-255.24510617962079
 31
0.0
  0
LINE
  5
17124
  8
0
 10
255.4999989155543
 20
-256.24510617962079
 30
0.0
 11
254.4999989155543
 21
-255.24510617962079
 31
0.0
  0
LINE
  5
17125
  8
0
 10
240.5000001550917
 20
-255.24510617962079
 30
0.0
 11
254.4999989155543
 21
-255.2451061796209
 31
0.0
  0
LINE
  5
17126
  8
0
 10
235.80000019979511
 20
-250.74510620569799
 30
0.0
 11
235.30000019979511
 21
-250.24510620569811
 31
0.0
  0
LINE
  5
17127
  8
0
 10
239.2000001997952
 20
-252.74510617962079
 30
0.0
 11
234.80000019979511
 21
-252.74510617962079
 31
0.0
  0
LINE
  5
17128
  8
0
 10
234.80000019979511
 20
-255.74510617962079
 30
0.0
 11
234.30000019979511
 21
-256.24510617962079
 31
0.0
  0
LINE
  5
17129
  8
0
 10
234.80000019979511
 20
-252.74510617962079
 30
0.0
 11
234.80000019979511
 21
-255.74510617962079
 31
0.0
  0
LINE
  5
1712A
  8
0
 10
235.80000019979511
 20
-252.74510568415721
 30
0.0
 11
235.80000019979511
 21
-250.74510620569799
 31
0.0
  0
LINE
  5
1712B
  8
0
 10
238.20000019979511
 20
-252.74510568415721
 30
0.0
 11
238.20000019979511
 21
-250.74510620569791
 31
0.0
  0
LINE
  5
1712C
  8
0
 10
239.20000019979511
 20
-252.74510617962079
 30
0.0
 11
239.20000019979511
 21
-255.74510617962079
 31
0.0
  0
LINE
  5
1712D
  8
0
 10
238.20000019979511
 20
-250.74510620569799
 30
0.0
 11
238.70000019979511
 21
-250.24510620569811
 31
0.0
  0
LINE
  5
1712E
  8
0
 10
239.20000019979511
 20
-255.74510617962079
 30
0.0
 11
239.60000017744349
 21
-256.14510615726908
 31
0.0
  0
LINE
  5
1712F
  8
0
 10
235.80000019979511
 20
-250.74510620569899
 30
0.0
 11
238.20000019979511
 21
-250.74510620569799
 31
0.0
  0
LINE
  5
17130
  8
0
 10
234.80000019979511
 20
-255.74510617962079
 30
0.0
 11
239.20000019979511
 21
-255.74510617962079
 31
0.0
  0
LINE
  5
17131
  8
0
 10
272.5000006915335
 20
-250.24510620569779
 30
0.0
 11
222.49999884378951
 21
-250.24510620569811
 31
0.0
  0
LINE
  5
17132
  8
0
 10
239.5000001550917
 20
-250.24510623177511
 30
0.0
 11
240.5000001550917
 21
-251.24510623177511
 31
0.0
  0
LINE
  5
17133
  8
0
 10
255.4999989155543
 20
-250.24510623177511
 30
0.0
 11
254.4999989155543
 21
-251.24510623177511
 31
0.0
  0
LINE
  5
17134
  8
0
 10
240.50000015509161
 20
-251.2451062317752
 30
0.0
 11
254.49999891555419
 21
-251.24510623177531
 31
0.0
  0
LINE
  5
17179
  8
0
 10
170.50000038742991
 20
-250.59151582827769
 30
0.0
 11
170.50000038742991
 21
-255.24510617962071
 31
0.0
  0
LINE
  5
1717A
  8
0
 10
202.5000009238718
 20
-256.24510617962079
 30
0.0
 11
152.49999907612781
 21
-256.24510617962079
 31
0.0
  0
LINE
  5
1717C
  8
1
 10
166.99999999999969
 20
-245.2451061796209
 30
0.0
 11
166.99999999999969
 21
-258.24510617962079
 31
0.0
  0
LINE
  5
1717E
  8
0
 10
169.50000038742991
 20
-256.24510617962079
 30
0.0
 11
170.50000038742991
 21
-255.24510617962079
 31
0.0
  0
LINE
  5
1717F
  8
0
 10
185.49999914789259
 20
-256.24510617962079
 30
0.0
 11
184.49999914789259
 21
-255.24510617962079
 31
0.0
  0
LINE
  5
17180
  8
0
 10
170.50000038742991
 20
-255.24510617962079
 30
0.0
 11
171.00000027171299
 21
-255.24510617962079
 31
0.0
  0
LINE
  5
17181
  8
0
 10
165.8000004321334
 20
-250.74510620569799
 30
0.0
 11
165.3000004321334
 21
-250.24510620569811
 31
0.0
  0
LINE
  5
17182
  8
0
 10
169.20000043213349
 20
-252.74510617962079
 30
0.0
 11
164.8000004321334
 21
-252.74510617962079
 31
0.0
  0
LINE
  5
17183
  8
0
 10
164.8000004321334
 20
-255.74510617962079
 30
0.0
 11
164.3000004321334
 21
-256.24510617962079
 31
0.0
  0
LINE
  5
17184
  8
0
 10
164.8000004321334
 20
-252.74510617962079
 30
0.0
 11
164.8000004321334
 21
-255.74510617962079
 31
0.0
  0
LINE
  5
17185
  8
0
 10
165.8000004321334
 20
-252.74510568415721
 30
0.0
 11
165.8000004321334
 21
-250.74510620569799
 31
0.0
  0
LINE
  5
17186
  8
0
 10
168.20000043213341
 20
-252.74510568415721
 30
0.0
 11
168.20000043213341
 21
-250.74510620569791
 31
0.0
  0
LINE
  5
17187
  8
0
 10
169.20000043213341
 20
-252.74510617962079
 30
0.0
 11
169.20000043213341
 21
-255.74510617962079
 31
0.0
  0
LINE
  5
17188
  8
0
 10
168.20000043213341
 20
-250.74510620569799
 30
0.0
 11
168.70000043213329
 21
-250.24510620569811
 31
0.0
  0
LINE
  5
17189
  8
0
 10
169.20000043213341
 20
-255.74510617962079
 30
0.0
 11
169.6000004097817
 21
-256.14510615726908
 31
0.0
  0
LINE
  5
1718A
  8
0
 10
165.8000004321334
 20
-250.74510620569899
 30
0.0
 11
165.999999977648
 21
-250.74510620569899
 31
0.0
  0
LINE
  5
1718B
  8
0
 10
164.8000004321334
 20
-255.74510617962079
 30
0.0
 11
169.20000043213341
 21
-255.74510617962079
 31
0.0
  0
LINE
  5
1718C
  8
0
 10
202.5000009238718
 20
-250.24510620569779
 30
0.0
 11
152.49999907612781
 21
-250.24510620569811
 31
0.0
  0
LINE
  5
1718D
  8
0
 10
169.50000038742991
 20
-250.24510623177511
 30
0.0
 11
170.50000038742991
 21
-251.24510623177511
 31
0.0
  0
LINE
  5
1718E
  8
0
 10
185.49999914789259
 20
-250.24510623177511
 30
0.0
 11
184.49999914789259
 21
-251.24510623177511
 31
0.0
  0
LINE
  5
17197
  8
0
 10
320.29999985036261
 20
-249.24510617962099
 30
0.0
 11
319.99999942865969
 21
-249.54510619387031
 31
0.0
  0
LINE
  5
17198
  8
0
 10
319.99999942865969
 20
-249.54510619387031
 30
0.0
 11
319.99999942865969
 21
-251.9451062496565
 31
0.0
  0
LINE
  5
17199
  8
0
 10
319.99999942865969
 20
-251.9451062496565
 30
0.0
 11
320.29999985036261
 21
-252.24510620569811
 31
0.0
  0
LINE
  5
1719A
  8
0
 10
320.29999985036261
 20
-249.24510617962099
 30
0.0
 11
344.69999937948597
 21
-249.24510617962099
 31
0.0
  0
LINE
  5
1719C
  8
0
 10
344.99999980118878
 20
-249.54510619387031
 30
0.0
 11
344.69999937948592
 21
-249.24510617962099
 31
0.0
  0
LINE
  5
1719E
  8
0
 10
344.99999980118878
 20
-249.54510619387031
 30
0.0
 11
344.99999980118878
 21
-251.9451062496565
 31
0.0
  0
LINE
  5
171A0
  8
0
 10
344.69999937948592
 20
-252.24510620569811
 30
0.0
 11
344.99999980118878
 21
-251.9451062496565
 31
0.0
  0
LINE
  5
171A9
  8
0
 10
165.30000023543809
 20
-247.2451061796209
 30
0.0
 11
164.9999998137352
 21
-247.5451061938702
 31
0.0
  0
LINE
  5
171AA
  8
0
 10
164.9999998137352
 20
-247.5451061938702
 30
0.0
 11
164.9999998137352
 21
-249.94510624965639
 31
0.0
  0
LINE
  5
171AB
  8
0
 10
164.9999998137352
 20
-249.94510624965639
 30
0.0
 11
165.30000023543809
 21
-250.24510620569791
 31
0.0
  0
LINE
  5
171AC
  8
0
 10
165.30000023543809
 20
-247.2451061796209
 30
0.0
 11
189.69999976456151
 21
-247.2451061796209
 31
0.0
  0
LINE
  5
171AE
  8
0
 10
190.00000018626429
 20
-247.5451061938702
 30
0.0
 11
189.6999997645614
 21
-247.2451061796209
 31
0.0
  0
LINE
  5
171B0
  8
0
 10
190.00000018626429
 20
-247.5451061938702
 30
0.0
 11
190.00000018626429
 21
-249.94510624965639
 31
0.0
  0
LINE
  5
171B2
  8
0
 10
189.6999997645614
 20
-250.24510620569791
 30
0.0
 11
190.00000018626429
 21
-249.94510624965639
 31
0.0
  0
LINE
  5
171B6
  8
0
 10
165.09999964386199
 20
-252.74510568415729
 30
0.0
 11
165.09999964386199
 21
-254.7451057791522
 31
0.0
  0
LINE
  5
171B7
  8
0
 10
168.89999970793701
 20
-254.7451057791522
 30
0.0
 11
168.89999970793701
 21
-252.74510568415729
 31
0.0
  0
LINE
  5
171B8
  8
0
 10
168.00000030547349
 20
-252.74510568415729
 30
0.0
 11
168.00000030547349
 21
-250.24510620569811
 31
0.0
  0
LINE
  5
171B9
  8
0
 10
165.999999977648
 20
-250.24510620569811
 30
0.0
 11
165.999999977648
 21
-252.74510568415729
 31
0.0
  0
LINE
  5
171BE
  8
0
 10
188.0985287162286
 20
-203.8449375463847
 30
0.0
 11
187.08284642547341
 21
-203.4752585779687
 31
0.0
  0
LINE
  5
171BF
  8
0
 10
167.91715341869099
 20
-203.47525948179779
 30
0.0
 11
166.90147128377089
 21
-203.8449375463847
 31
0.0
  0
ARC
  5
171C0
  8
0
 10
166.02688706485469
 20
-218.44510689813211
 30
0.0
 40
0.4999970642049957
 50
176.9998554627814
 51
270.00034257235689
  0
ARC
  5
171C1
  8
0
 10
188.97310993735911
 20
-218.4451057921907
 30
0.0
 40
0.5
 50
270.0
 51
2.999999999995663
  0
LINE
  5
171C2
  8
0
 10
166.2448614463207
 20
-204.7322944592496
 30
0.0
 11
165.52757529526269
 21
-218.4189378140693
 31
0.0
  0
LINE
  5
171C3
  8
0
 10
189.47242457419611
 20
-218.41893650999279
 30
0.0
 11
188.75513855367871
 21
-204.7322944592496
 31
0.0
  0
ARC
  5
171C4
  8
0
 10
167.24349224035561
 20
-204.7846312562564
 30
0.0
 40
1.0000013015569491
 50
110.0000224441149
 51
176.99995566997421
  0
ARC
  5
171C5
  8
0
 10
187.7565077596434
 20
-204.78463125625669
 30
0.0
 40
1.000001301557311
 50
3.000044330041947
 51
69.999977555878303
  0
ARC
  5
171C6
  8
0
 10
186.91183421745291
 20
-203.9451319920731
 30
0.0
 40
0.5000261998877555
 50
70.000832177096285
 51
89.999738218638484
  0
ARC
  5
171C7
  8
0
 10
168.0881610440162
 20
-203.94509666233321
 30
0.0
 40
0.4999905840441605
 50
89.999772914129494
 51
110.000094401122
  0
LINE
  5
171C8
  8
0
 10
190.00000018626429
 20
-246.7451060976646
 30
0.0
 11
190.00000018626429
 21
-233.9871202450058
 31
0.0
  0
LINE
  5
171C9
  8
0
 10
164.9999998137352
 20
-233.9871202450058
 30
0.0
 11
164.9999998137352
 21
-246.7451060976646
 31
0.0
  0
LINE
  5
171CA
  8
0
 10
164.9999998137352
 20
-246.7451060976646
 30
0.0
 11
165.49999989569159
 21
-247.2451061796209
 31
0.0
  0
LINE
  5
171CB
  8
0
 10
189.5000001043079
 20
-247.2451061796209
 30
0.0
 11
190.00000018626429
 21
-246.7451060976646
 31
0.0
  0
ARC
  5
171CC
  8
0
 10
165.4999999999998
 20
-233.98712026409419
 30
0.0
 40
0.500000000000012
 50
110.00000000000369
 51
180.0
  0
ARC
  5
171CD
  8
0
 10
189.49999999999969
 20
-233.98712026409419
 30
0.0
 40
0.5000000000000169
 50
0.0
 51
69.999999999996263
  0
LINE
  5
171CE
  8
0
 10
189.67101048678131
 20
-233.51727359404771
 30
0.0
 11
187.26319238543479
 21
-232.64089905133449
 31
0.0
  0
LINE
  5
171CF
  8
0
 10
167.73680761456461
 20
-232.64089905133449
 30
0.0
 11
165.32898951321809
 21
-233.51727359404771
 31
0.0
  0
ARC
  5
171D0
  8
0
 10
187.39999999999961
 20
-232.26502277690679
 30
0.0
 40
0.4000000000000057
 50
180.0
 51
249.99999999999631
  0
ARC
  5
171D1
  8
0
 10
167.59999999999971
 20
-232.26502277690679
 30
0.0
 40
0.3999999999999915
 50
290.00000000000369
 51
0.0
  0
LINE
  5
171D2
  8
0
 10
186.99999969452591
 20
-232.26502284815521
 30
0.0
 11
186.99999969452591
 21
-218.94510396232809
 31
0.0
  0
LINE
  5
171D3
  8
0
 10
168.00000030547349
 20
-218.94510396232809
 30
0.0
 11
168.00000030547349
 21
-232.26502284815521
 31
0.0
  0
LINE
  5
171D6
  8
0
 10
170.49999978393291
 20
-254.7451057791522
 30
0.0
 11
171.49999994784571
 21
-255.74510576844199
 31
0.0
  0
LINE
  5
171D7
  8
0
 10
183.50000005215381
 20
-255.74510576844199
 30
0.0
 11
184.50000021606661
 21
-254.7451057791522
 31
0.0
  0
LINE
  5
171D8
  8
0
 10
184.50000021606661
 20
-255.24510724779481
 30
0.0
 11
184.50000021606661
 21
-250.59151582827769
 31
0.0
  0
LINE
  5
171DA
  8
0
 10
184.50000021606661
 20
-250.59151582827769
 30
0.0
 11
184.3000000901518
 21
-250.24510574003659
 31
0.0
  0
LINE
  5
171DB
  8
0
 10
170.69999990984769
 20
-250.24510574003659
 30
0.0
 11
170.49999978393291
 21
-250.59151582827769
 31
0.0
  0
LINE
  5
171DF
  8
0
 10
165.09999964386199
 20
-254.7451057791522
 30
0.0
 11
168.89999970793701
 21
-254.7451057791522
 31
0.0
  0
LINE
  5
171E4
  8
0
 10
188.97310993735911
 20
-218.9451057921907
 30
0.0
 11
166.0268900543449
 21
-218.94510396232809
 31
0.0
  0
LINE
  5
171E5
  8
0
 10
168.08816302567689
 20
-203.44510607829301
 30
0.0
 11
186.9118365020461
 21
-203.4451057921907
 31
0.0
  0
ARC
  5
171E7
  8
0
 10
175.11606196996169
 20
-236.34156262126791
 30
0.0
 40
1.8876251922317679
 50
139.00178659000619
 51
183.0212046931143
  0
ARC
  5
171E8
  8
0
 10
175.11706989909749
 20
-236.54019411367651
 30
0.0
 40
1.888613573276547
 50
176.9908620650088
 51
220.98609756473471
  0
POLYLINE
  5
171E9
  8
0
 66
     1
 10
0.0
 20
0.0
 30
0.0
 70
   128
  0
VERTEX
  5
17DDC
  8
0
 10
174.68793993815751
 20
-238.20456609537811
 30
0.0
  0
VERTEX
  5
17DDD
  8
0
 10
174.14438539184599
 20
-238.0985108058712
 30
0.0
  0
VERTEX
  5
17DDE
  8
0
 10
173.69141453877069
 20
-237.77889021148891
 30
0.0
  0
SEQEND
  5
17DDF
  8
0
  0
POLYLINE
  5
171EA
  8
0
 66
     1
 10
0.0
 20
0.0
 30
0.0
 70
   128
  0
VERTEX
  5
17DE0
  8
0
 10
175.7036883011458
 20
-237.77889021148891
 30
0.0
  0
VERTEX
  5
17DE1
  8
0
 10
175.237156692892
 20
-238.0985108058712
 30
0.0
  0
VERTEX
  5
17DE2
  8
0
 10
174.68793993815751
 20
-238.20456609537811
 30
0.0
  0
SEQEND
  5
17DE3
  8
0
  0
ARC
  5
171EB
  8
0
 10
174.3447899479936
 20
-236.5326252894136
 30
0.0
 40
1.8438495031304949
 50
317.47562362168122
 51
2.8467530412775721
  0
ARC
  5
171EC
  8
0
 10
174.34576471004971
 20
-236.34912660522781
 30
0.0
 40
1.842893367002254
 50
357.14087536529399
 51
42.536798903419466
  0
POLYLINE
  5
171ED
  8
0
 66
     1
 10
0.0
 20
0.0
 30
0.0
 70
   128
  0
VERTEX
  5
17DE4
  8
0
 10
174.68793993815751
 20
-234.67753760924549
 30
0.0
  0
VERTEX
  5
17DE5
  8
0
 10
175.237156692892
 20
-234.7835910361072
 30
0.0
  0
VERTEX
  5
17DE6
  8
0
 10
175.7036883011458
 20
-235.1032134931346
 30
0.0
  0
SEQEND
  5
17DE7
  8
0
  0
POLYLINE
  5
171EE
  8
0
 66
     1
 10
0.0
 20
0.0
 30
0.0
 70
   128
  0
VERTEX
  5
17DE8
  8
0
 10
173.69141453877069
 20
-235.1032134931346
 30
0.0
  0
VERTEX
  5
17DE9
  8
0
 10
174.14438539184599
 20
-234.7835910361072
 30
0.0
  0
VERTEX
  5
17DEA
  8
0
 10
174.68793993815751
 20
-234.67753760924549
 30
0.0
  0
SEQEND
  5
17DEB
  8
0
  0
LINE
  5
171EF
  8
0
 10
181.96169078350039
 20
-234.7180780809185
 30
0.0
 11
179.70610154792641
 21
-234.7180780809185
 31
0.0
  0
LINE
  5
171F0
  8
0
 10
179.70610154792641
 20
-238.184294928219
 30
0.0
 11
179.70610154792641
 21
-234.7180780809185
 31
0.0
  0
LINE
  5
171F1
  8
0
 10
180.17656054347731
 20
-238.184294928219
 30
0.0
 11
179.70610154792641
 21
-238.184294928219
 31
0.0
  0
LINE
  5
171F2
  8
0
 10
180.17656054347731
 20
-236.62198268284999
 30
0.0
 11
180.17656054347731
 21
-238.184294928219
 31
0.0
  0
LINE
  5
171F3
  8
0
 10
181.58071000128959
 20
-236.62198268284999
 30
0.0
 11
180.17656054347731
 21
-236.62198268284999
 31
0.0
  0
LINE
  5
171F4
  8
0
 10
181.58071000128959
 20
-236.23834856262411
 30
0.0
 11
181.58071000128959
 21
-236.62198268284999
 31
0.0
  0
LINE
  5
171F5
  8
0
 10
181.58071000128959
 20
-236.23834856262411
 30
0.0
 11
180.17656054347731
 21
-236.23834856262411
 31
0.0
  0
LINE
  5
171F6
  8
0
 10
180.17656054347731
 20
-235.10171220114441
 30
0.0
 11
180.17656054347731
 21
-236.23834856262411
 31
0.0
  0
LINE
  5
171F7
  8
0
 10
181.96169078350039
 20
-235.10171220114441
 30
0.0
 11
180.17656054347731
 21
-235.10171220114441
 31
0.0
  0
LINE
  5
171F8
  8
0
 10
181.96169078350039
 20
-234.7180780809185
 30
0.0
 11
181.96169078350039
 21
-235.10171220114441
 31
0.0
  0
LINE
  5
171F9
  8
0
 10
179.2219840083269
 20
-234.7180780809185
 30
0.0
 11
176.883133545052
 21
-234.7180780809185
 31
0.0
  0
LINE
  5
171FA
  8
0
 10
176.883133545052
 20
-238.184294928219
 30
0.0
 11
176.883133545052
 21
-234.7180780809185
 31
0.0
  0
LINE
  5
171FB
  8
0
 10
177.36261538288059
 20
-238.184294928219
 30
0.0
 11
176.883133545052
 21
-238.184294928219
 31
0.0
  0
LINE
  5
171FC
  8
0
 10
177.36261538288059
 20
-236.62198268284999
 30
0.0
 11
177.36261538288059
 21
-238.184294928219
 31
0.0
  0
LINE
  5
171FD
  8
0
 10
178.81960853468601
 20
-236.62198268284999
 30
0.0
 11
177.36261538288059
 21
-236.62198268284999
 31
0.0
  0
LINE
  5
171FE
  8
0
 10
178.81960853468601
 20
-236.23834856262411
 30
0.0
 11
178.81960853468601
 21
-236.62198268284999
 31
0.0
  0
LINE
  5
171FF
  8
0
 10
178.81960853468601
 20
-236.23834856262411
 30
0.0
 11
177.36261538288059
 21
-236.23834856262411
 31
0.0
  0
LINE
  5
17200
  8
0
 10
177.36261538288059
 20
-235.10171220114441
 30
0.0
 11
177.36261538288059
 21
-236.23834856262411
 31
0.0
  0
LINE
  5
17201
  8
0
 10
179.2219840083269
 20
-235.10171220114441
 30
0.0
 11
177.36261538288059
 21
-235.10171220114441
 31
0.0
  0
LINE
  5
17202
  8
0
 10
179.2219840083269
 20
-234.7180780809185
 30
0.0
 11
179.2219840083269
 21
-235.10171220114441
 31
0.0
  0
POLYLINE
  5
17203
  8
0
 66
     1
 10
0.0
 20
0.0
 30
0.0
 70
   128
  0
VERTEX
  5
17DEC
  8
0
 10
169.11725584417559
 20
-234.74510506203379
 30
0.0
  0
VERTEX
  5
17DED
  8
0
 10
170.12437690049379
 20
-235.4951065819522
 30
0.0
  0
VERTEX
  5
17DEE
  8
0
 10
171.211082730442
 20
-236.24510623922549
 30
0.0
  0
SEQEND
  5
17DEF
  8
0
  0
LINE
  5
17204
  8
0
 10
169.11725584417559
 20
-235.4951065819522
 30
0.0
 11
169.11725584417559
 21
-234.74510506203379
 31
0.0
  0
LINE
  5
17205
  8
0
 10
169.11725584417559
 20
-235.4951065819522
 30
0.0
 11
165.27839168906189
 21
-235.4951065819522
 31
0.0
  0
LINE
  5
17206
  8
0
 10
165.27839168906189
 20
-234.74510506203379
 30
0.0
 11
165.27839168906189
 21
-235.4951065819522
 31
0.0
  0
POLYLINE
  5
17207
  8
0
 66
     1
 10
0.0
 20
0.0
 30
0.0
 70
   128
  0
VERTEX
  5
17DF0
  8
0
 10
165.00008083879919
 20
-236.24510623922549
 30
0.0
  0
VERTEX
  5
17DF1
  8
0
 10
165.0721866264937
 20
-235.4951065819522
 30
0.0
  0
VERTEX
  5
17DF2
  8
0
 10
165.27839168906189
 20
-234.74510506203379
 30
0.0
  0
SEQEND
  5
17DF3
  8
0
  0
POLYLINE
  5
17208
  8
0
 66
     1
 10
0.0
 20
0.0
 30
0.0
 70
   128
  0
VERTEX
  5
17DF4
  8
0
 10
165.27839168906189
 20
-237.74510555377211
 30
0.0
  0
VERTEX
  5
17DF5
  8
0
 10
165.0721866264937
 20
-236.99510589649881
 30
0.0
  0
VERTEX
  5
17DF6
  8
0
 10
165.00008083879919
 20
-236.24510623922549
 30
0.0
  0
SEQEND
  5
17DF7
  8
0
  0
LINE
  5
17209
  8
0
 10
165.27839168906189
 20
-236.99510589649881
 30
0.0
 11
165.27839168906189
 21
-237.74510555377211
 31
0.0
  0
LINE
  5
1720A
  8
0
 10
169.11725584417559
 20
-236.99510589649881
 30
0.0
 11
165.27839168906189
 21
-236.99510589649881
 31
0.0
  0
LINE
  5
1720B
  8
0
 10
169.11725584417559
 20
-237.74510555377211
 30
0.0
 11
169.11725584417559
 21
-236.99510589649881
 31
0.0
  0
POLYLINE
  5
1720C
  8
0
 66
     1
 10
0.0
 20
0.0
 30
0.0
 70
   128
  0
VERTEX
  5
17DF8
  8
0
 10
171.211082730442
 20
-236.24510623922549
 30
0.0
  0
VERTEX
  5
17DF9
  8
0
 10
170.12437690049379
 20
-236.99510589649881
 30
0.0
  0
VERTEX
  5
17DFA
  8
0
 10
169.11725584417559
 20
-237.74510555377211
 30
0.0
  0
SEQEND
  5
17DFB
  8
0
  0
ARC
  5
1720E
  8
0
 10
174.27093877302309
 20
-236.57828429667649
 30
0.0
 40
1.4393068504451489
 50
319.37754983964072
 51
5.4712835271055109
  0
ARC
  5
1720F
  8
0
 10
174.68528865619439
 20
-235.9708520044428
 30
0.0
 40
0.9081828529677796
 50
41.697778854760863
 51
89.832734694277434
  0
ARC
  5
17210
  8
0
 10
174.27093954448239
 20
-236.30381892565549
 30
0.0
 40
1.439305950888573
 50
354.52876824344651
 51
40.622455582527209
  0
ARC
  5
17211
  8
0
 10
174.6823063587708
 20
-236.90462653498591
 30
0.0
 40
0.9148214944657839
 50
270.35283644349971
 51
318.11665000745279
  0
ARC
  5
17212
  8
0
 10
174.68868618108971
 20
-236.9343701459743
 30
0.0
 40
0.8850608517866806
 50
221.0303638451208
 51
269.95169080691898
  0
ARC
  5
17213
  8
0
 10
175.1465877907662
 20
-236.58231436738319
 30
0.0
 40
1.4620138695000979
 50
174.45528768197241
 51
219.6579625339194
  0
ARC
  5
17214
  8
0
 10
175.1465869749388
 20
-236.2997888420158
 30
0.0
 40
1.4620129253669369
 50
140.3420320028022
 51
185.5446620692361
  0
ARC
  5
17215
  8
0
 10
174.69114206457601
 20
-235.9531202674724
 30
0.0
 40
0.8904530035559614
 50
90.206039761714479
 51
138.8119055862372
  0
LINE
  5
17216
  8
0
 10
183.50000005215381
 20
-255.74510576844199
 30
0.0
 11
171.49999994784571
 21
-255.74510576844199
 31
0.0
  0
LINE
  5
17217
  8
0
 10
170.49999978393291
 20
-254.7451057791522
 30
0.0
 11
184.49999914789259
 21
-254.7451057791522
 31
0.0
  0
LINE
  5
17218
  8
0
 10
184.50000021606661
 20
-250.59151582827769
 30
0.0
 11
170.49999978393291
 21
-250.59151582827769
 31
0.0
  0
ARC
  5
1721D
  8
0
 10
179.20974564041961
 20
-218.4579679830118
 30
0.0
 40
0.4874205324402663
 50
271.95789108894758
 51
4.5930269757664144
  0
ARC
  5
1721E
  8
0
 10
178.840514339972
 20
-216.3457785932267
 30
0.0
 40
8.9227309592618216
 50
87.156301906204007
 51
92.843698093796007
  0
LINE
  5
1721F
  8
0
 10
179.28318459074919
 20
-207.4340351711771
 30
0.0
 11
179.69560088589759
 21
-218.41893650999279
 31
0.0
  0
ARC
  5
17220
  8
0
 10
175.79025435957959
 20
-218.4579679830118
 30
0.0
 40
0.487420532440255
 50
175.40697302423351
 51
268.04210891105242
  0
ARC
  5
17221
  8
0
 10
176.1594856600274
 20
-216.3457785932267
 30
0.0
 40
8.9227309592618216
 50
87.156301906204007
 51
92.843698093796007
  0
LINE
  5
17222
  8
0
 10
175.3043991141019
 20
-218.41893650999279
 30
0.0
 11
175.7168154092503
 21
-207.4340351711771
 31
0.0
  0
LINE
  5
17223
  8
0
 10
178.3978440891949
 20
-207.4340351711771
 30
0.0
 11
176.60215591080461
 21
-207.4340351711771
 31
0.0
  0
ARC
  5
17224
  8
0
 10
174.28999464533649
 20
-207.28140697992029
 30
0.0
 40
1.4349609252875699
 50
353.89424157860321
 51
30.798466208757169
  0
ARC
  5
17225
  8
0
 10
180.59230592581679
 20
-207.25564458773661
 30
0.0
 40
1.3212198417332299
 50
147.5475385604868
 51
187.75975365215751
  0
ARC
  5
17226
  8
0
 10
174.47452089811259
 20
-218.45796802557459
 30
0.0
 40
0.4874204923901652
 50
175.40696762670021
 51
268.04210018556267
  0
ARC
  5
17227
  8
0
 10
180.5254791018867
 20
-218.45796802557459
 30
0.0
 40
0.4874204923901961
 50
271.95789981443733
 51
4.5930323732997387
  0
LINE
  5
17228
  8
0
 10
180.38165593519781
 20
-205.63286476245131
 30
0.0
 11
179.47741179726989
 21
-206.54667847266401
 31
0.0
  0
LINE
  5
17229
  8
0
 10
181.0113343037662
 20
-218.41893650999279
 30
0.0
 11
180.38165593519781
 21
-205.63286476245131
 31
0.0
  0
LINE
  5
1722A
  8
0
 10
175.52258820272959
 20
-206.54667847266401
 30
0.0
 11
174.6183440648017
 21
-205.63286476245131
 31
0.0
  0
LINE
  5
1722B
  8
0
 10
174.6183440648017
 20
-205.63286476245131
 30
0.0
 11
173.9886656962332
 21
-218.41893650999279
 31
0.0
  0
POLYLINE
  5
1722C
  8
0
 66
     1
 10
0.0
 20
0.0
 30
0.0
 70
   128
  0
VERTEX
  5
17DFC
  8
0
 10
183.3000832796094
 20
-218.41893650999279
 30
0.0
  0
VERTEX
  5
17DFD
  8
0
 10
183.29767581075399
 20
-218.5200893174669
 30
0.0
  0
VERTEX
  5
17DFE
  8
0
 10
183.2854433543977
 20
-218.6181650351545
 30
0.0
  0
VERTEX
  5
17DFF
  8
0
 10
183.26388789340831
 20
-218.70914034953319
 30
0.0
  0
VERTEX
  5
17E00
  8
0
 10
183.2338932529089
 20
-218.789282519724
 30
0.0
  0
VERTEX
  5
17E01
  8
0
 10
183.19669064134331
 20
-218.85530583968369
 30
0.0
  0
VERTEX
  5
17E02
  8
0
 10
183.15380603074999
 20
-218.90450202336521
 30
0.0
  0
VERTEX
  5
17E03
  8
0
 10
183.1069982238111
 20
-218.9348482381364
 30
0.0
  0
VERTEX
  5
17E04
  8
0
 10
183.05818853899811
 20
-218.94510396232809
 30
0.0
  0
SEQEND
  5
17E05
  8
0
  0
POLYLINE
  5
1722D
  8
0
 66
     1
 10
0.0
 20
0.0
 30
0.0
 70
   128
  0
VERTEX
  5
17E06
  8
0
 10
171.94181146100141
 20
-218.94510396232809
 30
0.0
  0
VERTEX
  5
17E07
  8
0
 10
171.8930017761883
 20
-218.9348482381364
 30
0.0
  0
VERTEX
  5
17E08
  8
0
 10
171.8461939692495
 20
-218.90450202336521
 30
0.0
  0
VERTEX
  5
17E09
  8
0
 10
171.80330935865609
 20
-218.85530583968369
 30
0.0
  0
VERTEX
  5
17E0A
  8
0
 10
171.76610674709059
 20
-218.789282519724
 30
0.0
  0
VERTEX
  5
17E0B
  8
0
 10
171.73611210659121
 20
-218.70914034953319
 30
0.0
  0
VERTEX
  5
17E0C
  8
0
 10
171.7145566456017
 20
-218.6181650351545
 30
0.0
  0
VERTEX
  5
17E0D
  8
0
 10
171.70232418924539
 20
-218.5200893174669
 30
0.0
  0
VERTEX
  5
17E0E
  8
0
 10
171.69991672039009
 20
-218.41893650999279
 30
0.0
  0
SEQEND
  5
17E0F
  8
0
  0
ARC
  5
1722E
  8
0
 10
172.2995145824832
 20
-208.1326063479157
 30
0.0
 40
3.40964487332166
 50
47.150146486983751
 51
94.240259595009178
  0
LINE
  5
1722F
  8
0
 10
171.69991672039009
 20
-218.41893650999279
 30
0.0
 11
172.0474090054629
 21
-204.7322944592496
 31
0.0
  0
ARC
  5
17230
  8
0
 10
182.70110706081999
 20
-208.13438100621721
 30
0.0
 40
3.4113687930177972
 50
85.772356510721494
 51
132.83723740728851
  0
LINE
  5
17231
  8
0
 10
182.95259099453659
 20
-204.7322944592496
 30
0.0
 11
183.3000832796094
 21
-218.41893650999279
 31
0.0
  0
LINE
  5
17232
  8
0
 10
172.0474090054629
 20
-204.7322944592496
 30
0.0
 11
166.2448614463207
 21
-204.7322944592496
 31
0.0
  0
LINE
  5
17233
  8
0
 10
188.75513855367871
 20
-204.7322944592496
 30
0.0
 11
182.95259099453659
 21
-204.7322944592496
 31
0.0
  0
LINE
  5
17234
  8
0
 10
165.32898951321809
 20
-233.51727359404771
 30
0.0
 11
189.67101048678131
 21
-233.51727359404771
 31
0.0
  0
LINE
  5
17235
  8
0
 10
168.00000030547349
 20
-232.26502284815521
 30
0.0
 11
186.99999999999969
 21
-232.26502284815521
 31
0.0
  0
LINE
  5
17238
  8
3
 10
167.79999967589919
 20
-251.74510568415729
 30
0.0
 11
167.7999996758991
 21
-250.24510620569811
 31
0.0
  0
LINE
  5
17239
  8
3
 10
168.00000030547349
 20
-252.0915169361254
 30
0.0
 11
167.79999967589919
 21
-251.74510568415729
 31
0.0
  0
LINE
  5
1723A
  8
0
 10
165.999999977648
 20
-251.74510568415729
 30
0.0
 11
168.00000030547349
 21
-251.74510568415729
 31
0.0
  0
LINE
  5
1723B
  8
3
 10
166.19999967589931
 20
-251.74510568415729
 30
0.0
 11
166.19999967589919
 21
-250.24510620569811
 31
0.0
  0
LINE
  5
1723C
  8
3
 10
165.9999990463254
 20
-252.0915169361254
 30
0.0
 11
166.19999967589931
 21
-251.74510568415729
 31
0.0
  0
LINE
  5
17244
  8
1
 10
177.4999999999996
 20
-261.24510617962079
 30
0.0
 11
177.49999999999969
 21
-198.4451059352418
 31
0.0
  0
LINE
  5
17246
  8
0
 10
168.00000030547349
 20
-250.74510620569799
 30
0.0
 11
168.20000043213341
 21
-250.74510620569799
 31
0.0
  0
LINE
  5
17247
  8
0
 10
183.9999997282865
 20
-255.2451061796209
 30
0.0
 11
184.49999914789259
 21
-255.2451061796209
 31
0.0
  0
LINE
  5
1726A
  8
1
 10
402.4999986114513
 20
-224.96660061535559
 30
0.0
 11
402.4999986114513
 21
-188.96660061535559
 31
0.0
  0
LINE
  5
1726B
  8
1
 10
420.49999861145142
 20
-206.96660061535559
 30
0.0
 11
384.49999861145142
 21
-206.96660061535559
 31
0.0
  0
CIRCLE
  5
1726C
  8
0
 10
402.4999986114513
 20
-206.96660061535559
 30
0.0
 40
7.0
  0
CIRCLE
  5
1726D
  8
1
 10
402.4999986114513
 20
-206.96660061535559
 30
0.0
 40
10.5
  0
CIRCLE
  5
1726E
  8
0
 10
391.99999861145142
 20
-206.96660061535559
 30
0.0
 40
1.1999999999999991
  0
CIRCLE
  5
1726F
  8
2
 10
391.99999861145142
 20
-206.96660061535559
 30
0.0
 40
2.2000000000000002
  0
LINE
  5
17270
  8
1
 10
405.64999861145139
 20
-212.42256065919759
 30
0.0
 11
409.84999861145138
 21
-219.6971740509868
 31
0.0
  0
CIRCLE
  5
17271
  8
0
 10
407.74999861145142
 20
-216.05986735509219
 30
0.0
 40
1.1999999999999991
  0
CIRCLE
  5
17272
  8
2
 10
407.74999861145142
 20
-216.05986735509219
 30
0.0
 40
2.2000000000000002
  0
LINE
  5
17273
  8
1
 10
405.64999861145139
 20
-201.5106405715137
 30
0.0
 11
409.84999861145138
 21
-194.23602717972429
 31
0.0
  0
CIRCLE
  5
17274
  8
0
 10
407.74999861145142
 20
-197.87333387561901
 30
0.0
 40
1.1999999999999991
  0
CIRCLE
  5
17275
  8
2
 10
407.74999861145142
 20
-197.87333387561901
 30
0.0
 40
2.2000000000000002
  0
LINE
  5
17276
  8
0
 10
395.49999899888161
 20
-253.2451062317752
 30
0.0
 11
395.49999899888161
 21
-257.24510617962079
 31
0.0
  0
LINE
  5
17277
  8
0
 10
427.4999995353233
 20
-258.24510617962079
 30
0.0
 11
377.49999768757942
 21
-258.24510617962079
 31
0.0
  0
LINE
  5
17278
  8
1
 10
402.4999983791127
 20
-245.24510620569791
 30
0.0
 11
402.4999983791127
 21
-263.24510617962079
 31
0.0
  0
LINE
  5
17279
  8
1
 10
391.99999861145142
 20
-248.24510620569811
 30
0.0
 11
391.99999861145142
 21
-260.24510617962079
 31
0.0
  0
LINE
  5
1727A
  8
0
 10
409.49999775934413
 20
-253.2451062317752
 30
0.0
 11
409.49999775934418
 21
-257.2451061796209
 31
0.0
  0
LINE
  5
1727B
  8
0
 10
394.49999899888161
 20
-258.24510617962079
 30
0.0
 11
395.49999899888161
 21
-257.24510617962079
 31
0.0
  0
LINE
  5
1727C
  8
0
 10
410.49999775934418
 20
-258.24510617962079
 30
0.0
 11
409.49999775934418
 21
-257.24510617962079
 31
0.0
  0
LINE
  5
1727D
  8
0
 10
395.49999899888161
 20
-257.2451061796209
 30
0.0
 11
409.49999775934418
 21
-257.24510617962102
 31
0.0
  0
LINE
  5
1727E
  8
0
 10
390.79999904358499
 20
-252.74510620569811
 30
0.0
 11
390.29999904358499
 21
-252.24510620569811
 31
0.0
  0
LINE
  5
1727F
  8
0
 10
394.19999904358508
 20
-254.74510617962079
 30
0.0
 11
389.7999990435851
 21
-254.74510617962079
 31
0.0
  0
LINE
  5
17280
  8
0
 10
389.7999990435851
 20
-257.74510617962079
 30
0.0
 11
389.2999990435851
 21
-258.24510617962079
 31
0.0
  0
LINE
  5
17281
  8
0
 10
389.7999990435851
 20
-254.74510617962079
 30
0.0
 11
389.7999990435851
 21
-257.74510617962079
 31
0.0
  0
LINE
  5
17282
  8
0
 10
390.79999904358499
 20
-254.74510568415721
 30
0.0
 11
390.79999904358499
 21
-252.74510620569819
 31
0.0
  0
LINE
  5
17283
  8
0
 10
393.19999904358502
 20
-254.74510568415721
 30
0.0
 11
393.19999904358502
 21
-252.74510620569811
 31
0.0
  0
LINE
  5
17284
  8
0
 10
394.19999904358502
 20
-254.74510617962079
 30
0.0
 11
394.19999904358502
 21
-257.74510617962079
 31
0.0
  0
LINE
  5
17285
  8
0
 10
393.19999904358502
 20
-252.74510620569811
 30
0.0
 11
393.69999904358502
 21
-252.24510620569811
 31
0.0
  0
LINE
  5
17286
  8
0
 10
394.19999904358502
 20
-257.74510617962079
 30
0.0
 11
394.59999902123337
 21
-258.14510615726908
 31
0.0
  0
LINE
  5
17287
  8
0
 10
390.79999904358499
 20
-252.7451062056991
 30
0.0
 11
393.19999904358502
 21
-252.74510620569811
 31
0.0
  0
LINE
  5
17288
  8
0
 10
389.7999990435851
 20
-257.74510617962079
 30
0.0
 11
394.19999904358502
 21
-257.74510617962079
 31
0.0
  0
LINE
  5
17289
  8
0
 10
415.49999837911292
 20
-252.24510620569791
 30
0.0
 11
389.49999837911281
 21
-252.24510620569811
 31
0.0
  0
LINE
  5
1728A
  8
0
 10
394.49999899888161
 20
-252.24510623177511
 30
0.0
 11
395.49999899888161
 21
-253.24510623177511
 31
0.0
  0
LINE
  5
1728B
  8
0
 10
410.49999775934418
 20
-252.24510623177511
 30
0.0
 11
409.49999775934418
 21
-253.24510623177511
 31
0.0
  0
LINE
  5
1728C
  8
0
 10
395.49999899888149
 20
-253.24510623177531
 30
0.0
 11
409.49999775934413
 21
-253.2451062317754
 31
0.0
  0
LINE
  5
17294
  8
0
 10
427.4999995353233
 20
-250.24510620569779
 30
0.0
 11
377.49999768757942
 21
-250.24510620569811
 31
0.0
  0
CIRCLE
  5
17295
  8
0
 10
402.4999986114513
 20
-206.96660061535559
 30
0.0
 40
13.0
  0
LINE
  5
17296
  8
0
 10
415.49999837911292
 20
-250.74510620569791
 30
0.0
 11
415.49999837911292
 21
-252.24510620569791
 31
0.0
  0
LINE
  5
17297
  8
0
 10
389.49999837911281
 20
-250.74510620569799
 30
0.0
 11
389.4999983791127
 21
-252.24510620569811
 31
0.0
  0
LINE
  5
17298
  8
0
 10
415.49999837911298
 20
-250.74510620569791
 30
0.0
 11
415.99999837911298
 21
-250.24510620569791
 31
0.0
  0
LINE
  5
17299
  8
0
 10
389.49999837911281
 20
-250.74510620569799
 30
0.0
 11
388.99999837911292
 21
-250.24510620569811
 31
0.0
  0
LINE
  5
1729A
  8
0
 10
415.49999837911292
 20
-250.74510620569791
 30
0.0
 11
389.49999837911281
 21
-250.74510620569799
 31
0.0
  0
LINE
  5
172B7
  8
0
 10
325.500000234693
 20
-252.59151582827789
 30
0.0
 11
325.500000234693
 21
-257.24510617962079
 31
0.0
  0
LINE
  5
172B8
  8
0
 10
357.50000077113492
 20
-258.24510617962079
 30
0.0
 11
307.49999892339088
 21
-258.24510617962079
 31
0.0
  0
LINE
  5
172BA
  8
0
 10
319.49999961492432
 20
-250.74510620569799
 30
0.0
 11
319.49999961492409
 21
-252.24510620569811
 31
0.0
  0
LINE
  5
172BB
  8
0
 10
345.49999961492438
 20
-250.74510620569791
 30
0.0
 11
345.49999961492438
 21
-252.24510620569791
 31
0.0
  0
LINE
  5
172BC
  8
1
 10
321.99999984726293
 20
-247.24510617962099
 30
0.0
 11
321.99999984726293
 21
-260.24510617962079
 31
0.0
  0
LINE
  5
172BD
  8
0
 10
339.49999899515552
 20
-252.59151582827789
 30
0.0
 11
339.49999899515569
 21
-257.2451061796209
 31
0.0
  0
LINE
  5
172BE
  8
0
 10
324.50000023469312
 20
-258.24510617962079
 30
0.0
 11
325.500000234693
 21
-257.24510617962079
 31
0.0
  0
LINE
  5
172BF
  8
0
 10
340.49999899515569
 20
-258.24510617962079
 30
0.0
 11
339.49999899515569
 21
-257.24510617962079
 31
0.0
  0
LINE
  5
172C0
  8
0
 10
325.500000234693
 20
-257.2451061796209
 30
0.0
 11
325.99999988663762
 21
-257.2451061796209
 31
0.0
  0
LINE
  5
172C1
  8
0
 10
320.8000002793965
 20
-252.74510620569811
 30
0.0
 11
320.3000002793965
 21
-252.24510620569811
 31
0.0
  0
LINE
  5
172C2
  8
0
 10
324.20000027939659
 20
-254.74510617962079
 30
0.0
 11
319.8000002793965
 21
-254.74510617962079
 31
0.0
  0
LINE
  5
172C3
  8
0
 10
319.8000002793965
 20
-257.74510617962079
 30
0.0
 11
319.3000002793965
 21
-258.24510617962079
 31
0.0
  0
LINE
  5
172C4
  8
0
 10
319.8000002793965
 20
-254.74510617962079
 30
0.0
 11
319.8000002793965
 21
-257.74510617962079
 31
0.0
  0
LINE
  5
172C5
  8
0
 10
320.8000002793965
 20
-254.74510568415721
 30
0.0
 11
320.8000002793965
 21
-252.74510620569819
 31
0.0
  0
LINE
  5
172C6
  8
0
 10
323.20000027939648
 20
-254.74510568415721
 30
0.0
 11
323.20000027939648
 21
-252.74510620569811
 31
0.0
  0
LINE
  5
172C7
  8
0
 10
324.20000027939648
 20
-254.74510617962079
 30
0.0
 11
324.20000027939648
 21
-257.74510617962079
 31
0.0
  0
LINE
  5
172C8
  8
0
 10
323.20000027939648
 20
-252.74510620569811
 30
0.0
 11
323.70000027939648
 21
-252.24510620569811
 31
0.0
  0
LINE
  5
172C9
  8
0
 10
324.20000027939648
 20
-257.74510617962079
 30
0.0
 11
324.60000025704483
 21
-258.14510615726908
 31
0.0
  0
LINE
  5
172CA
  8
0
 10
320.8000002793965
 20
-252.7451062056991
 30
0.0
 11
320.99999959257252
 21
-252.7451062056989
 31
0.0
  0
LINE
  5
172CB
  8
0
 10
319.8000002793965
 20
-257.74510617962079
 30
0.0
 11
324.20000027939648
 21
-257.74510617962079
 31
0.0
  0
LINE
  5
172CC
  8
0
 10
345.49999961492438
 20
-252.24510620569791
 30
0.0
 11
319.49999961492432
 21
-252.24510620569811
 31
0.0
  0
LINE
  5
172CD
  8
0
 10
357.50000077113492
 20
-250.24510620569779
 30
0.0
 11
344.99999980118861
 21
-250.24510620569791
 31
0.0
  0
LINE
  5
172CE
  8
0
 10
319.49999961492432
 20
-250.74510620569799
 30
0.0
 11
318.99999961492438
 21
-250.24510620569811
 31
0.0
  0
LINE
  5
172CF
  8
0
 10
345.49999961492449
 20
-250.74510620569791
 30
0.0
 11
345.99999961492449
 21
-250.24510620569791
 31
0.0
  0
LINE
  5
172D0
  8
0
 10
324.50000023469312
 20
-252.24510623177511
 30
0.0
 11
325.500000234693
 21
-253.24510623177511
 31
0.0
  0
LINE
  5
172D1
  8
0
 10
340.49999899515569
 20
-252.24510623177511
 30
0.0
 11
339.49999899515569
 21
-253.24510623177511
 31
0.0
  0
LINE
  5
172D3
  8
0
 10
345.49999961492438
 20
-250.74510620569791
 30
0.0
 11
344.99999980118861
 21
-250.74510620569791
 31
0.0
  0
LINE
  5
172DB
  8
0
 10
319.99999942865969
 20
-250.74510620569799
 30
0.0
 11
319.49999961492432
 21
-250.74510620569799
 31
0.0
  0
LINE
  5
172DC
  8
0
 10
319.99999942865969
 20
-250.24510620569811
 30
0.0
 11
307.49999892339088
 21
-250.24510620569811
 31
0.0
  0
LINE
  5
172EB
  8
0
 10
338.99999934321067
 20
-257.24510617962102
 30
0.0
 11
339.49999899515569
 21
-257.24510617962102
 31
0.0
  0
LINE
  5
172F3
  8
0
 10
322.99999992039812
 20
-252.74510620569819
 30
0.0
 11
323.20000027939648
 21
-252.74510620569811
 31
0.0
  0
ENDSEC
  0
EOF
