  0
SECTION
  2
HEADER
  9
$ACADVER
  1
AC1009
  9
$INSBASE
 10
0.0
 20
0.0
 30
0.0
  9
$EXTMIN
 10
0.0000000000000004
 20
-149.97327044564301
 30
0.0
  9
$EXTMAX
 10
487.00000166892983
 20
206.19157769531009
 30
0.0
  9
$LIMMIN
 10
0.0
 20
0.0
  9
$LIMMAX
 10
187.5
 20
135.0
  9
$ORTHOMODE
 70
     0
  9
$REGENMODE
 70
     1
  9
$FILLMODE
 70
     1
  9
$QTEXTMODE
 70
     0
  9
$MIRRTEXT
 70
     0
  9
$DRAGMODE
 70
     2
  9
$LTSCALE
 40
5.0
  9
$OSMODE
 70
  3071
  9
$ATTMODE
 70
     1
  9
$TEXTSIZE
 40
0.2
  9
$TRACEWID
 40
0.05
  9
$TEXTSTYLE
  7
STANDARD
  9
$CLAYER
  8
0
  9
$CELTYPE
  6
BYLAYER
  9
$CECOLOR
 62
   256
  9
$DIMSCALE
 40
0.5
  9
$DIMASZ
 40
3.0
  9
$DIMEXO
 40
2.0
  9
$DIMDLI
 40
0.3799999999999999
  9
$DIMRND
 40
0.0
  9
$DIMDLE
 40
0.0
  9
$DIMEXE
 40
2.0
  9
$DIMTP
 40
0.0
  9
$DIMTM
 40
0.0
  9
$DIMTXT
 40
3.2000000000000002
  9
$DIMCEN
 40
0.09
  9
$DIMTSZ
 40
0.0
  9
$DIMTOL
 70
     0
  9
$DIMLIM
 70
     0
  9
$DIMTIH
 70
     0
  9
$DIMTOH
 70
     0
  9
$DIMSE1
 70
     0
  9
$DIMSE2
 70
     0
  9
$DIMTAD
 70
     1
  9
$DIMZIN
 70
     8
  9
$DIMBLK
  1

  9
$DIMASO
 70
     0
  9
$DIMSHO
 70
     0
  9
$DIMPOST
  1

  9
$DIMAPOST
  1

  9
$DIMALT
 70
     0
  9
$DIMALTD
 70
     2
  9
$DIMALTF
 40
25.399999999999999
  9
$DIMLFAC
 40
1.0
  9
$DIMTOFL
 70
     0
  9
$DIMTVP
 40
1.6000000000000001
  9
$DIMTIX
 70
     1
  9
$DIMSOXD
 70
     0
  9
$DIMSAH
 70
     0
  9
$DIMBLK1
  1

  9
$DIMBLK2
  1

  9
$DIMSTYLE
  2
STANDARD
  9
$DIMCLRD
 70
     0
  9
$DIMCLRE
 70
     0
  9
$DIMCLRT
 70
     0
  9
$DIMTFAC
 40
1.0
  9
$DIMGAP
 40
1.0
  9
$LUNITS
 70
     2
  9
$LUPREC
 70
     2
  9
$SKETCHINC
 40
0.1
  9
$FILLETRAD
 40
0.4
  9
$AUNITS
 70
     0
  9
$AUPREC
 70
     0
  9
$MENU
  1
E:\r13\win\SUPPORT\ACAD
  9
$ELEVATION
 40
0.0
  9
$PELEVATION
 40
0.0
  9
$THICKNESS
 40
0.0
  9
$LIMCHECK
 70
     0
  9
$BLIPMODE
 70
     0
  9
$CHAMFERA
 40
0.0
  9
$CHAMFERB
 40
0.0
  9
$SKPOLY
 70
     0
  9
$TDCREATE
 40
2451824.6906229062
  9
$TDUPDATE
 40
2457357.4139542589
  9
$TDINDWG
 40
1.1257238773
  9
$TDUSRTIMER
 40
1.1257235069
  9
$USRTIMER
 70
     1
  9
$ANGBASE
 50
0.0
  9
$ANGDIR
 70
     0
  9
$PDMODE
 70
     0
  9
$PDSIZE
 40
0.0
  9
$PLINEWID
 40
0.0
  9
$COORDS
 70
     1
  9
$SPLFRAME
 70
     0
  9
$SPLINETYPE
 70
     6
  9
$SPLINESEGS
 70
     8
  9
$ATTDIA
 70
     0
  9
$ATTREQ
 70
     1
  9
$HANDLING
 70
     1
  9
$HANDSEED
  5
13A30
  9
$SURFTAB1
 70
     6
  9
$SURFTAB2
 70
     6
  9
$SURFTYPE
 70
     6
  9
$SURFU
 70
     6
  9
$SURFV
 70
     6
  9
$UCSNAME
  2

  9
$UCSORG
 10
0.0
 20
0.0
 30
0.0
  9
$UCSXDIR
 10
1.0
 20
0.0
 30
0.0
  9
$UCSYDIR
 10
0.0
 20
1.0
 30
0.0
  9
$PUCSNAME
  2

  9
$PUCSORG
 10
0.0
 20
0.0
 30
0.0
  9
$PUCSXDIR
 10
1.0
 20
0.0
 30
0.0
  9
$PUCSYDIR
 10
0.0
 20
1.0
 30
0.0
  9
$USERI1
 70
     0
  9
$USERI2
 70
     1
  9
$USERI3
 70
     0
  9
$USERI4
 70
     0
  9
$USERI5
 70
     0
  9
$USERR1
 40
0.0
  9
$USERR2
 40
0.0
  9
$USERR3
 40
0.0
  9
$USERR4
 40
0.0
  9
$USERR5
 40
0.0
  9
$WORLDVIEW
 70
     1
  9
$SHADEDGE
 70
     3
  9
$SHADEDIF
 70
    70
  9
$TILEMODE
 70
     1
  9
$MAXACTVP
 70
    16
  9
$PLIMCHECK
 70
     0
  9
$PEXTMIN
 10
1.0000000000000000E+020
 20
1.0000000000000000E+020
 30
1.0000000000000000E+020
  9
$PEXTMAX
 10
-1.0000000000000000E+020
 20
-1.0000000000000000E+020
 30
-1.0000000000000000E+020
  9
$PLIMMIN
 10
0.0
 20
0.0
  9
$PLIMMAX
 10
12.0
 20
9.0
  9
$UNITMODE
 70
     0
  9
$VISRETAIN
 70
     0
  9
$PLINEGEN
 70
     0
  9
$PSLTSCALE
 70
     0
  0
ENDSEC
  0
SECTION
  2
TABLES
  0
TABLE
  2
VPORT
 70
     1
  0
VPORT
  2
*ACTIVE
 70
     0
 10
0.0
 20
0.0
 11
1.0
 21
1.0
 12
294.23076923076928
 22
180.0
 13
0.0
 23
0.0
 14
5.0
 24
5.0
 15
5.0
 25
5.0
 16
0.0
 26
0.0
 36
1.0
 17
0.0
 27
0.0
 37
0.0
 40
360.0
 41
1.6346153846153839
 42
50.0
 43
0.0
 44
0.0
 50
0.0
 51
0.0
 71
     0
 72
   500
 73
     1
 74
     0
 75
     0
 76
     0
 77
     0
 78
     0
  0
ENDTAB
  0
TABLE
  2
LTYPE
 70
     5
  0
LTYPE
  2
CONTINUOUS
 70
     0
  3
Solid Line
 72
    65
 73
     0
 40
0.0
  0
LTYPE
  2
PHANTOM2
 70
     0
  3
___ _ _ ___ _ _ ___ _ _ ___ _ _
 72
    65
 73
     6
 40
1.25
 49
0.625
 49
-0.125
 49
0.125
 49
-0.125
 49
0.125
 49
-0.125
  0
LTYPE
  2
CENTER
 70
     0
  3
____ _ ____ _ ____ _ ____ _ ____ _ ____ _ ____
 72
    65
 73
     4
 40
2.0
 49
1.25
 49
-0.25
 49
0.25
 49
-0.25
  0
LTYPE
  2
HIDDEN
 70
     0
  3
__ __ __ __ __ __ __ __ __ __ __ __ __ __ __ __
 72
    65
 73
     2
 40
0.375
 49
0.25
 49
-0.125
  0
LTYPE
  2
PHANTOM
 70
     0
  3
_____ _ _ _____ _ _ _____ _ _ _____ _ _ ____
 72
    65
 73
     6
 40
2.5
 49
1.25
 49
-0.25
 49
0.25
 49
-0.25
 49
0.25
 49
-0.25
  0
ENDTAB
  0
TABLE
  2
LAYER
 70
     6
  0
LAYER
  2
0
 70
     0
 62
     7
  6
CONTINUOUS
  0
LAYER
  2
1
 70
     0
 62
     1
  6
CENTER
  0
LAYER
  2
2
 70
     0
 62
     2
  6
HIDDEN
  0
LAYER
  2
5
 70
     0
 62
     3
  6
PHANTOM
  0
LAYER
  2
3
 70
     0
 62
     3
  6
CONTINUOUS
  0
LAYER
  2
DEFPOINTS
 70
     0
 62
     7
  6
CONTINUOUS
  0
ENDTAB
  0
TABLE
  2
STYLE
 70
     3
  0
STYLE
  2
STANDARD
 70
     0
 40
0.0
 41
1.0
 50
0.0
 71
     0
 42
0.2
  3
TXT
  4
BIGFONT
  0
STYLE
  2
ANNOTATIVE
 70
     0
 40
0.0
 41
1.0
 50
0.0
 71
     0
 42
0.2
  3
txt
  4

  0
STYLE
  2
STANDARD1
 70
     0
 40
0.0
 41
1.0
 50
0.0
 71
     0
 42
3.0
  3
txt
  4

  0
ENDTAB
  0
TABLE
  2
VIEW
 70
     0
  0
ENDTAB
  0
TABLE
  2
UCS
 70
     0
  0
ENDTAB
  0
TABLE
  2
APPID
 70
     8
  0
APPID
  2
ACAD
 70
     0
  0
APPID
  2
ACADANNOTATIVE
 70
     0
  0
APPID
  2
ACAD_MLEADERVER
 70
     0
  0
APPID
  2
ACAD_EXEMPT_FROM_CAD_STANDARDS
 70
     0
  0
APPID
  2
ACAD_DSTYLE_DIMJAG
 70
     0
  0
APPID
  2
ACAD_DSTYLE_DIMTALN
 70
     0
  0
APPID
  2
ACAD_NAV_VCDISPLAY
 70
     0
  0
APPID
  2
ACAD_PSEXT
 70
     0
  0
ENDTAB
  0
TABLE
  2
DIMSTYLE
 70
     2
  0
DIMSTYLE
  2
STANDARD
 70
     0
  3

  4

  5

  6

  7

 40
1.0
 41
0.18
 42
0.0625
 43
0.38
 44
0.18
 45
0.0
 46
0.0
 47
0.0
 48
0.0
140
0.18
141
0.09
142
0.0
143
25.399999999999999
144
1.0
145
0.0
146
1.0
147
0.09
 71
     0
 72
     0
 73
     1
 74
     1
 75
     0
 76
     0
 77
     0
 78
     0
170
     0
171
     2
172
     0
173
     0
174
     0
175
     0
176
     0
177
     0
178
     0
  0
DIMSTYLE
  2
ANNOTATIVE
 70
     0
  3

  4

  5

  6

  7

 40
1.0
 41
0.18
 42
0.0625
 43
0.38
 44
0.18
 45
0.0
 46
0.0
 47
0.0
 48
0.0
140
0.18
141
0.09
142
0.0
143
25.399999999999999
144
1.0
145
0.0
146
1.0
147
0.09
 71
     0
 72
     0
 73
     1
 74
     1
 75
     0
 76
     0
 77
     0
 78
     0
170
     0
171
     2
172
     0
173
     0
174
     0
175
     0
176
     0
177
     0
178
     0
  0
ENDTAB
  0
ENDSEC
  0
SECTION
  2
BLOCKS
  0
BLOCK
  8
0
  2
$MODEL_SPACE
 70
     0
 10
0.0
 20
0.0
 30
0.0
  3
$MODEL_SPACE
  1

  0
ENDBLK
  5
13846
  8
0
  0
BLOCK
 67
     1
  8
0
  2
$PAPER_SPACE
 70
     0
 10
0.0
 20
0.0
 30
0.0
  3
$PAPER_SPACE
  1

  0
ENDBLK
  5
13842
 67
     1
  8
0
  0
ENDSEC
  0
SECTION
  2
ENTITIES
  0
TEXT
  5
7FEA
  8
0
 62
     3
 10
135.0
 20
0.0
 30
0.0
 40
3.2000000000000002
  1
■サムターンクランパーの取付け方法〈オフを上にする場合〉(下図)
  0
TEXT
  5
7FEB
  8
0
 62
     3
 10
184.0199999999999
 20
-19.168098188633891
 30
0.0
 40
3.2000000000000002
  1
12mmのプレートに固定する場合
 72
     1
 11
212.49999999999989
 21
-19.59476485530055
 31
0.0
 73
     1
  0
TEXT
  5
80DD
  8
0
 62
     3
 10
323.28666666666658
 20
-19.168098188633891
 30
0.0
 40
3.2000000000000002
  1
12mmを超え20mm以下のプレートに固定する場合
 72
     1
 11
367.5
 21
-19.59476485530055
 31
0.0
 73
     1
  0
TEXT
  5
8474
  8
0
 62
     3
 10
168.4333333333332
 20
-134.97327044564301
 30
0.0
 40
3.2000000000000002
  1
組付け状態
 72
     1
 11
177.4999999999998
 21
-134.97327044564301
 31
0.0
  0
POLYLINE
  5
8487
  8
5
 66
     1
 10
0.0
 20
0.0
 30
0.0
 70
     1
  0
VERTEX
  5
13878
  8
5
 10
135.0
 20
-10.0
 30
0.0
  0
VERTEX
  5
13879
  8
5
 10
445.0
 20
-10.0
 30
0.0
  0
VERTEX
  5
1387A
  8
5
 10
445.0
 20
-149.97327044564301
 30
0.0
  0
VERTEX
  5
1387B
  8
5
 10
135.0
 20
-149.97327044564301
 30
0.0
  0
SEQEND
  5
1387C
  8
5
  0
TEXT
  5
8489
  8
0
 62
     3
 10
240.2466666666667
 20
-134.97327044564301
 30
0.0
 40
3.2000000000000002
  1
取付け穴
 72
     1
 11
247.5
 21
-134.97327044564301
 31
0.0
  0
TEXT
  5
848A
  8
0
 62
     3
 10
323.43333333333322
 20
-134.97327044564301
 30
0.0
 40
3.2000000000000002
  1
組付け状態
 72
     1
 11
332.49999999999989
 21
-134.97327044564301
 31
0.0
  0
TEXT
  5
848B
  8
0
 62
     3
 10
395.24666666666673
 20
-134.97327044564301
 30
0.0
 40
3.2000000000000002
  1
取付け穴
 72
     1
 11
402.5
 21
-134.97327044564301
 31
0.0
  0
TEXT
  5
87B9
  8
0
 62
     3
 10
0.0
 20
0.0
 30
0.0
 40
10.0
  1
QCTHL0834-20S
  7
STANDARD1
  0
TEXT
  5
884B
  8
0
 62
     3
 10
135.0
 20
-7.0
 30
0.0
 40
3.2000000000000002
  1
■Installation Instructions for Quarter-Turn Clamps〈For Y-axis Positioning of "OFF" Mark〉 (see diagram below)
  0
TEXT
  5
884C
  8
0
 62
     3
 10
152.7133333333332
 20
-26.168098188633891
 30
0.0
 40
3.2000000000000002
  1
For installation on plate of 12 mm thickness.
 72
     1
 11
212.49999999999989
 21
-26.594764855300561
 31
0.0
 73
     1
  0
TEXT
  5
884D
  8
0
 62
     3
 10
292.30000000000013
 20
-26.168098188633891
 30
0.0
 40
3.2000000000000002
  1
For installation on plate of over 12 to 20 mm thickness.
 72
     1
 11
367.5
 21
-26.594764855300561
 31
0.0
 73
     1
  0
TEXT
  5
884E
  8
0
 62
     3
 10
152.53999999999979
 20
-141.97327044564301
 30
0.0
 40
3.2000000000000002
  1
Installed condition
 72
     1
 11
177.4999999999998
 21
-141.97327044564301
 31
0.0
  0
TEXT
  5
884F
  8
0
 62
     3
 10
225.4733333333333
 20
-141.97327044564301
 30
0.0
 40
3.2000000000000002
  1
Installation hole
 72
     1
 11
247.5
 21
-141.97327044564301
 31
0.0
  0
TEXT
  5
8850
  8
0
 62
     3
 10
307.53999999999991
 20
-141.97327044564301
 30
0.0
 40
3.2000000000000002
  1
Installed condition
 72
     1
 11
332.49999999999989
 21
-141.97327044564301
 31
0.0
  0
TEXT
  5
8851
  8
0
 62
     3
 10
380.4733333333333
 20
-141.97327044564301
 30
0.0
 40
3.2000000000000002
  1
Installation hole
 72
     1
 11
402.5
 21
-141.97327044564301
 31
0.0
  0
CIRCLE
  5
E557
  8
0
 10
407.5000005587932
 20
184.19157769531009
 30
0.0
 40
4.7497368348150673
  0
ARC
  5
E57C
  8
0
 10
404.03724238038109
 20
196.7923473385197
 30
0.0
 40
1.8194188490691501
 50
331.02990570554857
 51
17.188839690110601
  0
ARC
  5
E57D
  8
0
 10
403.9831476544291
 20
196.97966251624001
 30
0.0
 40
1.8261757145777091
 50
11.06112765922693
 51
57.071242750899202
  0
ARC
  5
E57E
  8
0
 10
404.23451085337922
 20
197.30105181421831
 30
0.0
 40
1.4202418864077111
 50
58.534822148540869
 51
104.96593054452021
  0
ARC
  5
E57F
  8
0
 10
404.19108121359318
 20
197.29193833111881
 30
0.0
 40
1.4185229827659971
 50
103.17590754858141
 51
149.71964759371139
  0
ARC
  5
E580
  8
0
 10
404.56126699596712
 20
197.12532469240429
 30
0.0
 40
1.822717648800237
 50
151.0644359187836
 51
197.16048733869391
  0
ARC
  5
E581
  8
0
 10
404.60989504681987
 20
196.93748352007771
 30
0.0
 40
1.8240856876479901
 50
191.06074743253981
 51
237.10539372271521
  0
ARC
  5
E582
  8
0
 10
404.36327569070852
 20
196.6259826470895
 30
0.0
 40
1.4290923663425861
 50
238.62525236240151
 51
284.82159884601151
  0
ARC
  5
E583
  8
0
 10
404.4031305716249
 20
196.6252745994513
 30
0.0
 40
1.41873094716195
 50
283.27273084612631
 51
329.77577577305402
  0
LINE
  5
E584
  8
0
 10
412.01093921437831
 20
196.4476281777024
 30
0.0
 11
410.6055336352436
 21
196.85303382575509
 31
0.0
  0
LINE
  5
E585
  8
0
 10
412.12205018848152
 20
196.8312622979283
 30
0.0
 11
412.01093921437831
 21
196.4476281777024
 31
0.0
  0
LINE
  5
E586
  8
0
 10
410.71664460934687
 20
197.236667945981
 30
0.0
 11
412.12205018848152
 21
196.8312622979283
 31
0.0
  0
LINE
  5
E587
  8
0
 10
411.02820623666031
 20
198.31699747592211
 30
0.0
 11
410.71664460934687
 21
197.236667945981
 31
0.0
  0
LINE
  5
E588
  8
0
 10
412.82400198280789
 20
197.79898002743721
 30
0.0
 11
411.02820623666031
 21
198.31699747592211
 31
0.0
  0
LINE
  5
E589
  8
0
 10
412.93511342257227
 20
198.18261321634051
 30
0.0
 11
412.82400198280789
 21
197.79898002743721
 31
0.0
  0
LINE
  5
E58A
  8
0
 10
410.65958759747417
 20
198.83952066302291
 30
0.0
 11
412.93511342257227
 21
198.18261321634051
 31
0.0
  0
LINE
  5
E58B
  8
0
 10
409.69637444242812
 20
195.50168290734291
 30
0.0
 11
410.65958759747417
 21
198.83952066302291
 31
0.0
  0
LINE
  5
E58C
  8
0
 10
410.17610428854789
 20
195.3627938404679
 30
0.0
 11
409.69637444242812
 21
195.50168290734291
 31
0.0
  0
LINE
  5
E58D
  8
0
 10
410.6055336352436
 20
196.85303382575509
 30
0.0
 11
410.17610428854789
 21
195.3627938404679
 31
0.0
  0
ARC
  5
E58E
  8
0
 10
407.5000005587932
 20
184.19157769531009
 30
0.0
 40
9.7500000000000036
 50
15.458917323615379
 51
90.0
  0
ARC
  5
E58F
  8
0
 10
407.5000005587932
 20
184.19157769531009
 30
0.0
 40
9.7500000000000089
 50
195.41913746628771
 51
344.56766745780908
  0
ARC
  5
E590
  8
0
 10
407.5000005587932
 20
184.19157769531009
 30
0.0
 40
9.75
 50
90.0
 51
164.58086275409099
  0
LINE
  5
E591
  8
0
 10
408.87955576647039
 20
197.1893064677715
 30
0.0
 11
407.42009626148479
 21
197.23960720002651
 31
0.0
  0
LINE
  5
E592
  8
0
 10
408.8923184946176
 20
197.57294058799741
 30
0.0
 11
408.87955576647039
 21
197.1893064677715
 31
0.0
  0
LINE
  5
E593
  8
0
 10
407.43285902601173
 20
197.6232403889297
 30
0.0
 11
408.8923184946176
 21
197.57294058799741
 31
0.0
  0
LINE
  5
E594
  8
0
 10
407.47264881349082
 20
198.7598767504096
 30
0.0
 11
407.43285902601173
 21
197.6232403889297
 31
0.0
  0
LINE
  5
E595
  8
0
 10
409.33751373551758
 20
198.69531281292441
 30
0.0
 11
407.47264881349082
 21
198.7598767504096
 31
0.0
  0
LINE
  5
E596
  8
0
 10
409.35102722607519
 20
199.07894600182769
 30
0.0
 11
409.33751373551758
 21
198.69531281292441
 31
0.0
  0
LINE
  5
E597
  8
0
 10
407.00643259799079
 20
199.1607775911688
 30
0.0
 11
409.35102722607519
 21
199.07894600182769
 31
0.0
  0
LINE
  5
E598
  8
0
 10
406.88556171255158
 20
195.6945616751909
 30
0.0
 11
407.00643259799079
 21
199.1607775911688
 31
0.0
  0
LINE
  5
E599
  8
0
 10
407.365291456808
 20
195.6772949546575
 30
0.0
 11
406.88556171255158
 21
195.6945616751909
 31
0.0
  0
LINE
  5
E59A
  8
0
 10
407.42009626148479
 20
197.23960720002651
 30
0.0
 11
407.365291456808
 21
195.6772949546575
 31
0.0
  0
LINE
  5
E59B
  8
0
 10
418.58892783522577
 20
181.0858741868287
 30
0.0
 11
418.64315709162491
 21
181.42493158187111
 31
0.0
  0
LINE
  5
E59C
  8
0
 10
422.0236128941176
 20
180.53557383827871
 30
0.0
 11
418.58892783522577
 21
181.0858741868287
 31
0.0
  0
POLYLINE
  5
E59F
  8
0
 66
     1
 10
0.0
 20
0.0
 30
0.0
 70
   128
  0
VERTEX
  5
1387D
  8
0
 10
418.4677450731395
 20
187.6496943645179
 30
0.0
  0
VERTEX
  5
1387E
  8
0
 10
419.06505811959482
 20
189.8788945749402
 30
0.0
  0
VERTEX
  5
1387F
  8
0
 10
419.65823702514149
 20
192.0926706865429
 30
0.0
  0
SEQEND
  5
13880
  8
0
  0
LINE
  5
E5A0
  8
0
 10
419.65823702514149
 20
192.0926706865429
 30
0.0
 11
418.40048868209101
 21
191.27531638368961
 31
0.0
  0
ARC
  5
E5A1
  8
0
 10
407.5000005587932
 20
184.19157769531009
 30
0.0
 40
13.000000000000011
 50
33.018034190655591
 51
56.981965809344459
  0
LINE
  5
E5A2
  8
0
 10
414.58373924717279
 20
195.09206581860781
 30
0.0
 11
415.40109355002608
 21
196.34981416165829
 31
0.0
  0
POLYLINE
  5
E5A3
  8
0
 66
     1
 10
0.0
 20
0.0
 30
0.0
 70
   128
  0
VERTEX
  5
13881
  8
0
 10
415.40109355002608
 20
196.34981416165829
 30
0.0
  0
VERTEX
  5
13882
  8
0
 10
413.19009510800208
 20
195.75737938284871
 30
0.0
  0
VERTEX
  5
13883
  8
0
 10
410.95811722800107
 20
195.15932220965621
 30
0.0
  0
SEQEND
  5
13884
  8
0
  0
ARC
  5
E5A4
  8
0
 10
407.5000005587932
 20
184.19157769531009
 30
0.0
 40
11.499999999999989
 50
17.499999999999851
 51
72.500000000000128
  0
LINE
  5
E5A5
  8
0
 10
407.5000005587932
 20
193.49157772958279
 30
0.0
 11
406.50000051129592
 21
193.49157772958279
 31
0.0
  0
ARC
  5
E5A6
  8
0
 10
407.5000005587932
 20
184.19157769531009
 30
0.0
 40
9.3000000000000131
 50
16.072489068318522
 51
90.0
  0
LINE
  5
E5A7
  8
0
 10
406.50000051129592
 20
193.49157772958279
 30
0.0
 11
406.50000051129592
 21
191.6246121749281
 31
0.0
  0
ARC
  5
E5A8
  8
0
 10
403.8338967638386
 20
196.9651423097261
 30
0.0
 40
1.489034193756626
 50
9.5196210146058569
 51
54.16867872084574
  0
ARC
  5
E5A9
  8
0
 10
403.83568579784139
 20
196.73859980956129
 30
0.0
 40
1.5410618951319091
 50
334.82386527223019
 51
17.866846606887471
  0
ARC
  5
E5AA
  8
0
 10
404.39178718620627
 20
196.54361028115801
 30
0.0
 40
0.9567283121558267
 50
284.72745947846869
 51
331.22224426337249
  0
ARC
  5
E5AB
  8
0
 10
404.4096107690865
 20
196.5397712210698
 30
0.0
 40
0.9486236411147199
 50
236.80606736219309
 51
283.74520306103778
  0
ARC
  5
E5AC
  8
0
 10
404.75117958114708
 20
196.9478081038105
 30
0.0
 40
1.478397524587006
 50
189.40767032818431
 51
234.38536532094909
  0
ARC
  5
E5AD
  8
0
 10
404.74683228937829
 20
197.17927944523001
 30
0.0
 40
1.529198747811026
 50
154.59690556716521
 51
198.02280766871701
  0
ARC
  5
E5AE
  8
0
 10
404.19916254471849
 20
197.3776048393612
 30
0.0
 40
0.9510415130223359
 50
104.4661493478423
 51
151.23378221758111
  0
ARC
  5
E5AF
  8
0
 10
404.18910002175312
 20
197.38316095444151
 30
0.0
 40
0.9431848648224963
 50
56.798152478284642
 51
103.9585680175912
  0
LINE
  5
E5B6
  8
0
 10
417.25000075995888
 20
109.4999996945262
 30
0.0
 11
417.25000075995888
 21
112.4999992549419
 31
0.0
  0
LINE
  5
E5B7
  8
0
 10
411.7500007897612
 20
112.4999992549419
 30
0.0
 11
411.7500007897612
 21
109.4999996945262
 31
0.0
  0
LINE
  5
E5B8
  8
0
 10
416.0000010207292
 20
112.4999992549419
 30
0.0
 11
416.0000010207292
 21
114.9999996647238
 31
0.0
  0
LINE
  5
E5B9
  8
0
 10
413.00000052899088
 20
114.9999996647238
 30
0.0
 11
413.00000052899088
 21
112.4999992549419
 31
0.0
  0
LINE
  5
E5BA
  8
0
 10
396.25000011175871
 20
109.4999996945262
 30
0.0
 11
396.25000011175871
 21
112.4999992549419
 31
0.0
  0
LINE
  5
E5BB
  8
0
 10
390.75000014156092
 20
112.4999992549419
 30
0.0
 11
390.75000014156092
 21
109.4999996945262
 31
0.0
  0
LINE
  5
E5BC
  8
0
 10
395.00000037252892
 20
112.4999992549419
 30
0.0
 11
395.00000037252892
 21
114.9999996647238
 31
0.0
  0
LINE
  5
E5BD
  8
0
 10
392.00000081211311
 20
114.9999996647238
 30
0.0
 11
392.00000081211311
 21
112.4999992549419
 31
0.0
  0
LINE
  5
E5C2
  8
0
 10
411.50000074878312
 20
94.567874638363719
 30
0.0
 11
411.50000074878312
 21
109.4999996945262
 31
0.0
  0
LINE
  5
E5C3
  8
0
 10
403.5000003688034
 20
109.4999996945262
 30
0.0
 11
403.5000003688034
 21
94.567874638363719
 31
0.0
  0
LINE
  5
E5C4
  8
0
 10
403.5000003688034
 20
94.567874638363719
 30
0.0
 11
404.94337620213599
 21
92.06787446141243
 31
0.0
  0
LINE
  5
E5C5
  8
0
 10
410.05662491545053
 20
92.06787446141243
 30
0.0
 11
411.50000074878312
 21
94.567874638363719
 31
0.0
  0
LINE
  5
E5D4
  8
0
 10
390.49999963492132
 20
115.4999997466802
 30
0.0
 11
391.0000006482004
 21
114.9999996647238
 31
0.0
  0
LINE
  5
E5D5
  8
0
 10
424.00000046938629
 20
114.9999996647238
 30
0.0
 11
424.5000014826652
 21
115.4999997466802
 31
0.0
  0
ARC
  5
E5D6
  8
0
 10
391.50000055879337
 20
121.661007823776
 30
0.0
 40
1.0
 50
110.0000000000035
 51
180.0
  0
ARC
  5
E5D7
  8
0
 10
423.50000055879332
 20
121.661007823776
 30
0.0
 40
1.0
 50
0.0
 51
69.999999999996433
  0
LINE
  5
E5D8
  8
0
 10
424.5000014826652
 20
115.4999997466802
 30
0.0
 11
424.5000014826652
 21
121.661008708179
 31
0.0
  0
LINE
  5
E5D9
  8
0
 10
390.49999963492132
 20
121.661008708179
 30
0.0
 11
390.49999963492132
 21
115.4999997466802
 31
0.0
  0
LINE
  5
E5DB
  8
0
 10
397.7500003576277
 20
124.9999994412064
 30
0.0
 11
391.15798089653242
 21
122.6007001474499
 31
0.0
  0
ARC
  5
E5DC
  8
0
 10
416.90000055879318
 20
114.5999995604157
 30
0.0
 40
0.3999999999999986
 50
90.0
 51
180.0
  0
ARC
  5
E5DD
  8
0
 10
398.1000005587934
 20
114.5999995604157
 30
0.0
 40
0.3999999999999986
 50
0.0
 51
90.0
  0
LINE
  5
E5DE
  8
0
 10
416.50000017136313
 20
112.4999992549419
 30
0.0
 11
416.50000017136313
 21
114.59999941289421
 31
0.0
  0
LINE
  5
E5DF
  8
0
 10
398.50000094622362
 20
114.59999941289421
 30
0.0
 11
398.50000094622362
 21
110.4999993927777
 31
0.0
  0
LINE
  5
E5E0
  8
0
 10
398.50000094622362
 20
110.4999993927777
 30
0.0
 11
399.50000017881382
 21
109.4999996945262
 31
0.0
  0
LINE
  5
E5E3
  8
0
 10
417.25000075995888
 20
112.4999992549419
 30
0.0
 11
411.7500007897612
 21
112.4999992549419
 31
0.0
  0
LINE
  5
E5E6
  8
0
 10
396.25000011175871
 20
109.4999996945262
 30
0.0
 11
390.75000014156097
 21
109.4999996945262
 31
0.0
  0
LINE
  5
E5E8
  8
0
 10
396.25000011175871
 20
112.4999992549419
 30
0.0
 11
390.75000014156097
 21
112.4999992549419
 31
0.0
  0
CIRCLE
  5
E5E9
  8
0
 10
407.5000005587932
 20
97.067874560415603
 30
0.0
 40
1.700000000000002
  0
CIRCLE
  5
E5EA
  8
0
 10
407.5000005587932
 20
97.067874560415603
 30
0.0
 40
1.999999999999992
  0
LINE
  5
E5ED
  8
0
 10
403.5000003688034
 20
94.567874638363719
 30
0.0
 11
411.50000074878312
 21
94.567874638363719
 31
0.0
  0
LINE
  5
E5EE
  8
0
 10
410.05662491545053
 20
92.06787446141243
 30
0.0
 11
404.94337620213599
 21
92.06787446141243
 31
0.0
  0
LINE
  5
E632
  8
0
 10
424.00000046938629
 20
114.9999996647238
 30
0.0
 11
391.0000006482004
 21
114.9999996647238
 31
0.0
  0
LINE
  5
E634
  8
0
 10
417.25000075995888
 20
124.9999994412064
 30
0.0
 11
397.7500003576277
 21
124.9999994412064
 31
0.0
  0
LINE
  5
E63F
  8
0
 10
398.50000094622362
 20
110.4999993927777
 30
0.0
 11
411.7500007897612
 21
110.4999993927777
 31
0.0
  0
LINE
  5
E640
  8
0
 10
417.25000075995888
 20
109.4999996945262
 30
0.0
 11
399.50000017881382
 21
109.4999996945262
 31
0.0
  0
LINE
  5
E652
  8
0
 10
391.15798089653242
 20
122.6007001474499
 30
0.0
 11
423.84202022105433
 21
122.60070014745
 31
0.0
  0
LINE
  5
E655
  8
0
 10
484.87435661256268
 20
109.4999996945262
 30
0.0
 11
484.87435661256268
 21
112.4999992549419
 31
0.0
  0
LINE
  5
E656
  8
0
 10
479.37435664236523
 20
112.4999992549419
 30
0.0
 11
479.37435664236523
 21
109.4999996945262
 31
0.0
  0
LINE
  5
E657
  8
0
 10
483.6243559420106
 20
112.4999992549419
 30
0.0
 11
483.6243559420106
 21
114.9999996647238
 31
0.0
  0
LINE
  5
E658
  8
0
 10
480.62435638159479
 20
114.9999996647238
 30
0.0
 11
480.62435638159479
 21
112.4999992549419
 31
0.0
  0
LINE
  5
E659
  8
0
 10
460.62564484775038
 20
109.4999996945262
 30
0.0
 11
460.62564484775038
 21
112.4999992549419
 31
0.0
  0
LINE
  5
E65A
  8
0
 10
455.1256448775527
 20
112.4999992549419
 30
0.0
 11
455.1256448775527
 21
109.4999996945262
 31
0.0
  0
LINE
  5
E65B
  8
0
 10
459.37564510852059
 20
112.4999992549419
 30
0.0
 11
459.37564510852059
 21
114.9999996647238
 31
0.0
  0
LINE
  5
E65C
  8
0
 10
456.37564554810479
 20
114.9999996647238
 30
0.0
 11
456.37564554810479
 21
112.4999992549419
 31
0.0
  0
LINE
  5
E65D
  8
0
 10
476.70000053942192
 20
95.067874603904784
 30
0.0
 11
477.00000096112478
 21
95.367874559946372
 31
0.0
  0
LINE
  5
E65E
  8
0
 10
477.00000096112478
 20
98.767874605022357
 30
0.0
 11
476.70000053942192
 21
99.067874444648623
 31
0.0
  0
LINE
  5
E65F
  8
0
 10
476.70000053942192
 20
99.067874444648623
 30
0.0
 11
474.00000093504769
 21
99.067874444648623
 31
0.0
  0
LINE
  5
E660
  8
0
 10
466.00000055506803
 20
99.067874444648623
 30
0.0
 11
463.30000095069403
 21
99.067874444648623
 31
0.0
  0
LINE
  5
E661
  8
0
 10
463.30000095069403
 20
95.067874603904784
 30
0.0
 11
466.00000055506803
 21
95.067874603904784
 31
0.0
  0
LINE
  5
E662
  8
0
 10
474.00000093504769
 20
95.067874603904784
 30
0.0
 11
476.70000053942192
 21
95.067874603904784
 31
0.0
  0
LINE
  5
E663
  8
0
 10
463.30000095069403
 20
99.067874444648623
 30
0.0
 11
463.00000052899111
 21
98.767874605022357
 31
0.0
  0
LINE
  5
E664
  8
0
 10
463.00000052899111
 20
95.367874559946372
 30
0.0
 11
463.30000095069403
 21
95.067874603904784
 31
0.0
  0
LINE
  5
E669
  8
0
 10
466.00000055506803
 20
94.567874638363719
 30
0.0
 11
467.44337638840068
 21
92.06787446141243
 31
0.0
  0
LINE
  5
E66A
  8
0
 10
472.5566251017151
 20
92.06787446141243
 30
0.0
 11
474.00000093504769
 21
94.567874638363719
 31
0.0
  0
LINE
  5
E66B
  8
0
 10
474.00000093504769
 20
99.067874444648623
 30
0.0
 11
474.00000093504769
 21
109.4999996945262
 31
0.0
  0
LINE
  5
E66C
  8
0
 10
474.00000093504769
 20
94.567874638363719
 30
0.0
 11
474.00000093504769
 21
95.067874603904784
 31
0.0
  0
LINE
  5
E66D
  8
0
 10
466.00000055506803
 20
95.067874603904784
 30
0.0
 11
466.00000055506803
 21
94.567874638363719
 31
0.0
  0
LINE
  5
E66E
  8
0
 10
466.00000055506803
 20
109.4999996945262
 30
0.0
 11
466.00000055506803
 21
99.067874444648623
 31
0.0
  0
LINE
  5
E680
  8
0
 10
452.9999998211859
 20
115.4999997466802
 30
0.0
 11
453.5000008344648
 21
114.9999996647238
 31
0.0
  0
LINE
  5
E681
  8
0
 10
486.50000065565092
 20
114.9999996647238
 30
0.0
 11
487.00000166892983
 21
115.4999997466802
 31
0.0
  0
ARC
  5
E682
  8
0
 10
454.00000074505778
 20
121.661007823776
 30
0.0
 40
1.0
 50
109.9999999999974
 51
180.0
  0
ARC
  5
E683
  8
0
 10
486.00000074505778
 20
121.661007823776
 30
0.0
 40
1.0000000000000071
 50
0.0
 51
69.99999999999649
  0
LINE
  5
E684
  8
0
 10
487.00000166892983
 20
115.4999997466802
 30
0.0
 11
487.00000166892983
 21
121.661008708179
 31
0.0
  0
LINE
  5
E685
  8
0
 10
452.9999998211859
 20
121.661008708179
 30
0.0
 11
452.9999998211859
 21
115.4999997466802
 31
0.0
  0
LINE
  5
E686
  8
0
 10
486.34202088838362
 20
122.60070044456189
 30
0.0
 11
479.75000094622362
 21
124.9999994412064
 31
0.0
  0
LINE
  5
E689
  8
0
 10
460.25000054389233
 20
124.9999994412064
 30
0.0
 11
453.65798108279682
 21
122.6007001474499
 31
0.0
  0
ARC
  5
E68C
  8
0
 10
479.40000074505792
 20
114.5999995604157
 30
0.0
 40
0.3999999999999986
 50
90.0
 51
180.0
  0
ARC
  5
E68D
  8
0
 10
460.60000074505791
 20
114.5999995604157
 30
0.0
 40
0.3999999999999986
 50
0.0
 51
90.0
  0
LINE
  5
E68E
  8
0
 10
479.0000003576277
 20
110.4999993927777
 30
0.0
 11
479.0000003576277
 21
114.59999941289421
 31
0.0
  0
LINE
  5
E68F
  8
0
 10
461.00000113248802
 20
114.59999941289421
 30
0.0
 11
461.00000113248802
 21
110.4999993927777
 31
0.0
  0
LINE
  5
E690
  8
0
 10
461.00000113248802
 20
110.4999993927777
 30
0.0
 11
462.00000036507822
 21
109.4999996945262
 31
0.0
  0
LINE
  5
E691
  8
0
 10
478.0000011250375
 20
109.4999996945262
 30
0.0
 11
479.0000003576277
 21
110.4999993927777
 31
0.0
  0
LINE
  5
E694
  8
0
 10
484.87435661256268
 20
109.4999996945262
 30
0.0
 11
479.37435664236523
 21
109.4999996945262
 31
0.0
  0
LINE
  5
E695
  8
0
 10
484.87435661256268
 20
112.4999992549419
 30
0.0
 11
479.37435664236523
 21
112.4999992549419
 31
0.0
  0
LINE
  5
E697
  8
0
 10
460.62564484775038
 20
109.4999996945262
 30
0.0
 11
455.1256448775527
 21
109.4999996945262
 31
0.0
  0
LINE
  5
E699
  8
0
 10
460.62564484775038
 20
112.4999992549419
 30
0.0
 11
455.1256448775527
 21
112.4999992549419
 31
0.0
  0
LINE
  5
E69A
  8
0
 10
476.70000053942192
 20
95.067874603904784
 30
0.0
 11
476.70000053942192
 21
99.067874444648623
 31
0.0
  0
LINE
  5
E69B
  8
0
 10
477.00000096112478
 20
98.767874605022357
 30
0.0
 11
477.00000096112478
 21
95.367874559946372
 31
0.0
  0
LINE
  5
E69C
  8
0
 10
463.30000095069403
 20
99.067874444648623
 30
0.0
 11
463.30000095069403
 21
95.067874603904784
 31
0.0
  0
LINE
  5
E69D
  8
0
 10
463.00000052899111
 20
95.367874559946372
 30
0.0
 11
463.00000052899111
 21
98.767874605022357
 31
0.0
  0
LINE
  5
E6A0
  8
0
 10
472.5566251017151
 20
92.06787446141243
 30
0.0
 11
467.44337638840068
 21
92.06787446141243
 31
0.0
  0
LINE
  5
E6A3
  8
0
 10
466.00000055506803
 20
94.567874638363719
 30
0.0
 11
474.00000093504769
 21
94.567874638363719
 31
0.0
  0
ARC
  5
E6A4
  8
0
 10
461.813301575293
 20
96.873926930916483
 30
0.0
 40
4.726578431530065
 50
2.351701458350083
 51
27.566977811728648
  0
ARC
  5
E6A5
  8
0
 10
461.93534846301981
 20
97.228998851631317
 30
0.0
 40
4.603371350527401
 50
332.04403169260689
 51
357.99415968255897
  0
ARC
  5
E6A6
  8
0
 10
478.18670557677842
 20
97.261823623368642
 30
0.0
 40
4.7265841475170403
 50
182.35171599794461
 51
207.5669622290753
  0
ARC
  5
E6A7
  8
0
 10
478.06465312373263
 20
96.906750291000563
 30
0.0
 40
4.6033714463587634
 50
152.04403201089031
 51
177.99415998984571
  0
LINE
  5
E6B6
  8
0
 10
486.50000065565092
 20
114.9999996647238
 30
0.0
 11
453.5000008344648
 21
114.9999996647238
 31
0.0
  0
POLYLINE
  5
E6B8
  8
0
 66
     1
 10
0.0
 20
0.0
 30
0.0
 70
   128
  0
VERTEX
  5
13885
  8
0
 10
470.37694299244282
 20
123.72505608946079
 30
0.0
  0
VERTEX
  5
13886
  8
0
 10
470.34963812795439
 20
123.88097997754809
 30
0.0
  0
VERTEX
  5
13887
  8
0
 10
470.38315735873738
 20
123.9978162571788
 30
0.0
  0
VERTEX
  5
13888
  8
0
 10
470.48001010436519
 20
124.1133579984307
 30
0.0
  0
VERTEX
  5
13889
  8
0
 10
470.66598200937688
 20
124.2284489795565
 30
0.0
  0
SEQEND
  5
1388A
  8
0
  0
ARC
  5
E6B9
  8
0
 10
471.21922815419998
 20
124.2182528106666
 30
0.0
 40
0.9760570165334067
 50
210.35093646770781
 51
260.17168355800669
  0
ARC
  5
E6BA
  8
0
 10
472.0880330941211
 20
126.9698357497448
 30
0.0
 40
3.854969703700629
 50
254.4194937621715
 51
270.74570623972812
  0
ARC
  5
E6BB
  8
0
 10
472.24783868050292
 20
125.70664109951819
 30
0.0
 40
2.5937666339634151
 50
267.57747527074463
 51
289.21345872663687
  0
POLYLINE
  5
E6BC
  8
0
 66
     1
 10
0.0
 20
0.0
 30
0.0
 70
   128
  0
VERTEX
  5
1388B
  8
0
 10
473.38970571756317
 20
123.72636739164579
 30
0.0
  0
VERTEX
  5
1388C
  8
0
 10
473.4177923109379
 20
123.5740067437291
 30
0.0
  0
VERTEX
  5
1388D
  8
0
 10
473.3827636390921
 20
123.4617022797465
 30
0.0
  0
VERTEX
  5
1388E
  8
0
 10
473.28304157592322
 20
123.3544753864407
 30
0.0
  0
VERTEX
  5
1388F
  8
0
 10
473.10141737572809
 20
123.2573496177792
 30
0.0
  0
SEQEND
  5
13890
  8
0
  0
ARC
  5
E6BD
  8
0
 10
472.48016934629931
 20
123.2104627100931
 30
0.0
 40
1.045664406537899
 50
29.562653283899891
 51
77.034399504632376
  0
ARC
  5
E6BE
  8
0
 10
471.66108878724458
 20
121.0696960881159
 30
0.0
 40
3.330829422597366
 50
71.557954659540158
 51
90.561545450140073
  0
ARC
  5
E6BF
  8
0
 10
471.5433528207285
 20
122.0966483753992
 30
0.0
 40
2.305288128737327
 50
87.884646383271104
 51
112.3702657172901
  0
LINE
  5
E6C0
  8
0
 10
482.25605122744997
 20
123.795316927135
 30
0.0
 11
482.66145687550278
 21
123.80372118204831
 31
0.0
  0
LINE
  5
E6C1
  8
0
 10
482.63968534767599
 20
123.6503006890416
 30
0.0
 11
482.25605122744997
 21
123.795316927135
 31
0.0
  0
LINE
  5
E6C2
  8
0
 10
483.0450909957288
 20
123.6584721133113
 30
0.0
 11
482.63968534767599
 21
123.6503006890416
 31
0.0
  0
LINE
  5
E6C3
  8
0
 10
484.12542052566982
 20
123.2495265081525
 30
0.0
 11
483.0450909957288
 21
123.6584721133113
 31
0.0
  0
LINE
  5
E6C4
  8
0
 10
483.60740307718493
 20
123.23042880743741
 30
0.0
 11
484.12542052566982
 21
123.2495265081525
 31
0.0
  0
LINE
  5
E6C5
  8
0
 10
483.9910362660882
 20
123.08564353734251
 30
0.0
 11
483.60740307718493
 21
123.23042880743741
 31
0.0
  0
LINE
  5
E6C6
  8
0
 10
484.64794371277083
 20
123.0946755036711
 30
0.0
 11
483.9910362660882
 21
123.08564353734251
 31
0.0
  0
LINE
  5
E6C7
  8
0
 10
481.31010595709063
 20
124.3552653118968
 30
0.0
 11
484.64794371277083
 21
123.0946755036711
 31
0.0
  0
LINE
  5
E6C8
  8
0
 10
481.17121689021582
 20
124.3676817044615
 30
0.0
 11
481.31010595709063
 21
124.3552653118968
 31
0.0
  0
LINE
  5
E6C9
  8
0
 10
482.66145687550278
 20
123.80372118204831
 30
0.0
 11
481.17121689021582
 21
124.3676817044615
 31
0.0
  0
LINE
  5
E6CA
  8
0
 10
479.75000094622362
 20
124.9999994412064
 30
0.0
 11
460.25000054389233
 21
124.9999994412064
 31
0.0
  0
LINE
  5
E6CB
  8
0
 10
482.99772951751942
 20
123.79135135561231
 30
0.0
 11
483.04819746945492
 21
123.7995541030006
 31
0.0
  0
LINE
  5
E6CC
  8
0
 10
483.38136363774532
 20
123.6519994214177
 30
0.0
 11
482.99772951751942
 21
123.79135135561231
 31
0.0
  0
LINE
  5
E6CD
  8
0
 10
483.43178132061678
 20
123.6599410015086
 30
0.0
 11
483.38136363774532
 21
123.6519994214177
 31
0.0
  0
LINE
  5
E6CE
  8
0
 10
484.50373586267222
 20
123.2275845482945
 30
0.0
 11
484.5683145611647
 21
123.24627673962451
 31
0.0
  0
LINE
  5
E6CF
  8
0
 10
484.88736905157549
 20
123.08842819184061
 30
0.0
 11
484.50373586267222
 21
123.2275845482945
 31
0.0
  0
LINE
  5
E6D0
  8
0
 10
484.97545334471522
 20
123.0980903440372
 30
0.0
 11
484.88736905157549
 21
123.08842819184061
 31
0.0
  0
LINE
  5
E6D3
  8
0
 10
467.39654948934879
 20
124.3744561448693
 30
0.0
 11
468.56922209728469
 21
123.37644156068561
 31
0.0
  0
LINE
  5
E6D4
  8
0
 10
466.89429723657639
 20
124.35736265033481
 30
0.0
 11
467.39654948934879
 21
124.3744561448693
 31
0.0
  0
LINE
  5
E6D5
  8
0
 10
466.3439968880262
 20
123.0976352468133
 30
0.0
 11
466.89429723657639
 21
124.35736265033481
 31
0.0
  0
LINE
  5
E6D6
  8
0
 10
466.82372673414619
 20
123.1101112440228
 30
0.0
 11
466.3439968880262
 21
123.0976352468133
 31
0.0
  0
LINE
  5
E6D7
  8
0
 10
467.25841130129947
 20
124.10782407969231
 30
0.0
 11
466.82372673414619
 21
123.1101112440228
 31
0.0
  0
LINE
  5
E6D8
  8
0
 10
468.41306596063049
 20
123.1110071763396
 30
0.0
 11
467.25841130129947
 21
124.10782407969231
 31
0.0
  0
LINE
  5
E6D9
  8
0
 10
468.93258551601281
 20
123.0975775048136
 30
0.0
 11
468.41306596063049
 21
123.1110071763396
 31
0.0
  0
LINE
  5
E6DA
  8
0
 10
469.48288580635523
 20
124.3573347106576
 30
0.0
 11
468.93258551601281
 21
123.0975775048136
 31
0.0
  0
LINE
  5
E6DB
  8
0
 10
469.00315613485827
 20
124.3739103898406
 30
0.0
 11
469.48288580635523
 21
124.3573347106576
 31
0.0
  0
LINE
  5
E6DC
  8
0
 10
468.56922209728469
 20
123.37644156068561
 30
0.0
 11
469.00315613485827
 21
124.3739103898406
 31
0.0
  0
POLYLINE
  5
E6DD
  8
0
 66
     1
 10
0.0
 20
0.0
 30
0.0
 70
   128
  0
VERTEX
  5
13891
  8
0
 10
473.45811741426559
 20
124.3630511686206
 30
0.0
  0
VERTEX
  5
13892
  8
0
 10
475.68731762468781
 20
123.8579241558909
 30
0.0
  0
VERTEX
  5
13893
  8
0
 10
477.90109373629048
 20
123.2711406424641
 30
0.0
  0
SEQEND
  5
13894
  8
0
  0
LINE
  5
E6DE
  8
0
 10
477.90109373629048
 20
123.2711406424641
 30
0.0
 11
477.0837394334373
 21
123.81709683686491
 31
0.0
  0
LINE
  5
E6DF
  8
0
 10
477.0837394334373
 20
123.81709683686491
 30
0.0
 11
480.90048886835552
 21
123.81709683686491
 31
0.0
  0
LINE
  5
E6E0
  8
0
 10
480.90048886835552
 20
123.81709683686491
 30
0.0
 11
482.15823721140578
 21
123.2711406424641
 31
0.0
  0
POLYLINE
  5
E6E1
  8
0
 66
     1
 10
0.0
 20
0.0
 30
0.0
 70
   128
  0
VERTEX
  5
13895
  8
0
 10
482.15823721140578
 20
123.2711406424641
 30
0.0
  0
VERTEX
  5
13896
  8
0
 10
481.56580243259629
 20
123.8572349771857
 30
0.0
  0
VERTEX
  5
13897
  8
0
 10
480.96774525940378
 20
124.3630511686206
 30
0.0
  0
SEQEND
  5
13898
  8
0
  0
LINE
  5
E6E2
  8
0
 10
480.96774525940378
 20
124.3630511686206
 30
0.0
 11
473.45811741426559
 21
124.3630511686206
 31
0.0
  0
ARC
  5
E6F3
  8
0
 10
471.5040391600225
 20
124.06608915845381
 30
0.0
 40
0.7217143160373915
 50
206.6371620822664
 51
258.15705948809438
  0
POLYLINE
  5
E6F4
  8
0
 66
     1
 10
0.0
 20
0.0
 30
0.0
 70
   128
  0
VERTEX
  5
13899
  8
0
 10
471.04511114768638
 20
124.1417502984404
 30
0.0
  0
VERTEX
  5
1389A
  8
0
 10
470.86056375876029
 20
123.9900900050997
 30
0.0
  0
VERTEX
  5
1389B
  8
0
 10
470.8311099838462
 20
123.8687237724662
 30
0.0
  0
VERTEX
  5
1389C
  8
0
 10
470.85892498027488
 20
123.7425165250897
 30
0.0
  0
SEQEND
  5
1389D
  8
0
  0
ARC
  5
E6F5
  8
0
 10
471.6428165655567
 20
122.6986494992491
 30
0.0
 40
1.561983253168189
 50
88.489155307625253
 51
112.4984239808103
  0
ARC
  5
E6F6
  8
0
 10
471.69227949564117
 20
122.0092594731573
 30
0.0
 40
2.2508454869883758
 50
71.386058728812117
 51
90.210755282944433
  0
ARC
  5
E6F7
  8
0
 10
472.23126370892129
 20
123.40971779166711
 30
0.0
 40
0.754306863070778
 50
26.259834211907499
 51
76.23632572126256
  0
POLYLINE
  5
E6F8
  8
0
 66
     1
 10
0.0
 20
0.0
 30
0.0
 70
   128
  0
VERTEX
  5
1389E
  8
0
 10
472.72153764963122
 20
123.3602365478873
 30
0.0
  0
VERTEX
  5
1389F
  8
0
 10
472.90543707087608
 20
123.49888812750579
 30
0.0
  0
VERTEX
  5
138A0
  8
0
 10
472.93525895103761
 20
123.6014341935515
 30
0.0
  0
VERTEX
  5
138A1
  8
0
 10
472.90772370062729
 20
123.7434552982449
 30
0.0
  0
SEQEND
  5
138A2
  8
0
  0
ARC
  5
E6F9
  8
0
 10
472.12783870436431
 20
124.9803194933702
 30
0.0
 40
1.7254411574596831
 50
268.4992297863331
 51
290.12596933029369
  0
ARC
  5
E6FA
  8
0
 10
472.07064862350762
 20
125.7565540281083
 30
0.0
 40
2.5011126071671721
 50
253.39550990274731
 51
270.2749009779514
  0
LINE
  5
E70B
  8
0
 10
461.00000113248802
 20
110.4999993927777
 30
0.0
 11
479.0000003576277
 21
110.4999993927777
 31
0.0
  0
LINE
  5
E70C
  8
0
 10
478.0000011250375
 20
109.4999996945262
 30
0.0
 11
462.00000036507822
 21
109.4999996945262
 31
0.0
  0
LINE
  5
E722
  8
0
 10
453.65798108279682
 20
122.6007001474499
 30
0.0
 11
486.3420204073189
 21
122.6007001474499
 31
0.0
  0
LINE
  5
E724
  8
0
 10
335.62564447522118
 20
109.4999996945262
 30
0.0
 11
335.62564447522118
 21
112.4999992549419
 31
0.0
  0
LINE
  5
E725
  8
0
 10
330.12564450502367
 20
112.4999992549419
 30
0.0
 11
330.12564450502367
 21
109.4999996945262
 31
0.0
  0
LINE
  5
E726
  8
0
 10
334.37564473599173
 20
112.4999992549419
 30
0.0
 11
334.37564473599173
 21
114.9999996647238
 31
0.0
  0
LINE
  5
E727
  8
0
 10
331.37564517557593
 20
114.9999996647238
 30
0.0
 11
331.37564517557593
 21
112.4999992549419
 31
0.0
  0
LINE
  5
E728
  8
0
 10
359.87435624003382
 20
109.4999996945262
 30
0.0
 11
359.87435624003382
 21
112.4999992549419
 31
0.0
  0
LINE
  5
E729
  8
0
 10
354.37435626983603
 20
112.4999992549419
 30
0.0
 11
354.37435626983603
 21
109.4999996945262
 31
0.0
  0
LINE
  5
E72A
  8
0
 10
358.62435556948168
 20
112.4999992549419
 30
0.0
 11
358.62435556948168
 21
114.9999996647238
 31
0.0
  0
LINE
  5
E72B
  8
0
 10
355.62435600906582
 20
114.9999996647238
 30
0.0
 11
355.62435600906582
 21
112.4999992549419
 31
0.0
  0
LINE
  5
E72C
  8
0
 10
347.7500003576277
 20
109.4999996945262
 30
0.0
 11
347.7500003576277
 21
112.4999992549419
 31
0.0
  0
LINE
  5
E72D
  8
0
 10
342.25000038743002
 20
112.4999992549419
 30
0.0
 11
342.25000038743002
 21
109.4999996945262
 31
0.0
  0
LINE
  5
E72E
  8
0
 10
346.50000038556738
 20
112.4999992549419
 30
0.0
 11
346.50000038556738
 21
114.9999996647238
 31
0.0
  0
LINE
  5
E72F
  8
0
 10
343.50000035949017
 20
114.9999996647238
 30
0.0
 11
343.50000035949017
 21
112.4999992549419
 31
0.0
  0
LINE
  5
E730
  8
0
 10
338.30000057816483
 20
99.067874444648623
 30
0.0
 11
338.00000015646202
 21
98.767874605022357
 31
0.0
  0
LINE
  5
E731
  8
0
 10
338.00000015646202
 20
95.367874559946372
 30
0.0
 11
338.30000057816483
 21
95.067874603904784
 31
0.0
  0
LINE
  5
E732
  8
0
 10
338.30000057816483
 20
95.067874603904784
 30
0.0
 11
341.000000182539
 21
95.067874603904784
 31
0.0
  0
LINE
  5
E733
  8
0
 10
349.00000056251861
 20
95.067874603904784
 30
0.0
 11
351.70000016689278
 21
95.067874603904784
 31
0.0
  0
LINE
  5
E734
  8
0
 10
351.70000016689278
 20
99.067874444648623
 30
0.0
 11
349.00000056251861
 21
99.067874444648623
 31
0.0
  0
LINE
  5
E735
  8
0
 10
341.000000182539
 20
99.067874444648623
 30
0.0
 11
338.30000057816483
 21
99.067874444648623
 31
0.0
  0
LINE
  5
E736
  8
0
 10
351.70000016689278
 20
95.067874603904784
 30
0.0
 11
352.0000005885957
 21
95.367874559946372
 31
0.0
  0
LINE
  5
E737
  8
0
 10
352.0000005885957
 20
98.767874605022357
 30
0.0
 11
351.70000016689278
 21
99.067874444648623
 31
0.0
  0
LINE
  5
E73C
  8
0
 10
341.000000182539
 20
94.567874638363719
 30
0.0
 11
342.44337601587159
 21
92.06787446141243
 31
0.0
  0
LINE
  5
E73D
  8
0
 10
347.55662472918613
 20
92.06787446141243
 30
0.0
 11
349.00000056251861
 21
94.567874638363719
 31
0.0
  0
LINE
  5
E73E
  8
0
 10
349.00000056251861
 20
99.067874444648623
 30
0.0
 11
349.00000056251861
 21
109.4999996945262
 31
0.0
  0
LINE
  5
E73F
  8
0
 10
349.00000056251861
 20
94.567874638363719
 30
0.0
 11
349.00000056251861
 21
95.067874603904784
 31
0.0
  0
LINE
  5
E740
  8
0
 10
341.000000182539
 20
95.067874603904784
 30
0.0
 11
341.000000182539
 21
94.567874638363719
 31
0.0
  0
LINE
  5
E741
  8
0
 10
341.000000182539
 20
109.4999996945262
 30
0.0
 11
341.000000182539
 21
99.067874444648623
 31
0.0
  0
ARC
  5
E753
  8
0
 10
329.0000003725288
 20
121.661007823776
 30
0.0
 40
1.0
 50
110.0000000000035
 51
180.0
  0
ARC
  5
E754
  8
0
 10
361.00000037252892
 20
121.661007823776
 30
0.0
 40
1.0
 50
0.0
 51
69.99999999999649
  0
LINE
  5
E755
  8
0
 10
327.99999944865681
 20
115.4999997466802
 30
0.0
 11
328.50000046193583
 21
114.9999996647238
 31
0.0
  0
LINE
  5
E756
  8
0
 10
361.50000028312178
 20
114.9999996647238
 30
0.0
 11
362.00000129640091
 21
115.4999997466802
 31
0.0
  0
LINE
  5
E757
  8
0
 10
362.00000129640091
 20
115.4999997466802
 30
0.0
 11
362.00000129640091
 21
121.661008708179
 31
0.0
  0
LINE
  5
E758
  8
0
 10
327.99999944865681
 20
121.661008708179
 30
0.0
 11
327.99999944865681
 21
115.4999997466802
 31
0.0
  0
LINE
  5
E759
  8
0
 10
361.3420200347897
 20
122.6007001474499
 30
0.0
 11
354.75000057369448
 21
124.9999994412064
 31
0.0
  0
ARC
  5
E75D
  8
0
 10
354.40000037252889
 20
114.5999995604157
 30
0.0
 40
0.3999999999999986
 50
90.0
 51
180.0
  0
ARC
  5
E75E
  8
0
 10
335.60000037252883
 20
114.5999995604157
 30
0.0
 40
0.3999999999999986
 50
0.0
 51
90.0
  0
LINE
  5
E75F
  8
0
 10
353.99999998509873
 20
110.4999993927777
 30
0.0
 11
353.99999998509873
 21
114.59999941289421
 31
0.0
  0
LINE
  5
E760
  8
0
 10
336.00000075995888
 20
114.59999941289421
 30
0.0
 11
336.00000075995888
 21
110.4999993927777
 31
0.0
  0
LINE
  5
E761
  8
0
 10
336.00000075995888
 20
110.4999993927777
 30
0.0
 11
336.99999999254919
 21
109.4999996945262
 31
0.0
  0
LINE
  5
E762
  8
0
 10
353.00000075250841
 20
109.4999996945262
 30
0.0
 11
353.99999998509873
 21
110.4999993927777
 31
0.0
  0
LINE
  5
E766
  8
0
 10
335.62564447522118
 20
109.4999996945262
 30
0.0
 11
330.12564450502367
 21
109.4999996945262
 31
0.0
  0
LINE
  5
E768
  8
0
 10
335.62564447522118
 20
112.4999992549419
 30
0.0
 11
330.12564450502367
 21
112.4999992549419
 31
0.0
  0
LINE
  5
E769
  8
0
 10
359.87435624003382
 20
112.4999992549419
 30
0.0
 11
354.37435626983603
 21
112.4999992549419
 31
0.0
  0
LINE
  5
E76A
  8
0
 10
359.87435624003382
 20
109.4999996945262
 30
0.0
 11
354.37435626983603
 21
109.4999996945262
 31
0.0
  0
LINE
  5
E76D
  8
0
 10
347.7500003576277
 20
112.4999992549419
 30
0.0
 11
342.25000038743002
 21
112.4999992549419
 31
0.0
  0
LINE
  5
E76F
  8
0
 10
338.30000057816483
 20
99.067874444648623
 30
0.0
 11
338.30000057816483
 21
95.067874603904784
 31
0.0
  0
LINE
  5
E770
  8
0
 10
338.00000015646202
 20
98.75789955817163
 30
0.0
 11
338.00000015646202
 21
98.767874605022357
 31
0.0
  0
LINE
  5
E771
  8
0
 10
338.00000015646202
 20
95.367874559946372
 30
0.0
 11
338.00000015646202
 21
98.75789955817163
 31
0.0
  0
LINE
  5
E772
  8
0
 10
351.70000016689278
 20
99.056139314547195
 30
0.0
 11
351.70000016689278
 21
99.067874444648623
 31
0.0
  0
LINE
  5
E773
  8
0
 10
351.70000016689278
 20
95.067874603904784
 30
0.0
 11
351.70000016689278
 21
99.056139314547195
 31
0.0
  0
LINE
  5
E774
  8
0
 10
352.0000005885957
 20
98.767874605022357
 30
0.0
 11
352.0000005885957
 21
95.367874559946372
 31
0.0
  0
LINE
  5
E779
  8
0
 10
347.55662472918613
 20
92.06787446141243
 30
0.0
 11
342.44337601587159
 21
92.06787446141243
 31
0.0
  0
LINE
  5
E77A
  8
0
 10
341.000000182539
 20
94.567874638363719
 30
0.0
 11
349.00000056251861
 21
94.567874638363719
 31
0.0
  0
POLYLINE
  5
E77B
  8
0
 66
     1
 10
0.0
 20
0.0
 30
0.0
 70
   128
  0
VERTEX
  5
138A3
  8
0
 10
348.99672742933012
 20
99.061317468062043
 30
0.0
  0
VERTEX
  5
138A4
  8
0
 10
348.99825712665893
 20
99.064385477453484
 30
0.0
  0
VERTEX
  5
138A5
  8
0
 10
348.93657796084852
 20
98.937805351801202
 30
0.0
  0
VERTEX
  5
138A6
  8
0
 10
348.80483004264511
 20
98.641637206077561
 30
0.0
  0
VERTEX
  5
138A7
  8
0
 10
348.6322622559963
 20
98.160269629210248
 30
0.0
  0
VERTEX
  5
138A8
  8
0
 10
348.55262113735063
 20
97.855982329696403
 30
0.0
  0
VERTEX
  5
138A9
  8
0
 10
348.4925205633042
 20
97.51250648964195
 30
0.0
  0
VERTEX
  5
138AA
  8
0
 10
348.4663066267965
 20
97.191481373505653
 30
0.0
  0
VERTEX
  5
138AB
  8
0
 10
348.47068058326818
 20
96.854284990462489
 30
0.0
  0
VERTEX
  5
138AC
  8
0
 10
348.55034475214762
 20
96.290092583280043
 30
0.0
  0
VERTEX
  5
138AD
  8
0
 10
348.69585924781842
 20
95.779708079993725
 30
0.0
  0
VERTEX
  5
138AE
  8
0
 10
348.78423035144777
 20
95.5445901080966
 30
0.0
  0
VERTEX
  5
138AF
  8
0
 10
348.86850829236192
 20
95.345854485407486
 30
0.0
  0
VERTEX
  5
138B0
  8
0
 10
348.93703756853921
 20
95.196976052597165
 30
0.0
  0
VERTEX
  5
138B1
  8
0
 10
348.98377086967213
 20
95.100534573197365
 30
0.0
  0
VERTEX
  5
138B2
  8
0
 10
348.99976633489098
 20
95.06834236066787
 30
0.0
  0
VERTEX
  5
138B3
  8
0
 10
348.99845736101253
 20
95.070971135050044
 30
0.0
  0
SEQEND
  5
138B4
  8
0
  0
POLYLINE
  5
E77C
  8
0
 66
     1
 10
0.0
 20
0.0
 30
0.0
 70
   128
  0
VERTEX
  5
138B5
  8
0
 10
341.00327331572748
 20
95.074431580491336
 30
0.0
  0
VERTEX
  5
138B6
  8
0
 10
341.00174361839868
 20
95.071363687515245
 30
0.0
  0
VERTEX
  5
138B7
  8
0
 10
341.06342278420908
 20
95.197943696752205
 30
0.0
  0
VERTEX
  5
138B8
  8
0
 10
341.1951707024125
 20
95.494111842475874
 30
0.0
  0
VERTEX
  5
138B9
  8
0
 10
341.36773848906142
 20
95.975479419343145
 30
0.0
  0
VERTEX
  5
138BA
  8
0
 10
341.44737960770709
 20
96.279766777064651
 30
0.0
  0
VERTEX
  5
138BB
  8
0
 10
341.50748018175341
 20
96.623242646222906
 30
0.0
  0
VERTEX
  5
138BC
  8
0
 10
341.53369411826111
 20
96.944267751445281
 30
0.0
  0
VERTEX
  5
138BD
  8
0
 10
341.52932016178943
 20
97.281464130850523
 30
0.0
  0
VERTEX
  5
138BE
  8
0
 10
341.4496559929101
 20
97.845656523481011
 30
0.0
  0
VERTEX
  5
138BF
  8
0
 10
341.3041414972393
 20
98.356041084974976
 30
0.0
  0
VERTEX
  5
138C0
  8
0
 10
341.21577039360972
 20
98.591159056872144
 30
0.0
  0
VERTEX
  5
138C1
  8
0
 10
341.1314924526958
 20
98.789894679561243
 30
0.0
  0
VERTEX
  5
138C2
  8
0
 10
341.06296317651851
 20
98.938773112371564
 30
0.0
  0
VERTEX
  5
138C3
  8
0
 10
341.01622987538559
 20
99.03521459177135
 30
0.0
  0
VERTEX
  5
138C4
  8
0
 10
341.00023441016651
 20
99.067406687885494
 30
0.0
  0
VERTEX
  5
138C5
  8
0
 10
341.00154338404519
 20
99.064778029918685
 30
0.0
  0
SEQEND
  5
138C6
  8
0
  0
LINE
  5
E78B
  8
0
 10
361.50000028312178
 20
114.9999996647238
 30
0.0
 11
328.50000046193583
 21
114.9999996647238
 31
0.0
  0
LINE
  5
E795
  8
0
 10
354.75000057369448
 20
124.9999994412064
 30
0.0
 11
335.25000017136318
 21
124.9999994412064
 31
0.0
  0
LINE
  5
E79D
  8
0
 10
336.00000075995888
 20
110.4999993927777
 30
0.0
 11
342.25000038743002
 21
110.4999993927777
 31
0.0
  0
LINE
  5
E79E
  8
0
 10
347.7500003576277
 20
110.4999993927777
 30
0.0
 11
353.99999998509873
 21
110.4999993927777
 31
0.0
  0
LINE
  5
E7A0
  8
0
 10
353.00000075250841
 20
109.4999996945262
 30
0.0
 11
336.99999999254919
 21
109.4999996945262
 31
0.0
  0
LINE
  5
E7CA
  8
0
 10
328.65798071026768
 20
122.6007001474499
 30
0.0
 11
361.3420200347897
 21
122.6007001474499
 31
0.0
  0
LINE
  5
E7CD
  8
0
 10
405.5000004637983
 20
43.30000020563601
 30
0.0
 11
405.8000005362552
 21
42.999999783933148
 31
0.0
  0
LINE
  5
E7CE
  8
0
 10
409.20000058133132
 20
42.999999783933148
 30
0.0
 11
409.50000065378811
 21
43.30000020563601
 31
0.0
  0
LINE
  5
E7CF
  8
0
 10
409.50000065378811
 20
43.30000020563601
 30
0.0
 11
409.50000065378811
 21
46.535898419097052
 31
0.0
  0
LINE
  5
E7D0
  8
0
 10
409.50000065378811
 20
53.464101580902927
 30
0.0
 11
409.50000065378811
 21
56.699999794363968
 31
0.0
  0
LINE
  5
E7D1
  8
0
 10
405.5000004637983
 20
56.699999794363968
 30
0.0
 11
405.5000004637983
 21
53.464101580902927
 31
0.0
  0
LINE
  5
E7D2
  8
0
 10
405.5000004637983
 20
46.535898419097052
 30
0.0
 11
405.5000004637983
 21
43.30000020563601
 31
0.0
  0
LINE
  5
E7D3
  8
0
 10
409.50000065378811
 20
56.699999794363968
 30
0.0
 11
409.20000058133132
 21
57.00000021606683
 31
0.0
  0
LINE
  5
E7D4
  8
0
 10
405.8000005362552
 20
57.00000021606683
 30
0.0
 11
405.5000004637983
 21
56.699999794363968
 31
0.0
  0
LINE
  5
E7D5
  8
0
 10
415.22168857221311
 20
39.12564439434918
 30
0.0
 11
413.77831289288957
 21
39.125644051559007
 31
0.0
  0
LINE
  5
E7D6
  8
0
 10
413.05662497905479
 20
37.875644731846549
 30
0.0
 11
413.77831289288957
 21
39.125644051559007
 31
0.0
  0
LINE
  5
E7D7
  8
0
 10
413.05662497905479
 20
37.875644731846549
 30
0.0
 11
413.77831304609072
 21
36.62564391685023
 31
0.0
  0
LINE
  5
E7D8
  8
0
 10
413.77831304609072
 20
36.62564391685023
 30
0.0
 11
415.22168872541403
 21
36.625644259640367
 31
0.0
  0
LINE
  5
E7D9
  8
0
 10
415.94337602895678
 20
37.875644423003003
 30
0.0
 11
415.22168872541403
 21
36.625644259640367
 31
0.0
  0
LINE
  5
E7DA
  8
0
 10
415.94337602895678
 20
37.875644423003003
 30
0.0
 11
415.22168857221311
 21
39.12564439434918
 31
0.0
  0
CIRCLE
  5
E7DB
  8
0
 10
414.50000055879349
 20
37.875644347017847
 30
0.0
 40
2.75
  0
LINE
  5
E7DC
  8
0
 10
413.0566250555446
 20
62.124355732735729
 30
0.0
 11
413.77831283223242
 21
60.874355756193111
 31
0.0
  0
LINE
  5
E7DD
  8
0
 10
415.22168851155578
 20
60.874355937816631
 30
0.0
 11
413.77831283223242
 21
60.874355756193111
 31
0.0
  0
LINE
  5
E7DE
  8
0
 10
415.22168851155578
 20
60.874355937816631
 30
0.0
 11
415.94337610544648
 21
62.12435510155899
 31
0.0
  0
LINE
  5
E7DF
  8
0
 10
415.94337610544648
 20
62.12435510155899
 30
0.0
 11
415.22168863750358
 21
63.374356072525472
 31
0.0
  0
LINE
  5
E7E0
  8
0
 10
413.77831295818009
 20
63.37435589090191
 30
0.0
 11
415.22168863750358
 21
63.374356072525472
 31
0.0
  0
LINE
  5
E7E1
  8
0
 10
413.77831295818009
 20
63.37435589090191
 30
0.0
 11
413.0566250555446
 21
62.124355732735729
 31
0.0
  0
CIRCLE
  5
E7E2
  8
0
 10
414.5000005587932
 20
62.124355652982203
 30
0.0
 40
2.749999999999996
  0
LINE
  5
E7E3
  8
0
 10
394.22168842739001
 20
48.750000062846972
 30
0.0
 11
394.94337631125143
 21
50.000000010855672
 31
0.0
  0
LINE
  5
E7E4
  8
0
 10
394.22168801386567
 20
51.249999892409697
 30
0.0
 11
394.94337631125143
 21
50.000000010855672
 31
0.0
  0
LINE
  5
E7E5
  8
0
 10
394.22168801386567
 20
51.249999892409697
 30
0.0
 11
392.77831275636731
 21
51.249999948008771
 31
0.0
  0
LINE
  5
E7E6
  8
0
 10
392.77831275636731
 20
51.249999948008771
 30
0.0
 11
392.05662487250601
 21
50.000000000000071
 31
0.0
  0
LINE
  5
E7E7
  8
0
 10
392.77831316989159
 20
48.750000118446017
 30
0.0
 11
392.05662487250601
 21
50.000000000000071
 31
0.0
  0
LINE
  5
E7E8
  8
0
 10
392.77831316989159
 20
48.750000118446017
 30
0.0
 11
394.22168842739001
 21
48.750000062846972
 31
0.0
  0
CIRCLE
  5
E7E9
  8
0
 10
393.50000055879349
 20
50.0
 30
0.0
 40
2.750000000000008
  0
ARC
  5
E7EA
  8
0
 10
409.00967447183672
 20
55.487018045464431
 30
0.0
 40
0.5000000000000068
 50
348.7109749693376
 51
11.289025030662341
  0
LINE
  5
E7EB
  8
0
 10
405.2096743881699
 20
56.68701808899641
 30
0.0
 11
405.5000004637983
 21
56.68701808899641
 31
0.0
  0
ARC
  5
E7EC
  8
0
 10
409.20967447183671
 20
55.687018045464413
 30
0.0
 40
1.0
 50
0.0
 51
73.122520622088871
  0
LINE
  5
E7ED
  8
0
 10
410.20967450924201
 20
55.68701792508363
 30
0.0
 11
410.20967450924201
 21
53.95851070061326
 31
0.0
  0
ARC
  5
E7EE
  8
0
 10
411.20967447183682
 20
53.958510901510117
 30
0.0
 40
1.0000000000000131
 50
180.0
 51
230.2380792522392
  0
ARC
  5
E7EF
  8
0
 10
407.5000005587932
 20
49.5
 30
0.0
 40
4.7999999999999954
 50
294.62431835216341
 51
50.23807925223938
  0
ARC
  5
E7F0
  8
0
 10
407.5000005587932
 20
49.5
 30
0.0
 40
4.800000000000006
 50
137.7068365951194
 51
245.37568164783659
  0
ARC
  5
E7F1
  8
0
 10
403.20967447183671
 20
53.40296067973793
 30
0.0
 40
1.0
 50
317.7068365951194
 51
0.0
  0
LINE
  5
E7F2
  8
0
 10
404.20967445708789
 20
53.402960719540708
 30
0.0
 11
404.20967445708789
 21
55.68701792508363
 31
0.0
  0
ARC
  5
E7F3
  8
0
 10
405.20967447183671
 20
55.687018045464413
 30
0.0
 40
1.0
 50
90.0
 51
180.0
  0
LINE
  5
E7F4
  8
0
 10
405.40967451408483
 20
55.987017881125212
 30
0.0
 11
405.5000004637983
 21
55.978791508823633
 31
0.0
  0
ARC
  5
E7F5
  8
0
 10
405.40967447183692
 20
55.487018045464431
 30
0.0
 40
0.5
 50
90.0
 51
280.40774938656278
  0
LINE
  5
E7F6
  8
0
 10
405.5000004637983
 20
43.30000020563601
 30
0.0
 11
409.50000065378811
 21
43.30000020563601
 31
0.0
  0
LINE
  5
E7F7
  8
0
 10
409.20000058133132
 20
42.999999783933148
 30
0.0
 11
405.8000005362552
 21
42.999999783933148
 31
0.0
  0
LINE
  5
E7F8
  8
0
 10
409.50000065378811
 20
56.699999794363968
 30
0.0
 11
405.5000004637983
 21
56.699999794363968
 31
0.0
  0
LINE
  5
E7F9
  8
0
 10
405.8000005362552
 20
57.00000021606683
 30
0.0
 11
409.20000058133132
 21
57.00000021606683
 31
0.0
  0
CIRCLE
  5
E7FA
  8
0
 10
407.5000005587932
 20
50.0
 30
0.0
 40
2.556624327025943
  0
CIRCLE
  5
E7FB
  8
0
 10
407.5000005587932
 20
50.0
 30
0.0
 40
4.0
  0
CIRCLE
  5
E7FC
  8
0
 10
407.5000005587932
 20
50.0
 30
0.0
 40
1.75
  0
CIRCLE
  5
E7FD
  8
0
 10
407.5000005587932
 20
50.0
 30
0.0
 40
7.9999999999999876
  0
CIRCLE
  5
E7FE
  8
0
 10
407.5000005587932
 20
50.0
 30
0.0
 40
8.9999999999999964
  0
CIRCLE
  5
E7FF
  8
0
 10
407.5000005587932
 20
50.0
 30
0.0
 40
7.5
  0
CIRCLE
  5
E805
  8
0
 10
407.5000005587932
 20
49.999999999999929
 30
0.0
 40
17.0
  0
CIRCLE
  5
E806
  8
0
 10
407.5000005587932
 20
50.0
 30
0.0
 40
1.299999999999994
  0
CIRCLE
  5
E807
  8
0
 10
407.5000005587932
 20
50.0
 30
0.0
 40
1.499999999999998
  0
CIRCLE
  5
E97D
  8
0
 10
182.5000001862644
 20
184.19157769531009
 30
0.0
 40
4.7497368348150673
  0
ARC
  5
E9A4
  8
0
 10
420.6671753345808
 20
185.79881643171331
 30
0.0
 40
1.818229507434886
 50
56.622297246135382
 51
101.3827273778703
  0
ARC
  5
E9A5
  8
0
 10
420.47639702709603
 20
185.7623616167657
 30
0.0
 40
1.826669530307816
 50
95.279216989034722
 51
136.09492552564541
  0
LINE
  5
E9AD
  8
0
 10
187.01093884184931
 20
196.4476281777024
 30
0.0
 11
185.6055332627146
 21
196.85303382575509
 31
0.0
  0
LINE
  5
E9AE
  8
0
 10
187.12204981595261
 20
196.8312622979283
 30
0.0
 11
187.01093884184931
 21
196.4476281777024
 31
0.0
  0
LINE
  5
E9AF
  8
0
 10
185.71664423681781
 20
197.236667945981
 30
0.0
 11
187.12204981595261
 21
196.8312622979283
 31
0.0
  0
LINE
  5
E9B0
  8
0
 10
186.02820586413131
 20
198.31699747592211
 30
0.0
 11
185.71664423681781
 21
197.236667945981
 31
0.0
  0
LINE
  5
E9B1
  8
0
 10
187.82400161027891
 20
197.79898002743721
 30
0.0
 11
186.02820586413131
 21
198.31699747592211
 31
0.0
  0
LINE
  5
E9B2
  8
0
 10
187.93511305004341
 20
198.18261321634051
 30
0.0
 11
187.82400161027891
 21
197.79898002743721
 31
0.0
  0
LINE
  5
E9B4
  8
0
 10
185.6055332627146
 20
196.85303382575509
 30
0.0
 11
185.35523452965111
 21
195.98442759298331
 31
0.0
  0
ARC
  5
E9B5
  8
0
 10
182.5000001862644
 20
184.19157769531009
 30
0.0
 40
9.7500000000000089
 50
285.41913746628802
 51
74.580862754091484
  0
ARC
  5
E9B6
  8
0
 10
182.5000001862644
 20
184.19157769531009
 30
0.0
 40
9.7500000000000036
 50
105.41913746628769
 51
254.58086275409141
  0
LINE
  5
E9BA
  8
0
 10
422.10094060748793
 20
181.0153036843985
 30
0.0
 11
422.02361289411738
 21
180.53557383827851
 31
0.0
  0
LINE
  5
E9BB
  8
0
 10
421.74908484346071
 20
181.07170578347811
 30
0.0
 11
422.10094060748793
 21
181.0153036843985
 31
0.0
  0
POLYLINE
  5
E9C1
  8
0
 66
     1
 10
0.0
 20
0.0
 30
0.0
 70
   128
  0
VERTEX
  5
138C7
  8
0
 10
193.4677447006105
 20
187.6496943645179
 30
0.0
  0
VERTEX
  5
138C8
  8
0
 10
194.06505774706591
 20
189.8788945749402
 30
0.0
  0
VERTEX
  5
138C9
  8
0
 10
194.6582366526124
 20
192.0926706865429
 30
0.0
  0
SEQEND
  5
138CA
  8
0
  0
LINE
  5
E9C2
  8
0
 10
194.6582366526124
 20
192.0926706865429
 30
0.0
 11
193.40048830956209
 21
191.27531638368961
 31
0.0
  0
ARC
  5
E9C3
  8
0
 10
182.5000001862644
 20
184.19157769531009
 30
0.0
 40
13.0
 50
33.018034190653701
 51
56.981965809341347
  0
LINE
  5
E9C4
  8
0
 10
189.5837388746439
 20
195.09206581860781
 30
0.0
 11
190.40109317749719
 21
196.34981416165829
 31
0.0
  0
POLYLINE
  5
E9C5
  8
0
 66
     1
 10
0.0
 20
0.0
 30
0.0
 70
   128
  0
VERTEX
  5
138CB
  8
0
 10
190.40109317749719
 20
196.34981416165829
 30
0.0
  0
VERTEX
  5
138CC
  8
0
 10
188.19009473547331
 20
195.75737938284871
 30
0.0
  0
VERTEX
  5
138CD
  8
0
 10
185.95811685547221
 20
195.15932220965621
 30
0.0
  0
SEQEND
  5
138CE
  8
0
  0
ARC
  5
E9C6
  8
0
 10
182.5000001862644
 20
184.19157769531009
 30
0.0
 40
11.5
 50
17.499999999999901
 51
72.500000000000128
  0
LINE
  5
E9C7
  8
0
 10
189.93303466588239
 20
183.19157764781249
 30
0.0
 11
191.8000002205369
 21
183.19157764781249
 31
0.0
  0
LINE
  5
E9C8
  8
0
 10
191.8000002205369
 20
183.19157764781249
 30
0.0
 11
191.8000002205369
 21
184.19157769531009
 31
0.0
  0
ARC
  5
E9C9
  8
0
 10
182.5000001862644
 20
184.19157769531009
 30
0.0
 40
9.3000000000000131
 50
0.0
 51
74.000597671373697
  0
LINE
  5
E9DC
  8
0
 10
171.24999973922951
 20
109.4999996945262
 30
0.0
 11
171.24999973922951
 21
112.4999992549419
 31
0.0
  0
LINE
  5
E9DD
  8
0
 10
165.7499997690318
 20
112.4999992549419
 30
0.0
 11
165.7499997690318
 21
109.4999996945262
 31
0.0
  0
LINE
  5
E9DE
  8
0
 10
169.9999999999998
 20
112.4999992549419
 30
0.0
 11
169.9999999999998
 21
114.9999996647238
 31
0.0
  0
LINE
  5
E9DF
  8
0
 10
167.00000043958411
 20
114.9999996647238
 30
0.0
 11
167.00000043958411
 21
112.4999992549419
 31
0.0
  0
LINE
  5
E9E0
  8
0
 10
192.25000038743011
 20
109.4999996945262
 30
0.0
 11
192.25000038743011
 21
112.4999992549419
 31
0.0
  0
LINE
  5
E9E1
  8
0
 10
186.7500004172324
 20
112.4999992549419
 30
0.0
 11
186.7500004172324
 21
109.4999996945262
 31
0.0
  0
LINE
  5
E9E2
  8
0
 10
191.0000006482004
 20
112.4999992549419
 30
0.0
 11
191.0000006482004
 21
114.9999996647238
 31
0.0
  0
LINE
  5
E9E3
  8
0
 10
188.00000015646211
 20
114.9999996647238
 30
0.0
 11
188.00000015646211
 21
112.4999992549419
 31
0.0
  0
LINE
  5
E9E4
  8
0
 10
175.8000003919004
 20
99.397008112519984
 30
0.0
 11
175.49999997019751
 21
99.097007923647766
 31
0.0
  0
LINE
  5
E9E5
  8
0
 10
175.49999997019751
 20
95.697007994987089
 30
0.0
 11
175.8000003919004
 21
95.397008038945501
 31
0.0
  0
LINE
  5
E9E6
  8
0
 10
175.8000003919004
 20
95.397008038945501
 30
0.0
 11
178.4999999962746
 21
95.397008038945501
 31
0.0
  0
LINE
  5
E9E7
  8
0
 10
186.50000037625421
 20
95.397008038945501
 30
0.0
 11
189.19999998062841
 21
95.397008038945501
 31
0.0
  0
LINE
  5
E9E8
  8
0
 10
189.19999998062841
 20
99.397008112519984
 30
0.0
 11
186.50000037625421
 21
99.397008112519984
 31
0.0
  0
LINE
  5
E9E9
  8
0
 10
178.4999999962746
 20
99.397008112519984
 30
0.0
 11
175.8000003919004
 21
99.397008112519984
 31
0.0
  0
LINE
  5
E9EA
  8
0
 10
189.19999998062841
 20
95.397008038945501
 30
0.0
 11
189.50000040233121
 21
95.697007994987089
 31
0.0
  0
LINE
  5
E9EB
  8
0
 10
189.50000040233121
 20
99.097007923647766
 30
0.0
 11
189.19999998062841
 21
99.397008112519984
 31
0.0
  0
LINE
  5
E9F0
  8
0
 10
186.50000037625421
 20
99.397008112519984
 30
0.0
 11
186.50000037625421
 21
109.4999996945262
 31
0.0
  0
LINE
  5
E9F1
  8
0
 10
186.50000037625421
 20
94.897008073404464
 30
0.0
 11
186.50000037625421
 21
95.397008038945501
 31
0.0
  0
LINE
  5
E9F2
  8
0
 10
178.4999999962746
 20
95.397008038945501
 30
0.0
 11
178.4999999962746
 21
94.897008073404464
 31
0.0
  0
LINE
  5
E9F3
  8
0
 10
178.4999999962746
 20
109.4999996945262
 30
0.0
 11
178.4999999962746
 21
99.397008112519984
 31
0.0
  0
LINE
  5
E9F4
  8
0
 10
178.4999999962746
 20
94.897008073404464
 30
0.0
 11
179.94337582960711
 21
92.397007896453133
 31
0.0
  0
LINE
  5
E9F5
  8
0
 10
185.05662454292161
 20
92.397007896453133
 30
0.0
 11
186.50000037625421
 21
94.897008073404464
 31
0.0
  0
LINE
  5
EA07
  8
0
 10
165.49999926239241
 20
115.4999997466802
 30
0.0
 11
166.00000027567131
 21
114.9999996647238
 31
0.0
  0
LINE
  5
EA08
  8
0
 10
199.00000009685741
 20
114.9999996647238
 30
0.0
 11
199.5000011101364
 21
115.4999997466802
 31
0.0
  0
ARC
  5
EA09
  8
0
 10
166.5000001862644
 20
121.661007823776
 30
0.0
 40
1.0
 50
110.0000000000006
 51
180.0
  0
ARC
  5
EA0A
  8
0
 10
198.5000001862644
 20
121.661007823776
 30
0.0
 40
1.0
 50
0.0
 51
69.999999999999332
  0
LINE
  5
EA0B
  8
0
 10
199.5000011101364
 20
115.4999997466802
 30
0.0
 11
199.5000011101364
 21
121.661008708179
 31
0.0
  0
LINE
  5
EA0C
  8
0
 10
165.49999926239241
 20
121.661008708179
 30
0.0
 11
165.49999926239241
 21
115.4999997466802
 31
0.0
  0
LINE
  5
EA0D
  8
0
 10
198.84201984852541
 20
122.6007001474499
 30
0.0
 11
192.25000038743011
 21
124.9999994412064
 31
0.0
  0
LINE
  5
EA0E
  8
0
 10
172.7499999850987
 20
124.9999994412064
 30
0.0
 11
166.15798052400339
 21
122.6007001474499
 31
0.0
  0
ARC
  5
EA0F
  8
0
 10
191.90000018626441
 20
114.5999995604157
 30
0.0
 40
0.4000000000000057
 50
90.0
 51
180.0
  0
ARC
  5
EA10
  8
0
 10
173.1000001862644
 20
114.5999995604157
 30
0.0
 40
0.4000000000000057
 50
0.0
 51
90.0
  0
LINE
  5
EA11
  8
0
 10
191.49999979883421
 20
112.4999992549419
 30
0.0
 11
191.49999979883421
 21
114.59999941289421
 31
0.0
  0
LINE
  5
EA12
  8
0
 10
173.50000057369459
 20
114.59999941289421
 30
0.0
 11
173.50000057369459
 21
110.4999993927777
 31
0.0
  0
LINE
  5
EA13
  8
0
 10
173.50000057369459
 20
110.4999993927777
 30
0.0
 11
174.49999980628479
 21
109.4999996945262
 31
0.0
  0
LINE
  5
EA15
  8
0
 10
171.24999973922951
 20
109.4999996945262
 30
0.0
 11
165.7499997690318
 21
109.4999996945262
 31
0.0
  0
LINE
  5
EA17
  8
0
 10
171.24999973922951
 20
112.4999992549419
 30
0.0
 11
165.7499997690318
 21
112.4999992549419
 31
0.0
  0
LINE
  5
EA1A
  8
0
 10
192.25000038743011
 20
112.4999992549419
 30
0.0
 11
186.7500004172324
 21
112.4999992549419
 31
0.0
  0
LINE
  5
EA1C
  8
0
 10
175.8000003919004
 20
99.397008112519984
 30
0.0
 11
175.8000003919004
 21
95.397008038945501
 31
0.0
  0
LINE
  5
EA1D
  8
0
 10
175.49999997019751
 20
99.087032993212333
 30
0.0
 11
175.49999997019751
 21
99.097007923647766
 31
0.0
  0
LINE
  5
EA1E
  8
0
 10
175.49999997019751
 20
95.697007994987089
 30
0.0
 11
175.49999997019751
 21
99.087032993212333
 31
0.0
  0
LINE
  5
EA1F
  8
0
 10
189.19999998062841
 20
99.385272749587884
 30
0.0
 11
189.19999998062841
 21
99.397008112519984
 31
0.0
  0
LINE
  5
EA20
  8
0
 10
189.19999998062841
 20
95.397008038945501
 30
0.0
 11
189.19999998062841
 21
99.385272749587884
 31
0.0
  0
LINE
  5
EA21
  8
0
 10
189.50000040233121
 20
99.097007923647766
 30
0.0
 11
189.50000040233121
 21
95.697007994987089
 31
0.0
  0
POLYLINE
  5
EA26
  8
0
 66
     1
 10
0.0
 20
0.0
 30
0.0
 70
   128
  0
VERTEX
  5
138CF
  8
0
 10
186.49672724306569
 20
99.39045090310276
 30
0.0
  0
VERTEX
  5
138D0
  8
0
 10
186.4982569403945
 20
99.393518912494187
 30
0.0
  0
VERTEX
  5
138D1
  8
0
 10
186.43657777458421
 20
99.266938903257241
 30
0.0
  0
VERTEX
  5
138D2
  8
0
 10
186.30482985638071
 20
98.970770641118278
 30
0.0
  0
VERTEX
  5
138D3
  8
0
 10
186.13226206973181
 20
98.489403064250951
 30
0.0
  0
VERTEX
  5
138D4
  8
0
 10
186.05262095108611
 20
98.185115764737134
 30
0.0
  0
VERTEX
  5
138D5
  8
0
 10
185.9925203770398
 20
97.841639924682696
 30
0.0
  0
VERTEX
  5
138D6
  8
0
 10
185.96630644053209
 20
97.520614779442553
 30
0.0
  0
VERTEX
  5
138D7
  8
0
 10
185.9706803970038
 20
97.183418425503191
 30
0.0
  0
VERTEX
  5
138D8
  8
0
 10
186.05034456588311
 20
96.619226047424604
 30
0.0
  0
VERTEX
  5
138D9
  8
0
 10
186.1958590615539
 20
96.108841456826781
 30
0.0
  0
VERTEX
  5
138DA
  8
0
 10
186.2842301651834
 20
95.873723543137316
 30
0.0
  0
VERTEX
  5
138DB
  8
0
 10
186.36850810609741
 20
95.674987920448217
 30
0.0
  0
VERTEX
  5
138DC
  8
0
 10
186.4370373822747
 20
95.526109487637882
 30
0.0
  0
VERTEX
  5
138DD
  8
0
 10
186.48377068340761
 20
95.429668008238082
 30
0.0
  0
VERTEX
  5
138DE
  8
0
 10
186.49976614862661
 20
95.397475795708601
 30
0.0
  0
VERTEX
  5
138DF
  8
0
 10
186.49845717474801
 20
95.400104570090775
 30
0.0
  0
SEQEND
  5
138E0
  8
0
  0
POLYLINE
  5
EA27
  8
0
 66
     1
 10
0.0
 20
0.0
 30
0.0
 70
   128
  0
VERTEX
  5
138E1
  8
0
 10
178.50327312946311
 20
95.403565015532081
 30
0.0
  0
VERTEX
  5
138E2
  8
0
 10
178.5017434321343
 20
95.400497122555961
 30
0.0
  0
VERTEX
  5
138E3
  8
0
 10
178.56342259794459
 20
95.527077131792907
 30
0.0
  0
VERTEX
  5
138E4
  8
0
 10
178.6951705161481
 20
95.823245277516577
 30
0.0
  0
VERTEX
  5
138E5
  8
0
 10
178.86773830279691
 20
96.304612912591566
 30
0.0
  0
VERTEX
  5
138E6
  8
0
 10
178.94737942144261
 20
96.608900241209241
 30
0.0
  0
VERTEX
  5
138E7
  8
0
 10
179.00747999548901
 20
96.952376095815566
 30
0.0
  0
VERTEX
  5
138E8
  8
0
 10
179.03369393199671
 20
97.273401197399977
 30
0.0
  0
VERTEX
  5
138E9
  8
0
 10
179.029319975525
 20
97.610597594995042
 30
0.0
  0
VERTEX
  5
138EA
  8
0
 10
178.94965580664561
 20
98.174789958521714
 30
0.0
  0
VERTEX
  5
138EB
  8
0
 10
178.80414131097481
 20
98.685174520015721
 30
0.0
  0
VERTEX
  5
138EC
  8
0
 10
178.71577020734529
 20
98.920292491912846
 30
0.0
  0
VERTEX
  5
138ED
  8
0
 10
178.63149226643131
 20
99.11902811460196
 30
0.0
  0
VERTEX
  5
138EE
  8
0
 10
178.56296299025399
 20
99.267906547412281
 30
0.0
  0
VERTEX
  5
138EF
  8
0
 10
178.5162296891211
 20
99.364348026812081
 30
0.0
  0
VERTEX
  5
138F0
  8
0
 10
178.50023422390211
 20
99.396540355756869
 30
0.0
  0
VERTEX
  5
138F1
  8
0
 10
178.50154319778071
 20
99.39391146495943
 30
0.0
  0
SEQEND
  5
138F2
  8
0
  0
LINE
  5
EA28
  8
0
 10
178.4999999962746
 20
94.897008073404464
 30
0.0
 11
186.50000037625421
 21
94.897008073404464
 31
0.0
  0
LINE
  5
EA29
  8
0
 10
185.05662454292161
 20
92.397007896453133
 30
0.0
 11
179.94337582960711
 21
92.397007896453133
 31
0.0
  0
LINE
  5
EA38
  8
0
 10
199.00000009685741
 20
114.9999996647238
 30
0.0
 11
166.00000027567131
 21
114.9999996647238
 31
0.0
  0
LINE
  5
EA3A
  8
0
 10
192.25000038743011
 20
124.9999994412064
 30
0.0
 11
172.7499999850987
 21
124.9999994412064
 31
0.0
  0
LINE
  5
EA3B
  8
0
 10
193.6692577600478
 20
124.3744561448693
 30
0.0
 11
196.6384771093725
 21
123.37644156068561
 31
0.0
  0
LINE
  5
EA3C
  8
0
 10
193.58892746269689
 20
124.35736265033481
 30
0.0
 11
193.6692577600478
 21
124.3744561448693
 31
0.0
  0
LINE
  5
EA3D
  8
0
 10
197.0236125215886
 20
123.0976352468133
 30
0.0
 11
193.58892746269689
 21
124.35736265033481
 31
0.0
  0
LINE
  5
EA3E
  8
0
 10
197.10094023495901
 20
123.1101112440228
 30
0.0
 11
197.0236125215886
 21
123.0976352468133
 31
0.0
  0
LINE
  5
EA3F
  8
0
 10
194.38922785222519
 20
124.10782407969231
 30
0.0
 11
197.10094023495901
 21
123.1101112440228
 31
0.0
  0
LINE
  5
EA40
  8
0
 10
197.3554446175693
 20
123.1110071763396
 30
0.0
 11
194.38922785222519
 21
124.10782407969231
 31
0.0
  0
LINE
  5
EA41
  8
0
 10
197.43877749890081
 20
123.0975775048136
 30
0.0
 11
197.3554446175693
 21
123.1110071763396
 31
0.0
  0
LINE
  5
EA42
  8
0
 10
194.00409337133161
 20
124.3573347106576
 30
0.0
 11
197.43877749890081
 21
123.0975775048136
 31
0.0
  0
LINE
  5
EA43
  8
0
 10
193.9267656579612
 20
124.3739103898406
 30
0.0
 11
194.00409337133161
 21
124.3573347106576
 31
0.0
  0
LINE
  5
EA44
  8
0
 10
196.6384771093725
 20
123.37644156068561
 30
0.0
 11
193.9267656579612
 21
124.3739103898406
 31
0.0
  0
LINE
  5
EA45
  8
0
 10
173.50000057369459
 20
110.4999993927777
 30
0.0
 11
186.7500004172324
 21
110.4999993927777
 31
0.0
  0
LINE
  5
EA46
  8
0
 10
192.25000038743011
 20
109.4999996945262
 30
0.0
 11
174.49999980628479
 21
109.4999996945262
 31
0.0
  0
LINE
  5
EA5D
  8
0
 10
166.15798052400339
 20
122.6007001474499
 30
0.0
 11
198.8420198485253
 21
122.6007001474499
 31
0.0
  0
LINE
  5
EA60
  8
0
 10
235.62564447522141
 20
109.4999996945262
 30
0.0
 11
235.62564447522141
 21
112.4999992549419
 31
0.0
  0
LINE
  5
EA61
  8
0
 10
230.1256445050237
 20
112.4999992549419
 30
0.0
 11
230.1256445050237
 21
109.4999996945262
 31
0.0
  0
LINE
  5
EA62
  8
0
 10
234.3756447359917
 20
112.4999992549419
 30
0.0
 11
234.3756447359917
 21
114.9999996647238
 31
0.0
  0
LINE
  5
EA63
  8
0
 10
231.37564517557601
 20
114.9999996647238
 30
0.0
 11
231.37564517557601
 21
112.4999992549419
 31
0.0
  0
LINE
  5
EA64
  8
0
 10
259.87435624003388
 20
109.4999996945262
 30
0.0
 11
259.87435624003388
 21
112.4999992549419
 31
0.0
  0
LINE
  5
EA65
  8
0
 10
254.3743562698362
 20
112.4999992549419
 30
0.0
 11
254.3743562698362
 21
109.4999996945262
 31
0.0
  0
LINE
  5
EA66
  8
0
 10
258.62435556948162
 20
112.4999992549419
 30
0.0
 11
258.62435556948162
 21
114.9999996647238
 31
0.0
  0
LINE
  5
EA67
  8
0
 10
255.62435600906591
 20
114.9999996647238
 30
0.0
 11
255.62435600906591
 21
112.4999992549419
 31
0.0
  0
LINE
  5
EA6C
  8
0
 10
249.00000056251861
 20
94.897008073404464
 30
0.0
 11
249.00000056251861
 21
109.4999996945262
 31
0.0
  0
LINE
  5
EA6D
  8
0
 10
241.000000182539
 20
109.4999996945262
 30
0.0
 11
241.000000182539
 21
94.897008073404464
 31
0.0
  0
LINE
  5
EA6E
  8
0
 10
241.000000182539
 20
94.897008073404464
 30
0.0
 11
242.44337601587159
 21
92.397007896453133
 31
0.0
  0
LINE
  5
EA6F
  8
0
 10
247.5566247291861
 20
92.397007896453133
 30
0.0
 11
249.00000056251861
 21
94.897008073404464
 31
0.0
  0
LINE
  5
EA7E
  8
0
 10
227.99999944865681
 20
115.4999997466802
 30
0.0
 11
228.5000004619358
 21
114.9999996647238
 31
0.0
  0
LINE
  5
EA7F
  8
0
 10
261.50000028312189
 20
114.9999996647238
 30
0.0
 11
262.0000012964008
 21
115.4999997466802
 31
0.0
  0
ARC
  5
EA80
  8
0
 10
229.0000003725288
 20
121.661007823776
 30
0.0
 40
1.0
 50
110.0000000000006
 51
180.0
  0
ARC
  5
EA81
  8
0
 10
261.0000003725288
 20
121.661007823776
 30
0.0
 40
1.0
 50
0.0
 51
69.999999999999318
  0
LINE
  5
EA82
  8
0
 10
262.0000012964008
 20
115.4999997466802
 30
0.0
 11
262.0000012964008
 21
121.661008708179
 31
0.0
  0
LINE
  5
EA83
  8
0
 10
227.99999944865681
 20
121.661008708179
 30
0.0
 11
227.99999944865681
 21
115.4999997466802
 31
0.0
  0
LINE
  5
EA84
  8
0
 10
261.34202003478981
 20
122.6007001474499
 30
0.0
 11
254.75000057369451
 21
124.9999994412064
 31
0.0
  0
LINE
  5
EA87
  8
0
 10
235.2500001713631
 20
124.9999994412064
 30
0.0
 11
228.65798071026779
 21
122.6007001474499
 31
0.0
  0
ARC
  5
EA8A
  8
0
 10
254.40000037252881
 20
114.5999995604157
 30
0.0
 40
0.4000000000000057
 50
90.0
 51
180.0
  0
ARC
  5
EA8B
  8
0
 10
235.6000003725288
 20
114.5999995604157
 30
0.0
 40
0.4000000000000057
 50
0.0
 51
90.0
  0
LINE
  5
EA8C
  8
0
 10
236.00000075995899
 20
110.4999993927777
 30
0.0
 11
236.99999999254919
 21
109.4999996945262
 31
0.0
  0
LINE
  5
EA8D
  8
0
 10
253.00000075250841
 20
109.4999996945262
 30
0.0
 11
253.99999998509861
 21
110.4999993927777
 31
0.0
  0
LINE
  5
EA8E
  8
0
 10
253.99999998509861
 20
110.4999993927777
 30
0.0
 11
253.99999998509861
 21
114.59999941289421
 31
0.0
  0
LINE
  5
EA8F
  8
0
 10
236.00000075995899
 20
114.59999941289421
 30
0.0
 11
236.00000075995899
 21
110.4999993927777
 31
0.0
  0
LINE
  5
EA93
  8
0
 10
235.62564447522141
 20
109.4999996945262
 30
0.0
 11
230.1256445050237
 21
109.4999996945262
 31
0.0
  0
LINE
  5
EA95
  8
0
 10
235.62564447522141
 20
112.4999992549419
 30
0.0
 11
230.1256445050237
 21
112.4999992549419
 31
0.0
  0
LINE
  5
EA96
  8
0
 10
259.87435624003388
 20
109.4999996945262
 30
0.0
 11
254.3743562698362
 21
109.4999996945262
 31
0.0
  0
LINE
  5
EA97
  8
0
 10
259.87435624003388
 20
112.4999992549419
 30
0.0
 11
254.3743562698362
 21
112.4999992549419
 31
0.0
  0
CIRCLE
  5
EA98
  8
0
 10
245.0000003725288
 20
97.397007998526078
 30
0.0
 40
1.6999999999999951
  0
CIRCLE
  5
EA99
  8
0
 10
245.0000003725288
 20
97.397007998526078
 30
0.0
 40
1.999999999999996
  0
LINE
  5
EA9C
  8
0
 10
241.000000182539
 20
94.897008073404464
 30
0.0
 11
249.00000056251861
 21
94.897008073404464
 31
0.0
  0
LINE
  5
EA9D
  8
0
 10
247.5566247291861
 20
92.397007896453133
 30
0.0
 11
242.44337601587159
 21
92.397007896453133
 31
0.0
  0
LINE
  5
EAE1
  8
0
 10
261.50000028312189
 20
114.9999996647238
 30
0.0
 11
228.5000004619358
 21
114.9999996647238
 31
0.0
  0
POLYLINE
  5
EAE3
  8
0
 66
     1
 10
0.0
 20
0.0
 30
0.0
 70
   128
  0
VERTEX
  5
138F3
  8
0
 10
245.3769426199139
 20
123.72505608946079
 30
0.0
  0
VERTEX
  5
138F4
  8
0
 10
245.34963775542531
 20
123.88097997754809
 30
0.0
  0
VERTEX
  5
138F5
  8
0
 10
245.38315698620821
 20
123.9978162571788
 30
0.0
  0
VERTEX
  5
138F6
  8
0
 10
245.4800097318363
 20
124.1133579984307
 30
0.0
  0
VERTEX
  5
138F7
  8
0
 10
245.66598163684799
 20
124.2284489795565
 30
0.0
  0
SEQEND
  5
138F8
  8
0
  0
ARC
  5
EAE4
  8
0
 10
246.2192277816709
 20
124.2182528106666
 30
0.0
 40
0.9760570165333991
 50
210.35093646770599
 51
260.17168355800391
  0
ARC
  5
EAE5
  8
0
 10
247.08803272159199
 20
126.9698357497448
 30
0.0
 40
3.854969703700629
 50
254.4194937621711
 51
270.74570623972971
  0
ARC
  5
EAE6
  8
0
 10
247.24783830797401
 20
125.70664109951829
 30
0.0
 40
2.5937666339634151
 50
267.57747527074292
 51
289.2134587266367
  0
POLYLINE
  5
EAE7
  8
0
 66
     1
 10
0.0
 20
0.0
 30
0.0
 70
   128
  0
VERTEX
  5
138F9
  8
0
 10
248.38970534503429
 20
123.72636739164579
 30
0.0
  0
VERTEX
  5
138FA
  8
0
 10
248.4177919384089
 20
123.5740067437291
 30
0.0
  0
VERTEX
  5
138FB
  8
0
 10
248.3827632665631
 20
123.4617022797465
 30
0.0
  0
VERTEX
  5
138FC
  8
0
 10
248.28304120339411
 20
123.3544753864407
 30
0.0
  0
VERTEX
  5
138FD
  8
0
 10
248.1014170031992
 20
123.2573496177792
 30
0.0
  0
SEQEND
  5
138FE
  8
0
  0
ARC
  5
EAE8
  8
0
 10
247.4801689737703
 20
123.2104627100931
 30
0.0
 40
1.0456644065378831
 50
29.562653283898179
 51
77.034399504637065
  0
ARC
  5
EAE9
  8
0
 10
246.66108841471569
 20
121.0696960881161
 30
0.0
 40
3.3308294225971951
 50
71.557954659539945
 51
90.561545450140073
  0
ARC
  5
EAEA
  8
0
 10
246.54335244819941
 20
122.0966483753993
 30
0.0
 40
2.3052881287372089
 50
87.884646383266187
 51
112.3702657172902
  0
LINE
  5
EAEB
  8
0
 10
257.25605085492111
 20
123.795316927135
 30
0.0
 11
257.66145650297381
 21
123.80372118204831
 31
0.0
  0
LINE
  5
EAEC
  8
0
 10
257.63968497514702
 20
123.6503006890416
 30
0.0
 11
257.25605085492111
 21
123.795316927135
 31
0.0
  0
LINE
  5
EAED
  8
0
 10
258.04509062319971
 20
123.6584721133113
 30
0.0
 11
257.63968497514702
 21
123.6503006890416
 31
0.0
  0
LINE
  5
EAEE
  8
0
 10
259.12542015314091
 20
123.2495265081525
 30
0.0
 11
258.04509062319971
 21
123.6584721133113
 31
0.0
  0
LINE
  5
EAEF
  8
0
 10
258.6074027046559
 20
123.23042880743741
 30
0.0
 11
259.12542015314091
 21
123.2495265081525
 31
0.0
  0
LINE
  5
EAF0
  8
0
 10
258.99103589355917
 20
123.08564353734251
 30
0.0
 11
258.6074027046559
 21
123.23042880743741
 31
0.0
  0
LINE
  5
EAF1
  8
0
 10
259.64794334024168
 20
123.0946755036711
 30
0.0
 11
258.99103589355917
 21
123.08564353734251
 31
0.0
  0
LINE
  5
EAF2
  8
0
 10
256.3101055845616
 20
124.3552653118968
 30
0.0
 11
259.64794334024168
 21
123.0946755036711
 31
0.0
  0
LINE
  5
EAF3
  8
0
 10
256.17121651768662
 20
124.3676817044615
 30
0.0
 11
256.3101055845616
 21
124.3552653118968
 31
0.0
  0
LINE
  5
EAF4
  8
0
 10
257.66145650297381
 20
123.80372118204831
 30
0.0
 11
256.17121651768662
 21
124.3676817044615
 31
0.0
  0
LINE
  5
EAF5
  8
0
 10
254.75000057369451
 20
124.9999994412064
 30
0.0
 11
235.2500001713631
 21
124.9999994412064
 31
0.0
  0
LINE
  5
EAF6
  8
0
 10
257.99772914499022
 20
123.79135135561231
 30
0.0
 11
258.04819664819388
 21
123.7995540300665
 31
0.0
  0
LINE
  5
EAF7
  8
0
 10
258.38136326521612
 20
123.6519994214177
 30
0.0
 11
257.99772914499022
 21
123.79135135561231
 31
0.0
  0
LINE
  5
EAF8
  8
0
 10
258.4317804423477
 20
123.6599409218466
 30
0.0
 11
258.38136326521612
 21
123.6519994214177
 31
0.0
  0
LINE
  5
EAF9
  8
0
 10
259.50373549014307
 20
123.2275845482945
 30
0.0
 11
259.56831366041422
 21
123.2462765867318
 31
0.0
  0
LINE
  5
EAFA
  8
0
 10
259.8873686790464
 20
123.08842819184061
 30
0.0
 11
259.50373549014307
 21
123.2275845482945
 31
0.0
  0
LINE
  5
EAFB
  8
0
 10
259.97545218193108
 20
123.0980902573525
 30
0.0
 11
259.8873686790464
 21
123.08842819184061
 31
0.0
  0
LINE
  5
EAFE
  8
0
 10
242.39654911681981
 20
124.3744561448693
 30
0.0
 11
243.56922172475589
 21
123.37644156068561
 31
0.0
  0
LINE
  5
EAFF
  8
0
 10
241.89429686404739
 20
124.35736265033481
 30
0.0
 11
242.39654911681981
 21
124.3744561448693
 31
0.0
  0
LINE
  5
EB00
  8
0
 10
241.34399651549731
 20
123.0976352468133
 30
0.0
 11
241.89429686404739
 21
124.35736265033481
 31
0.0
  0
LINE
  5
EB01
  8
0
 10
241.8237263616171
 20
123.1101112440228
 30
0.0
 11
241.34399651549731
 21
123.0976352468133
 31
0.0
  0
LINE
  5
EB02
  8
0
 10
242.25841092877059
 20
124.10782407969231
 30
0.0
 11
241.8237263616171
 21
123.1101112440228
 31
0.0
  0
LINE
  5
EB03
  8
0
 10
243.4130655881014
 20
123.1110071763396
 30
0.0
 11
242.25841092877059
 21
124.10782407969231
 31
0.0
  0
LINE
  5
EB04
  8
0
 10
243.93258514348389
 20
123.0975775048136
 30
0.0
 11
243.4130655881014
 21
123.1110071763396
 31
0.0
  0
LINE
  5
EB05
  8
0
 10
244.48288543382631
 20
124.3573347106576
 30
0.0
 11
243.93258514348389
 21
123.0975775048136
 31
0.0
  0
LINE
  5
EB06
  8
0
 10
244.00315576232941
 20
124.3739103898406
 30
0.0
 11
244.48288543382631
 21
124.3573347106576
 31
0.0
  0
LINE
  5
EB07
  8
0
 10
243.56922172475589
 20
123.37644156068561
 30
0.0
 11
244.00315576232941
 21
124.3739103898406
 31
0.0
  0
POLYLINE
  5
EB08
  8
0
 66
     1
 10
0.0
 20
0.0
 30
0.0
 70
   128
  0
VERTEX
  5
138FF
  8
0
 10
248.45811704173661
 20
124.3630511686206
 30
0.0
  0
VERTEX
  5
13900
  8
0
 10
250.68731725215881
 20
123.8579241558909
 30
0.0
  0
VERTEX
  5
13901
  8
0
 10
252.90109336376159
 20
123.2711406424641
 30
0.0
  0
SEQEND
  5
13902
  8
0
  0
LINE
  5
EB09
  8
0
 10
252.90109336376159
 20
123.2711406424641
 30
0.0
 11
252.0837390609083
 21
123.81709683686491
 31
0.0
  0
LINE
  5
EB0A
  8
0
 10
252.0837390609083
 20
123.81709683686491
 30
0.0
 11
255.90048849582649
 21
123.81709683686491
 31
0.0
  0
LINE
  5
EB0B
  8
0
 10
255.90048849582649
 20
123.81709683686491
 30
0.0
 11
257.15823683887697
 21
123.2711406424641
 31
0.0
  0
POLYLINE
  5
EB0C
  8
0
 66
     1
 10
0.0
 20
0.0
 30
0.0
 70
   128
  0
VERTEX
  5
13903
  8
0
 10
257.15823683887697
 20
123.2711406424641
 30
0.0
  0
VERTEX
  5
13904
  8
0
 10
256.56580206006743
 20
123.8572349771857
 30
0.0
  0
VERTEX
  5
13905
  8
0
 10
255.9677448868749
 20
124.3630511686206
 30
0.0
  0
SEQEND
  5
13906
  8
0
  0
LINE
  5
EB0D
  8
0
 10
255.9677448868749
 20
124.3630511686206
 30
0.0
 11
248.45811704173661
 21
124.3630511686206
 31
0.0
  0
ARC
  5
EB1E
  8
0
 10
246.5040387874933
 20
124.06608915845381
 30
0.0
 40
0.7217143160373424
 50
206.63716208226629
 51
258.15705948810268
  0
POLYLINE
  5
EB1F
  8
0
 66
     1
 10
0.0
 20
0.0
 30
0.0
 70
   128
  0
VERTEX
  5
13907
  8
0
 10
246.0451107751575
 20
124.1417502984404
 30
0.0
  0
VERTEX
  5
13908
  8
0
 10
245.86056338623149
 20
123.9900900050997
 30
0.0
  0
VERTEX
  5
13909
  8
0
 10
245.8311096113172
 20
123.8687237724662
 30
0.0
  0
VERTEX
  5
1390A
  8
0
 10
245.85892460774599
 20
123.7425165250897
 30
0.0
  0
SEQEND
  5
1390B
  8
0
  0
ARC
  5
EB20
  8
0
 10
246.64281619302761
 20
122.6986494992491
 30
0.0
 40
1.5619832531681981
 50
88.489155307625253
 51
112.49842398081179
  0
ARC
  5
EB21
  8
0
 10
246.69227912311209
 20
122.0092594731573
 30
0.0
 40
2.2508454869883789
 50
71.38605872881061
 51
90.210755282944433
  0
ARC
  5
EB22
  8
0
 10
247.2312633363924
 20
123.40971779166711
 30
0.0
 40
0.754306863070778
 50
26.259834211907378
 51
76.236325721264123
  0
POLYLINE
  5
EB23
  8
0
 66
     1
 10
0.0
 20
0.0
 30
0.0
 70
   128
  0
VERTEX
  5
1390C
  8
0
 10
247.72153727710219
 20
123.3602365478873
 30
0.0
  0
VERTEX
  5
1390D
  8
0
 10
247.90543669834699
 20
123.49888812750579
 30
0.0
  0
VERTEX
  5
1390E
  8
0
 10
247.93525857850881
 20
123.6014341935515
 30
0.0
  0
VERTEX
  5
1390F
  8
0
 10
247.9077233280984
 20
123.7434552982449
 30
0.0
  0
SEQEND
  5
13910
  8
0
  0
ARC
  5
EB24
  8
0
 10
247.12783833183519
 20
124.9803194933702
 30
0.0
 40
1.7254411574596831
 50
268.49922978633458
 51
290.1259693302955
  0
ARC
  5
EB25
  8
0
 10
247.07064825097839
 20
125.7565540281084
 30
0.0
 40
2.5011126071671721
 50
253.39550990274921
 51
270.2749009779547
  0
LINE
  5
EB36
  8
0
 10
253.00000075250841
 20
109.4999996945262
 30
0.0
 11
236.99999999254919
 21
109.4999996945262
 31
0.0
  0
LINE
  5
EB37
  8
0
 10
236.00000075995899
 20
110.4999993927777
 30
0.0
 11
253.99999998509861
 21
110.4999993927777
 31
0.0
  0
LINE
  5
EB48
  8
0
 10
228.65798071026779
 20
122.6007001474499
 30
0.0
 11
261.34202003478981
 21
122.6007001474499
 31
0.0
  0
LINE
  5
EB4A
  8
0
 10
122.7499999850987
 20
109.4999996945262
 30
0.0
 11
122.7499999850987
 21
112.4999992549419
 31
0.0
  0
LINE
  5
EB4B
  8
0
 10
117.250000014901
 20
112.4999992549419
 30
0.0
 11
117.250000014901
 21
109.4999996945262
 31
0.0
  0
LINE
  5
EB4C
  8
0
 10
121.5000000130384
 20
112.4999992549419
 30
0.0
 11
121.5000000130384
 21
114.9999996647238
 31
0.0
  0
LINE
  5
EB4D
  8
0
 10
118.4999999869613
 20
114.9999996647238
 30
0.0
 11
118.4999999869613
 21
112.4999992549419
 31
0.0
  0
LINE
  5
EB4E
  8
0
 10
134.87435586750479
 20
109.4999996945262
 30
0.0
 11
134.87435586750479
 21
112.4999992549419
 31
0.0
  0
LINE
  5
EB4F
  8
0
 10
129.37435589730711
 20
112.4999992549419
 30
0.0
 11
129.37435589730711
 21
109.4999996945262
 31
0.0
  0
LINE
  5
EB50
  8
0
 10
133.62435519695259
 20
112.4999992549419
 30
0.0
 11
133.62435519695259
 21
114.9999996647238
 31
0.0
  0
LINE
  5
EB51
  8
0
 10
130.62435563653679
 20
114.9999996647238
 30
0.0
 11
130.62435563653679
 21
112.4999992549419
 31
0.0
  0
LINE
  5
EB52
  8
0
 10
110.62564410269241
 20
109.4999996945262
 30
0.0
 11
110.62564410269241
 21
112.4999992549419
 31
0.0
  0
LINE
  5
EB53
  8
0
 10
105.1256441324947
 20
112.4999992549419
 30
0.0
 11
105.1256441324947
 21
109.4999996945262
 31
0.0
  0
LINE
  5
EB54
  8
0
 10
109.3756443634627
 20
112.4999992549419
 30
0.0
 11
109.3756443634627
 21
114.9999996647238
 31
0.0
  0
LINE
  5
EB55
  8
0
 10
106.3756448030469
 20
114.9999996647238
 30
0.0
 11
106.3756448030469
 21
112.4999992549419
 31
0.0
  0
LINE
  5
EB5A
  8
0
 10
124.00000018998961
 20
94.897008073404464
 30
0.0
 11
124.00000018998961
 21
109.4999996945262
 31
0.0
  0
LINE
  5
EB5B
  8
0
 10
115.99999981001
 20
109.4999996945262
 30
0.0
 11
115.99999981001
 21
94.897008073404464
 31
0.0
  0
LINE
  5
EB5C
  8
0
 10
115.99999981001
 20
94.897008073404464
 30
0.0
 11
117.44337564334251
 21
92.397007896453133
 31
0.0
  0
LINE
  5
EB5D
  8
0
 10
122.5566243566571
 20
92.397007896453133
 30
0.0
 11
124.00000018998961
 21
94.897008073404464
 31
0.0
  0
LINE
  5
EB6C
  8
0
 10
102.99999907612781
 20
115.4999997466802
 30
0.0
 11
103.5000000894068
 21
114.9999996647238
 31
0.0
  0
LINE
  5
EB6D
  8
0
 10
136.49999991059281
 20
114.9999996647238
 30
0.0
 11
137.0000009238718
 21
115.4999997466802
 31
0.0
  0
LINE
  5
EB6E
  8
0
 10
137.0000009238718
 20
115.4999997466802
 30
0.0
 11
137.0000009238718
 21
121.661008708179
 31
0.0
  0
LINE
  5
EB6F
  8
0
 10
102.99999907612781
 20
121.661008708179
 30
0.0
 11
102.99999907612781
 21
115.4999997466802
 31
0.0
  0
ARC
  5
EB70
  8
0
 10
103.9999999999998
 20
121.661007823776
 30
0.0
 40
1.0000000000000031
 50
110.0000000000006
 51
180.0
  0
ARC
  5
EB71
  8
0
 10
135.9999999999998
 20
121.661007823776
 30
0.0
 40
1.0000000000000071
 50
0.0
 51
69.999999999999318
  0
LINE
  5
EB72
  8
0
 10
136.34201966226081
 20
122.6007001474499
 30
0.0
 11
129.75000020116551
 21
124.9999994412064
 31
0.0
  0
LINE
  5
EB75
  8
0
 10
110.2499997988341
 20
124.9999994412064
 30
0.0
 11
103.65797986246319
 21
122.60070044666899
 31
0.0
  0
ARC
  5
EB76
  8
0
 10
129.39999999999981
 20
114.5999995604157
 30
0.0
 40
0.4000000000000057
 50
90.0
 51
180.0
  0
ARC
  5
EB77
  8
0
 10
110.5999999999998
 20
114.5999995604157
 30
0.0
 40
0.4000000000000057
 50
0.0
 51
90.0
  0
LINE
  5
EB78
  8
0
 10
111.00000038743001
 20
110.4999993927777
 30
0.0
 11
111.9999996200202
 21
109.4999996945262
 31
0.0
  0
LINE
  5
EB79
  8
0
 10
128.00000037997941
 20
109.4999996945262
 30
0.0
 11
128.99999961256961
 21
110.4999993927777
 31
0.0
  0
LINE
  5
EB7A
  8
0
 10
128.99999961256961
 20
110.4999993927777
 30
0.0
 11
128.99999961256961
 21
114.59999941289421
 31
0.0
  0
LINE
  5
EB7B
  8
0
 10
111.00000038743001
 20
114.59999941289421
 30
0.0
 11
111.00000038743001
 21
110.4999993927777
 31
0.0
  0
LINE
  5
EB80
  8
0
 10
122.7499999850987
 20
112.4999992549419
 30
0.0
 11
117.250000014901
 21
112.4999992549419
 31
0.0
  0
LINE
  5
EB82
  8
0
 10
134.87435586750479
 20
109.4999996945262
 30
0.0
 11
129.37435589730711
 21
109.4999996945262
 31
0.0
  0
LINE
  5
EB83
  8
0
 10
134.87435586750479
 20
112.4999992549419
 30
0.0
 11
129.37435589730711
 21
112.4999992549419
 31
0.0
  0
LINE
  5
EB85
  8
0
 10
110.62564410269241
 20
109.4999996945262
 30
0.0
 11
105.1256441324947
 21
109.4999996945262
 31
0.0
  0
LINE
  5
EB87
  8
0
 10
110.62564410269241
 20
112.4999992549419
 30
0.0
 11
105.1256441324947
 21
112.4999992549419
 31
0.0
  0
CIRCLE
  5
EB88
  8
0
 10
119.9999999999998
 20
97.397007998526078
 30
0.0
 40
1.999999999999992
  0
CIRCLE
  5
EB89
  8
0
 10
119.9999999999998
 20
97.397007998526078
 30
0.0
 40
1.6999999999999951
  0
LINE
  5
EB8C
  8
0
 10
115.99999981001
 20
94.897008073404464
 30
0.0
 11
124.00000018998961
 21
94.897008073404464
 31
0.0
  0
LINE
  5
EB8D
  8
0
 10
122.5566243566571
 20
92.397007896453133
 30
0.0
 11
117.44337564334251
 21
92.397007896453133
 31
0.0
  0
LINE
  5
EBD1
  8
0
 10
136.49999991059281
 20
114.9999996647238
 30
0.0
 11
103.5000000894068
 21
114.9999996647238
 31
0.0
  0
ARC
  5
EBD3
  8
0
 10
120.2604848088865
 20
88.213415231113572
 30
0.0
 40
37.955929923951061
 50
108.3988238254814
 51
110.67170834560361
  0
ARC
  5
EBD4
  8
0
 10
113.5095321129938
 20
105.2665018186879
 30
0.0
 40
19.619812372898881
 50
109.8062249785919
 51
113.5223895402867
  0
POLYLINE
  5
EBD5
  8
0
 66
     1
 10
0.0
 20
0.0
 30
0.0
 70
   128
  0
VERTEX
  5
13911
  8
0
 10
105.51845923066119
 20
123.1145909056067
 30
0.0
  0
VERTEX
  5
13912
  8
0
 10
105.4729808866976
 20
123.1227846816182
 30
0.0
  0
VERTEX
  5
13913
  8
0
 10
105.5162166059015
 20
123.17201998084779
 30
0.0
  0
VERTEX
  5
13914
  8
0
 10
105.679119825363
 20
123.2559898868203
 30
0.0
  0
SEQEND
  5
13915
  8
0
  0
ARC
  5
EBD6
  8
0
 10
105.1046856685381
 20
126.69254963282761
 30
0.0
 40
3.6018047163065501
 50
276.59667544054071
 51
287.44340067809168
  0
ARC
  5
EBD7
  8
0
 10
101.38235543433611
 20
140.1511613041132
 30
0.0
 40
17.563970462431762
 50
285.86679038197701
 51
290.74627310502569
  0
ARC
  5
EBD8
  8
0
 10
104.2553225819606
 20
133.22389886776421
 30
0.0
 40
10.07088391674379
 50
289.42150807513991
 51
296.73416438892411
  0
POLYLINE
  5
EBD9
  8
0
 66
     1
 10
0.0
 20
0.0
 30
0.0
 70
   128
  0
VERTEX
  5
13916
  8
0
 10
108.9471372589467
 20
124.4012838229537
 30
0.0
  0
VERTEX
  5
13917
  8
0
 10
108.9918714761732
 20
124.39045999199151
 30
0.0
  0
VERTEX
  5
13918
  8
0
 10
108.9485128223894
 20
124.3294024839997
 30
0.0
  0
VERTEX
  5
13919
  8
0
 10
108.7857260182498
 20
124.2295591160655
 30
0.0
  0
SEQEND
  5
1391A
  8
0
  0
ARC
  5
EBDA
  8
0
 10
109.4027794595592
 20
121.2598556582244
 30
0.0
 40
3.1743000376670949
 50
98.252800830510992
 51
110.70526459496099
  0
LINE
  5
EBDB
  8
0
 10
129.75000020116551
 20
124.9999994412064
 30
0.0
 11
110.2499997988341
 21
124.9999994412064
 31
0.0
  0
LINE
  5
EBE4
  8
0
 10
128.00000037997941
 20
109.4999996945262
 30
0.0
 11
111.9999996200202
 21
109.4999996945262
 31
0.0
  0
LINE
  5
EBE5
  8
0
 10
111.00000038743001
 20
110.4999993927777
 30
0.0
 11
117.250000014901
 21
110.4999993927777
 31
0.0
  0
LINE
  5
EBE6
  8
0
 10
122.7499999850987
 20
110.4999993927777
 30
0.0
 11
128.99999961256961
 21
110.4999993927777
 31
0.0
  0
ARC
  5
EBF1
  8
0
 10
112.112399768133
 20
109.48272205902551
 30
0.0
 40
15.155560690919421
 50
109.7938352824852
 51
113.7059697904389
  0
ARC
  5
EBF2
  8
0
 10
116.6192668813669
 20
98.316889274528364
 30
0.0
 40
27.191756953193359
 50
108.2394470600031
 51
110.76194306125061
  0
ARC
  5
EBF3
  8
0
 10
108.8772394529815
 20
122.0990972973463
 30
0.0
 40
2.183152468759133
 50
98.003709158186041
 51
110.6158761398561
  0
POLYLINE
  5
EBF4
  8
0
 66
     1
 10
0.0
 20
0.0
 30
0.0
 70
   128
  0
VERTEX
  5
1391B
  8
0
 10
108.445635885
 20
124.1428120061755
 30
0.0
  0
VERTEX
  5
1391C
  8
0
 10
108.5856565088032
 20
124.22885876148941
 30
0.0
  0
VERTEX
  5
1391D
  8
0
 10
108.60069643706061
 20
124.2524361237883
 30
0.0
  0
VERTEX
  5
1391E
  8
0
 10
108.5732633993028
 20
124.26098380237811
 30
0.0
  0
SEQEND
  5
1391F
  8
0
  0
ARC
  5
EBF5
  8
0
 10
104.31313727935451
 20
132.7203578264548
 30
0.0
 40
9.521125827582221
 50
289.46215514399478
 51
295.72388365287497
  0
ARC
  5
EBF6
  8
0
 10
101.7330559347331
 20
138.82799888456771
 30
0.0
 40
16.144328310011719
 50
286.64071801050397
 51
290.87369182671478
  0
ARC
  5
EBF7
  8
0
 10
105.623449902473
 20
125.5261454898727
 30
0.0
 40
2.286938965859223
 50
276.77101515952643
 51
288.69006399020373
  0
POLYLINE
  5
EBF8
  8
0
 66
     1
 10
0.0
 20
0.0
 30
0.0
 70
   128
  0
VERTEX
  5
13920
  8
0
 10
106.01920995861271
 20
123.35946727544069
 30
0.0
  0
VERTEX
  5
13921
  8
0
 10
105.8793672174213
 20
123.28260149806739
 30
0.0
  0
VERTEX
  5
13922
  8
0
 10
105.864996910095
 20
123.262214846909
 30
0.0
  0
VERTEX
  5
13923
  8
0
 10
105.8930837363003
 20
123.2551572844386
 30
0.0
  0
SEQEND
  5
13924
  8
0
  0
LINE
  5
EC0B
  8
0
 10
103.65798033773881
 20
122.6007001474499
 30
0.0
 11
136.34201966226081
 21
122.6007001474499
 31
0.0
  0
LINE
  5
EC0E
  8
0
 10
189.19999998062841
 20
47.999999905005083
 30
0.0
 11
189.50000040233121
 21
48.299999977461987
 31
0.0
  0
LINE
  5
EC0F
  8
0
 10
189.50000040233121
 20
51.700000022537999
 30
0.0
 11
189.19999998062841
 21
52.000000094994903
 31
0.0
  0
LINE
  5
EC10
  8
0
 10
175.8000003919004
 20
52.000000094994903
 30
0.0
 11
175.49999997019751
 21
51.700000022537999
 31
0.0
  0
LINE
  5
EC11
  8
0
 10
175.49999997019751
 20
48.299999977461987
 30
0.0
 11
175.8000003919004
 21
47.999999905005083
 31
0.0
  0
LINE
  5
EC12
  8
0
 10
175.8000003919004
 20
47.999999905005083
 30
0.0
 11
179.03589860536141
 21
47.999999905005083
 31
0.0
  0
LINE
  5
EC13
  8
0
 10
185.96410176716731
 20
47.999999905005083
 30
0.0
 11
189.19999998062841
 21
47.999999905005083
 31
0.0
  0
LINE
  5
EC14
  8
0
 10
189.19999998062841
 20
52.000000094994903
 30
0.0
 11
185.96410176716731
 21
52.000000094994903
 31
0.0
  0
LINE
  5
EC15
  8
0
 10
179.03589860536141
 20
52.000000094994903
 30
0.0
 11
175.8000003919004
 21
52.000000094994903
 31
0.0
  0
LINE
  5
EC16
  8
0
 10
169.22168794180681
 20
48.74999999757506
 30
0.0
 11
169.9433759387224
 21
49.999999880311897
 31
0.0
  0
LINE
  5
EC17
  8
0
 10
169.2216877543909
 20
51.249999827137842
 30
0.0
 11
169.9433759387224
 21
49.999999880311897
 31
0.0
  0
LINE
  5
EC18
  8
0
 10
169.2216877543909
 20
51.249999827137842
 30
0.0
 11
167.7783124968926
 21
51.250000013280612
 31
0.0
  0
LINE
  5
EC19
  8
0
 10
167.7783124968926
 20
51.250000013280612
 30
0.0
 11
167.056624499977
 21
50.000000130543782
 31
0.0
  0
LINE
  5
EC1A
  8
0
 10
167.7783126843085
 20
48.750000183717852
 30
0.0
 11
167.056624499977
 21
50.000000130543782
 31
0.0
  0
LINE
  5
EC1B
  8
0
 10
167.7783126843085
 20
48.750000183717852
 30
0.0
 11
169.22168794180681
 21
48.74999999757506
 31
0.0
  0
CIRCLE
  5
EC1C
  8
0
 10
168.50000018626429
 20
50.0
 30
0.0
 40
2.7500000000000071
  0
LINE
  5
EC1D
  8
0
 10
188.0566246830158
 20
62.124355046256838
 30
0.0
 11
188.77831305421171
 21
60.874355412953818
 31
0.0
  0
LINE
  5
EC1E
  8
0
 10
190.2216887335349
 20
60.87435628105635
 30
0.0
 11
188.77831305421171
 21
60.874355412953818
 31
0.0
  0
LINE
  5
EC1F
  8
0
 10
190.2216887335349
 20
60.87435628105635
 30
0.0
 11
190.9433757329177
 21
62.124355788037931
 31
0.0
  0
LINE
  5
EC20
  8
0
 10
190.9433757329177
 20
62.124355788037931
 30
0.0
 11
190.221687670466
 21
63.374356415764943
 31
0.0
  0
LINE
  5
EC21
  8
0
 10
188.77831199114291
 20
63.37435554766239
 30
0.0
 11
190.221687670466
 21
63.374356415764943
 31
0.0
  0
LINE
  5
EC22
  8
0
 10
188.77831199114291
 20
63.37435554766239
 30
0.0
 11
188.0566246830158
 21
62.124355046256838
 31
0.0
  0
CIRCLE
  5
EC23
  8
0
 10
189.5000001862642
 20
62.124355652982203
 30
0.0
 40
2.749999999999996
  0
LINE
  5
EC24
  8
0
 10
190.22168819968411
 20
39.125644394349152
 30
0.0
 11
188.77831252036071
 21
39.125644051559043
 31
0.0
  0
LINE
  5
EC25
  8
0
 10
188.0566246065257
 20
37.875644731846577
 30
0.0
 11
188.77831252036071
 21
39.125644051559043
 31
0.0
  0
LINE
  5
EC26
  8
0
 10
188.0566246065257
 20
37.875644731846577
 30
0.0
 11
188.77831267356169
 21
36.62564391685023
 31
0.0
  0
LINE
  5
EC27
  8
0
 10
188.77831267356169
 20
36.62564391685023
 30
0.0
 11
190.22168835288511
 21
36.625644259640339
 31
0.0
  0
LINE
  5
EC28
  8
0
 10
190.9433756564278
 20
37.87564442300296
 30
0.0
 11
190.22168835288511
 21
36.625644259640339
 31
0.0
  0
LINE
  5
EC29
  8
0
 10
190.9433756564278
 20
37.87564442300296
 30
0.0
 11
190.22168819968411
 21
39.125644394349152
 31
0.0
  0
CIRCLE
  5
EC2A
  8
0
 10
189.5000001862644
 20
37.875644347017847
 30
0.0
 40
2.75
  0
CIRCLE
  5
EC2B
  8
0
 10
184.0096740993078
 20
55.487018045464431
 30
0.0
 40
0.5
  0
LINE
  5
EC2C
  8
0
 10
180.2096740156411
 20
56.68701808899641
 30
0.0
 11
181.6096740821375
 21
56.68701808899641
 31
0.0
  0
LINE
  5
EC2D
  8
0
 10
181.6096740821375
 20
56.68701808899641
 30
0.0
 11
181.6096740821375
 21
53.899656236171722
 31
0.0
  0
LINE
  5
EC2E
  8
0
 10
182.80967411003061
 20
53.98799451068043
 30
0.0
 11
182.80967411003061
 21
56.68701808899641
 31
0.0
  0
LINE
  5
EC2F
  8
0
 10
182.80967411003061
 20
56.68701808899641
 30
0.0
 11
184.20967408921561
 21
56.68701808899641
 31
0.0
  0
ARC
  5
EC30
  8
0
 10
184.2096740993079
 20
55.687018045464413
 30
0.0
 40
1.0
 50
0.0
 51
90.0
  0
LINE
  5
EC31
  8
0
 10
185.20967413671301
 20
55.68701792508363
 30
0.0
 11
185.20967413671301
 21
53.95851070061326
 31
0.0
  0
ARC
  5
EC32
  8
0
 10
186.2096740993079
 20
53.958510901510117
 30
0.0
 40
1.0000000000000031
 50
180.0
 51
230.23807925223889
  0
ARC
  5
EC33
  8
0
 10
182.5000001862644
 20
49.5
 30
0.0
 40
4.8000000000000043
 50
31.3881664643508
 51
50.238079252238983
  0
ARC
  5
EC34
  8
0
 10
182.5000001862644
 20
49.5
 30
0.0
 40
4.800000000000006
 50
198.2099568642829
 51
341.79004313571693
  0
POLYLINE
  5
EC35
  8
0
 66
     1
 10
0.0
 20
0.0
 30
0.0
 70
   128
  0
VERTEX
  5
13925
  8
0
 10
178.40243976563201
 20
52.000000094994903
 30
0.0
  0
VERTEX
  5
13926
  8
0
 10
178.61451518721859
 20
52.318333834409707
 30
0.0
  0
VERTEX
  5
13927
  8
0
 10
178.9493854902683
 20
52.730036387220018
 30
0.0
  0
SEQEND
  5
13928
  8
0
  0
ARC
  5
EC36
  8
0
 10
178.2096740993079
 20
53.40296067973793
 30
0.0
 40
1.0000000000000131
 50
317.7068365951194
 51
0.0
  0
LINE
  5
EC37
  8
0
 10
179.20967408455891
 20
53.402960719540708
 30
0.0
 11
179.20967408455891
 21
55.68701792508363
 31
0.0
  0
ARC
  5
EC38
  8
0
 10
180.2096740993079
 20
55.687018045464413
 30
0.0
 40
1.0
 50
90.0
 51
180.0
  0
CIRCLE
  5
EC39
  8
0
 10
180.40967409930781
 20
55.487018045464431
 30
0.0
 40
0.5
  0
LINE
  5
EC3A
  8
0
 10
189.50000040233121
 20
51.700000022537999
 30
0.0
 11
189.50000040233121
 21
48.299999977461987
 31
0.0
  0
LINE
  5
EC3B
  8
0
 10
189.19999998062841
 20
47.999999905005083
 30
0.0
 11
189.19999998062841
 21
52.000000094994903
 31
0.0
  0
LINE
  5
EC3C
  8
0
 10
175.8000003919004
 20
52.000000094994903
 30
0.0
 11
175.8000003919004
 21
47.999999905005083
 31
0.0
  0
LINE
  5
EC3D
  8
0
 10
175.49999997019751
 20
48.299999977461987
 30
0.0
 11
175.49999997019751
 21
51.700000022537999
 31
0.0
  0
CIRCLE
  5
EC3E
  8
0
 10
182.5000001862644
 20
50.0
 30
0.0
 40
2.556624327025931
  0
CIRCLE
  5
EC3F
  8
0
 10
182.5000001862644
 20
50.0
 30
0.0
 40
4.0
  0
CIRCLE
  5
EC40
  8
0
 10
182.5000001862644
 20
50.0
 30
0.0
 40
1.75
  0
CIRCLE
  5
EC41
  8
0
 10
182.5000001862644
 20
50.0
 30
0.0
 40
7.9999999999999947
  0
CIRCLE
  5
EC42
  8
0
 10
182.5000001862644
 20
50.0
 30
0.0
 40
9.0
  0
CIRCLE
  5
EC43
  8
0
 10
182.5000001862644
 20
50.0
 30
0.0
 40
7.5
  0
CIRCLE
  5
EC49
  8
0
 10
182.5000001862644
 20
49.999999999999929
 30
0.0
 40
17.000000000000011
  0
CIRCLE
  5
EC4A
  8
0
 10
182.5000001862644
 20
50.0
 30
0.0
 40
1.300000000000006
  0
CIRCLE
  5
EC4B
  8
0
 10
182.5000001862644
 20
50.0
 30
0.0
 40
1.499999999999996
  0
LINE
  5
EC5D
  8
0
 10
182.93301299624571
 20
50.750000000000057
 30
0.0
 11
182.06698737628309
 21
50.75
 31
0.0
  0
LINE
  5
EC5E
  8
0
 10
182.9330127800676
 20
49.25
 30
0.0
 11
182.06698759246129
 21
49.25
 31
0.0
  0
LINE
  5
EC61
  8
0
 10
182.06698737628309
 20
50.75
 30
0.0
 11
181.63397478248001
 21
50.000000187215782
 31
0.0
  0
LINE
  5
EC62
  8
0
 10
183.36602559004879
 20
50.000000187215683
 30
0.0
 11
182.93301278006749
 21
49.25
 31
0.0
  0
LINE
  5
EC63
  8
0
 10
182.93301299624571
 20
50.75
 30
0.0
 11
183.36602559004891
 21
50.000000187215683
 31
0.0
  0
LINE
  5
EC64
  8
0
 10
181.63397478248001
 20
50.000000187215718
 30
0.0
 11
182.06698759246129
 21
49.25
 31
0.0
  0
LINE
  5
EC65
  8
0
 10
406.75000055879309
 20
50.433012809981278
 30
0.0
 11
406.75000055879309
 21
49.566987190018722
 31
0.0
  0
LINE
  5
EC66
  8
0
 10
408.2500005587932
 20
50.433012593803213
 30
0.0
 11
408.2500005587932
 21
49.566987406196851
 31
0.0
  0
LINE
  5
EC67
  8
0
 10
406.75000055879309
 20
49.566987190018722
 30
0.0
 11
407.50000037157753
 21
49.13397459621558
 31
0.0
  0
LINE
  5
EC68
  8
0
 10
407.50000037157758
 20
50.86602540378442
 30
0.0
 11
408.2500005587932
 21
50.433012593803141
 31
0.0
  0
LINE
  5
EC69
  8
0
 10
406.75000055879309
 20
50.433012809981321
 30
0.0
 11
407.50000037157758
 21
50.866025403784462
 31
0.0
  0
LINE
  5
EC6A
  8
0
 10
407.50000037157758
 20
49.13397459621558
 30
0.0
 11
408.2500005587932
 21
49.566987406196851
 31
0.0
  0
CIRCLE
  5
F041
  8
0
 10
182.5000001862644
 20
184.19157769531009
 30
0.0
 40
17.0
  0
LINE
  5
F085
  8
1
 10
182.5000001862644
 20
206.19157769531009
 30
0.0
 11
182.5000001862644
 21
162.19157769531009
 31
0.0
  0
LINE
  5
F086
  8
1
 10
204.5000001862644
 20
184.19157769531009
 30
0.0
 11
160.5000001862644
 21
184.19157769531009
 31
0.0
  0
CIRCLE
  5
F10E
  8
0
 10
407.5000005587932
 20
184.19157769531009
 30
0.0
 40
17.0
  0
LINE
  5
F152
  8
1
 10
407.5000005587932
 20
206.19157769531009
 30
0.0
 11
407.5000005587932
 21
162.19157769531009
 31
0.0
  0
LINE
  5
F153
  8
1
 10
429.5000005587932
 20
184.19157769531009
 30
0.0
 11
385.50000055879337
 21
184.19157769531009
 31
0.0
  0
LINE
  5
F19E
  8
1
 10
182.5000001862644
 20
72.0
 30
0.0
 11
182.5000001862644
 21
28.0
 31
0.0
  0
LINE
  5
F19F
  8
1
 10
204.5000001862644
 20
50.0
 30
0.0
 11
160.5000001862644
 21
50.0
 31
0.0
  0
LINE
  5
F1A0
  8
1
 10
407.5000005587932
 20
72.0
 30
0.0
 11
407.5000005587932
 21
28.0
 31
0.0
  0
LINE
  5
F1A1
  8
1
 10
429.5000005587932
 20
50.0
 30
0.0
 11
385.50000055879337
 21
50.0
 31
0.0
  0
CIRCLE
  5
F1A2
  8
1
 10
407.5000005587932
 20
50.0
 30
0.0
 40
14.0
  0
LINE
  5
F1A3
  8
1
 10
412.12500055879309
 20
58.010734985006067
 30
0.0
 11
416.8750005587932
 21
66.237976320958296
 31
0.0
  0
LINE
  5
F1A4
  8
1
 10
412.12500055879349
 20
41.989265014993919
 30
0.0
 11
416.87500055879337
 21
33.762023679041732
 31
0.0
  0
CIRCLE
  5
F1A7
  8
1
 10
182.5000001862644
 20
50.0
 30
0.0
 40
14.0
  0
LINE
  5
F1A8
  8
1
 10
187.1250001862642
 20
58.010734985006067
 30
0.0
 11
191.8750001862642
 21
66.237976320958296
 31
0.0
  0
LINE
  5
F1A9
  8
1
 10
187.1250001862644
 20
41.989265014993919
 30
0.0
 11
191.8750001862644
 21
33.762023679041732
 31
0.0
  0
LINE
  5
F1F6
  8
1
 10
119.9999999999998
 20
135.3699995008111
 30
0.0
 11
119.9999999999998
 21
87.397007896453133
 31
0.0
  0
LINE
  5
F1F7
  8
1
 10
132.12435588240601
 20
107.4999996945262
 30
0.0
 11
132.12435588240601
 21
116.9999996647238
 31
0.0
  0
LINE
  5
F1F8
  8
1
 10
107.8756441175935
 20
107.4999996945262
 30
0.0
 11
107.8756441175935
 21
116.9999996647238
 31
0.0
  0
LINE
  5
F1F9
  8
1
 10
123.9999999999998
 20
97.397007998526078
 30
0.0
 11
115.9999999999998
 21
97.397007998526078
 31
0.0
  0
LINE
  5
F266
  8
1
 10
245.0000003725288
 20
135.3699995008111
 30
0.0
 11
245.0000003725288
 21
87.397007896453133
 31
0.0
  0
LINE
  5
F267
  8
1
 10
257.12435625493509
 20
107.4999996945262
 30
0.0
 11
257.12435625493509
 21
116.9999996647238
 31
0.0
  0
LINE
  5
F268
  8
1
 10
232.87564449012251
 20
107.4999996945262
 30
0.0
 11
232.87564449012251
 21
116.9999996647238
 31
0.0
  0
LINE
  5
F269
  8
1
 10
249.0000003725288
 20
97.397007998526078
 30
0.0
 11
241.0000003725288
 21
97.397007998526078
 31
0.0
  0
LINE
  5
F31B
  8
1
 10
182.5000001862644
 20
135.3699995008111
 30
0.0
 11
182.5000001862644
 21
87.397007896453133
 31
0.0
  0
LINE
  5
F31C
  8
1
 10
191.50000040233121
 20
97.397007998526078
 30
0.0
 11
173.49999997019751
 21
97.397007998526078
 31
0.0
  0
LINE
  5
F31F
  8
1
 10
168.4999997541307
 20
107.4999996945262
 30
0.0
 11
168.4999997541307
 21
116.9999996647238
 31
0.0
  0
LINE
  5
F320
  8
1
 10
189.50000040233121
 20
107.4999996945261
 30
0.0
 11
189.50000040233121
 21
116.9999996647238
 31
0.0
  0
LINE
  5
F381
  8
1
 10
345.00000037252892
 20
135.0408665314317
 30
0.0
 11
345.00000037252892
 21
87.067874927073788
 31
0.0
  0
LINE
  5
F398
  8
1
 10
470.00000074505778
 20
135.0408665314317
 30
0.0
 11
470.00000074505778
 21
87.067874927073788
 31
0.0
  0
LINE
  5
F476
  8
0
 10
335.25000017136318
 20
124.9999994412064
 30
0.0
 11
328.65798023499229
 21
122.60070044666899
 31
0.0
  0
ARC
  5
F477
  8
0
 10
345.2604851814155
 20
88.213415231113572
 30
0.0
 40
37.955929923951061
 50
108.3988238254818
 51
110.6717083456043
  0
ARC
  5
F478
  8
0
 10
338.50953248552281
 20
105.2665018186879
 30
0.0
 40
19.619812372898881
 50
109.806224978592
 51
113.52238954028719
  0
POLYLINE
  5
F479
  8
0
 66
     1
 10
0.0
 20
0.0
 30
0.0
 70
   128
  0
VERTEX
  5
13929
  8
0
 10
330.51845960319019
 20
123.1145909056067
 30
0.0
  0
VERTEX
  5
1392A
  8
0
 10
330.47298125922657
 20
123.1227846816182
 30
0.0
  0
VERTEX
  5
1392B
  8
0
 10
330.51621697843041
 20
123.17201998084779
 30
0.0
  0
VERTEX
  5
1392C
  8
0
 10
330.67912019789202
 20
123.2559898868203
 30
0.0
  0
SEQEND
  5
1392D
  8
0
  0
ARC
  5
F47A
  8
0
 10
330.10468604106711
 20
126.69254963282761
 30
0.0
 40
3.6018047163065501
 50
276.59667544054048
 51
287.44340067809168
  0
ARC
  5
F47B
  8
0
 10
326.38235580686512
 20
140.1511613041132
 30
0.0
 40
17.563970462431762
 50
285.86679038197587
 51
290.74627310502672
  0
ARC
  5
F47C
  8
0
 10
329.25532295448971
 20
133.22389886776421
 30
0.0
 40
10.07088391674379
 50
289.42150807513991
 51
296.73416438892508
  0
POLYLINE
  5
F47D
  8
0
 66
     1
 10
0.0
 20
0.0
 30
0.0
 70
   128
  0
VERTEX
  5
1392E
  8
0
 10
333.9471376314757
 20
124.4012838229537
 30
0.0
  0
VERTEX
  5
1392F
  8
0
 10
333.9918718487022
 20
124.39045999199151
 30
0.0
  0
VERTEX
  5
13930
  8
0
 10
333.94851319491829
 20
124.3294024839997
 30
0.0
  0
VERTEX
  5
13931
  8
0
 10
333.78572639077879
 20
124.2295591160655
 30
0.0
  0
SEQEND
  5
13932
  8
0
  0
ARC
  5
F47E
  8
0
 10
334.40277983208819
 20
121.2598556582244
 30
0.0
 40
3.1743000376670949
 50
98.252800830510992
 51
110.7052645949617
  0
ARC
  5
F47F
  8
0
 10
337.11240014066209
 20
109.48272205902551
 30
0.0
 40
15.155560690919421
 50
109.7938352824841
 51
113.70596979043761
  0
ARC
  5
F480
  8
0
 10
341.61926725389588
 20
98.316889274528364
 30
0.0
 40
27.191756953193359
 50
108.2394470600042
 51
110.761943061251
  0
ARC
  5
F481
  8
0
 10
333.8772398255104
 20
122.0990972973463
 30
0.0
 40
2.183152468759133
 50
98.003709158186425
 51
110.61587613985471
  0
POLYLINE
  5
F482
  8
0
 66
     1
 10
0.0
 20
0.0
 30
0.0
 70
   128
  0
VERTEX
  5
13933
  8
0
 10
333.44563625752897
 20
124.1428120061755
 30
0.0
  0
VERTEX
  5
13934
  8
0
 10
333.58565688133223
 20
124.22885876148941
 30
0.0
  0
VERTEX
  5
13935
  8
0
 10
333.60069680958969
 20
124.2524361237883
 30
0.0
  0
VERTEX
  5
13936
  8
0
 10
333.57326377183182
 20
124.26098380237811
 30
0.0
  0
SEQEND
  5
13937
  8
0
  0
ARC
  5
F483
  8
0
 10
329.31313765188349
 20
132.7203578264548
 30
0.0
 40
9.521125827582221
 50
289.4621551439954
 51
295.72388365287452
  0
ARC
  5
F484
  8
0
 10
326.73305630726207
 20
138.82799888456771
 30
0.0
 40
16.144328310011719
 50
286.64071801050318
 51
290.87369182671381
  0
ARC
  5
F485
  8
0
 10
330.62345027500209
 20
125.5261454898727
 30
0.0
 40
2.286938965859223
 50
276.77101515952768
 51
288.69006399020452
  0
POLYLINE
  5
F486
  8
0
 66
     1
 10
0.0
 20
0.0
 30
0.0
 70
   128
  0
VERTEX
  5
13938
  8
0
 10
331.01921033114172
 20
123.35946727544069
 30
0.0
  0
VERTEX
  5
13939
  8
0
 10
330.87936758995039
 20
123.28260149806739
 30
0.0
  0
VERTEX
  5
1393A
  8
0
 10
330.86499728262402
 20
123.262214846909
 30
0.0
  0
VERTEX
  5
1393B
  8
0
 10
330.89308410882933
 20
123.2551572844386
 30
0.0
  0
SEQEND
  5
1393C
  8
0
  0
LINE
  5
F487
  8
1
 10
357.12435625493492
 20
107.4999996945262
 30
0.0
 11
357.12435625493492
 21
116.9999996647238
 31
0.0
  0
LINE
  5
F488
  8
1
 10
332.87564449012251
 20
107.4999996945262
 30
0.0
 11
332.87564449012251
 21
116.9999996647238
 31
0.0
  0
LINE
  5
F4CC
  8
0
 10
423.84202022105433
 20
122.6007001474499
 30
0.0
 11
417.25000075995888
 21
124.9999994412064
 31
0.0
  0
LINE
  5
F4CD
  8
0
 10
418.66925813257672
 20
124.3744561448693
 30
0.0
 11
421.63847748190142
 21
123.37644156068561
 31
0.0
  0
LINE
  5
F4CE
  8
0
 10
418.58892783522577
 20
124.35736265033481
 30
0.0
 11
418.66925813257672
 21
124.3744561448693
 31
0.0
  0
LINE
  5
F4CF
  8
0
 10
422.0236128941176
 20
123.0976352468133
 30
0.0
 11
418.58892783522577
 21
124.35736265033481
 31
0.0
  0
LINE
  5
F4D0
  8
0
 10
422.10094060748793
 20
123.1101112440228
 30
0.0
 11
422.0236128941176
 21
123.0976352468133
 31
0.0
  0
LINE
  5
F4D1
  8
0
 10
419.38922822475399
 20
124.10782407969231
 30
0.0
 11
422.10094060748793
 21
123.1101112440228
 31
0.0
  0
LINE
  5
F4D2
  8
0
 10
422.35544499009842
 20
123.1110071763396
 30
0.0
 11
419.38922822475399
 21
124.10782407969231
 31
0.0
  0
LINE
  5
F4D3
  8
0
 10
422.43877787142958
 20
123.0975775048136
 30
0.0
 11
422.35544499009842
 21
123.1110071763396
 31
0.0
  0
LINE
  5
F4D4
  8
0
 10
419.00409374386038
 20
124.3573347106576
 30
0.0
 11
422.43877787142958
 21
123.0975775048136
 31
0.0
  0
LINE
  5
F4D5
  8
0
 10
418.92676603049028
 20
124.3739103898406
 30
0.0
 11
419.00409374386038
 21
124.3573347106576
 31
0.0
  0
LINE
  5
F4D6
  8
0
 10
421.63847748190142
 20
123.37644156068561
 30
0.0
 11
418.92676603049028
 21
124.3739103898406
 31
0.0
  0
LINE
  5
F4D7
  8
1
 10
354.0000005885957
 20
97.067874621693022
 30
0.0
 11
336.00000015646202
 21
97.067874621693022
 31
0.0
  0
LINE
  5
F4D8
  8
1
 10
479.00000096112461
 20
97.067874621693022
 30
0.0
 11
461.00000052899111
 21
97.067874621693022
 31
0.0
  0
LINE
  5
F4D9
  8
1
 10
411.5000005587932
 20
97.067874560415603
 30
0.0
 11
403.5000005587932
 21
97.067874560415603
 31
0.0
  0
LINE
  5
F4DA
  8
1
 10
393.5000001266597
 20
107.4999996945262
 30
0.0
 11
393.5000001266597
 21
116.9999996647238
 31
0.0
  0
LINE
  5
F4DB
  8
1
 10
414.5000007748601
 20
107.4999996945261
 30
0.0
 11
414.5000007748601
 21
116.9999996647238
 31
0.0
  0
LINE
  5
F51F
  8
1
 10
482.12435662746401
 20
107.4999996945262
 30
0.0
 11
482.12435662746401
 21
116.9999996647238
 31
0.0
  0
LINE
  5
F520
  8
1
 10
457.87564486265131
 20
107.4999996945262
 30
0.0
 11
457.87564486265131
 21
116.9999996647238
 31
0.0
  0
LINE
  5
114EB
  8
1
 10
247.5
 20
-33.094764855300561
 30
0.0
 11
247.5
 21
-71.094764855300554
 31
0.0
  0
LINE
  5
114ED
  8
1
 10
228.5
 20
-52.094764855300568
 30
0.0
 11
266.5
 21
-52.094764855300568
 31
0.0
  0
LINE
  5
114EE
  8
0
 10
224.99999999999989
 20
-95.373270445642945
 30
0.0
 11
269.99999999999989
 21
-95.373270445642945
 31
0.0
  0
LINE
  5
114EF
  8
0
 10
224.99999999999989
 20
-107.373270445643
 30
0.0
 11
269.99999999999989
 21
-107.373270445643
 31
0.0
  0
LINE
  5
114F0
  8
0
 10
238.50000000000011
 20
-96.373270445642987
 30
0.0
 11
237.50000000000011
 21
-95.373270445642945
 31
0.0
  0
LINE
  5
114F1
  8
0
 10
231.7999999999999
 20
-95.873270445642987
 30
0.0
 11
231.2999999999999
 21
-95.373270445642945
 31
0.0
  0
LINE
  5
114F2
  8
0
 10
230.25
 20
-97.873270445643001
 30
0.0
 11
236.75
 21
-97.873270445643001
 31
0.0
  0
LINE
  5
114F3
  8
0
 10
238.50000000000011
 20
-106.873270445643
 30
0.0
 11
238.00000000000011
 21
-107.373270445643
 31
0.0
  0
LINE
  5
114F4
  8
0
 10
230.25
 20
-106.873270445643
 30
0.0
 11
229.75
 21
-107.373270445643
 31
0.0
  0
LINE
  5
114F5
  8
1
 10
247.5
 20
-92.373270445642987
 30
0.0
 11
247.5
 21
-110.373270445643
 31
0.0
  0
LINE
  5
114F6
  8
1
 10
257.12499999999989
 20
-35.423775832450033
 30
0.0
 11
251.87500000000011
 21
-44.517042572186753
 31
0.0
  0
LINE
  5
114F7
  8
1
 10
257.12499999999989
 20
-68.76575387815106
 30
0.0
 11
251.87499999999989
 21
-59.672487138414461
 31
0.0
  0
LINE
  5
114F8
  8
0
 10
238.50000000000011
 20
-96.373270445642987
 30
0.0
 11
238.50000000000011
 21
-106.873270445643
 31
0.0
  0
LINE
  5
114F9
  8
1
 10
233.5
 20
-93.373270445642987
 30
0.0
 11
233.5
 21
-109.373270445643
 31
0.0
  0
LINE
  5
114FA
  8
0
 10
231.7999999999999
 20
-95.873270445642987
 30
0.0
 11
231.7999999999999
 21
-97.873270445643001
 31
0.0
  0
LINE
  5
114FB
  8
0
 10
230.25
 20
-97.873270445643001
 30
0.0
 11
230.25
 21
-106.873270445643
 31
0.0
  0
LINE
  5
114FC
  8
0
 10
235.2000000000001
 20
-95.873270445642987
 30
0.0
 11
235.69999999999999
 21
-95.373270445642945
 31
0.0
  0
LINE
  5
114FD
  8
0
 10
236.75
 20
-106.873270445643
 30
0.0
 11
237.25
 21
-107.373270445643
 31
0.0
  0
LINE
  5
114FE
  8
0
 10
235.2000000000001
 20
-95.873270445642987
 30
0.0
 11
235.2000000000001
 21
-97.873270445643001
 31
0.0
  0
LINE
  5
114FF
  8
0
 10
236.75
 20
-97.873270445643001
 30
0.0
 11
236.75
 21
-106.873270445643
 31
0.0
  0
LINE
  5
11500
  8
0
 10
231.7999999999999
 20
-95.873270445642987
 30
0.0
 11
235.2000000000001
 21
-95.873270445642987
 31
0.0
  0
LINE
  5
11501
  8
0
 10
230.25
 20
-106.873270445643
 30
0.0
 11
236.75
 21
-106.873270445643
 31
0.0
  0
LINE
  5
11502
  8
0
 10
256.5
 20
-96.373270445643016
 30
0.0
 11
257.5
 21
-95.373270445643001
 31
0.0
  0
LINE
  5
11503
  8
0
 10
256.49999999999989
 20
-106.873270445643
 30
0.0
 11
256.99999999999989
 21
-107.373270445643
 31
0.0
  0
LINE
  5
11504
  8
0
 10
256.5
 20
-96.373270445643016
 30
0.0
 11
256.49999999999989
 21
-106.873270445643
 31
0.0
  0
LINE
  5
11505
  8
0
 10
238.50000000000011
 20
-96.373270445642987
 30
0.0
 11
256.5
 21
-96.373270445643215
 31
0.0
  0
LINE
  5
11506
  8
0
 10
256.49999999999989
 20
-106.873270445643
 30
0.0
 11
238.50000000000011
 21
-106.8732704456431
 31
0.0
  0
LINE
  5
11507
  8
0
 10
385.0
 20
-103.373270445643
 30
0.0
 11
420.0
 21
-103.373270445643
 31
0.0
  0
LINE
  5
11508
  8
0
 10
380.0
 20
-95.373270445642945
 30
0.0
 11
425.0
 21
-95.373270445642945
 31
0.0
  0
LINE
  5
11509
  8
0
 10
385.0
 20
-95.873270445642987
 30
0.0
 11
384.5
 21
-95.373270445642945
 31
0.0
  0
LINE
  5
1150A
  8
0
 10
380.0
 20
-115.373270445643
 30
0.0
 11
425.0
 21
-115.373270445643
 31
0.0
  0
LINE
  5
1150B
  8
1
 10
402.5
 20
-92.373270445642987
 30
0.0
 11
402.5
 21
-118.373270445643
 31
0.0
  0
LINE
  5
1150C
  8
0
 10
385.0
 20
-95.873270445642987
 30
0.0
 11
385.0
 21
-103.373270445643
 31
0.0
  0
LINE
  5
1150D
  8
0
 10
420.0
 20
-95.873270445642987
 30
0.0
 11
420.49999999999989
 21
-95.373270445642945
 31
0.0
  0
LINE
  5
1150E
  8
0
 10
420.0
 20
-95.873270445642987
 30
0.0
 11
420.0
 21
-103.373270445643
 31
0.0
  0
LINE
  5
1150F
  8
0
 10
385.0
 20
-95.873270445642987
 30
0.0
 11
420.0
 21
-95.873270445642987
 31
0.0
  0
CIRCLE
  5
11510
  8
1
 10
247.5
 20
-52.094764855300561
 30
0.0
 40
14.0
  0
CIRCLE
  5
11511
  8
0
 10
247.5
 20
-52.094764855300568
 30
0.0
 40
9.0
  0
CIRCLE
  5
11512
  8
2
 10
233.5
 20
-52.094764855300561
 30
0.0
 40
3.25
  0
CIRCLE
  5
11513
  8
0
 10
233.5
 20
-52.094764855300561
 30
0.0
 40
1.7
  0
CIRCLE
  5
11514
  8
2
 10
254.5
 20
-39.970409202318407
 30
0.0
 40
3.25
  0
CIRCLE
  5
11515
  8
0
 10
254.5
 20
-39.970409202318407
 30
0.0
 40
1.7
  0
CIRCLE
  5
11516
  8
2
 10
254.49999999999989
 20
-64.219120508282771
 30
0.0
 40
3.25
  0
CIRCLE
  5
11517
  8
0
 10
254.49999999999989
 20
-64.219120508282771
 30
0.0
 40
1.7
  0
LINE
  5
115C2
  8
1
 10
402.5
 20
-29.59476485530055
 30
0.0
 11
402.5
 21
-74.594764855300554
 31
0.0
  0
LINE
  5
115C4
  8
1
 10
380.0
 20
-52.094764855300532
 30
0.0
 11
425.0
 21
-52.094764855300532
 31
0.0
  0
LINE
  5
115C5
  8
1
 10
412.12499999999989
 20
-35.423775832450012
 30
0.0
 11
406.875
 21
-44.517042572186718
 31
0.0
  0
LINE
  5
115C6
  8
1
 10
412.12499999999989
 20
-68.765753878151031
 30
0.0
 11
406.87499999999989
 21
-59.672487138414432
 31
0.0
  0
CIRCLE
  5
115C7
  8
1
 10
402.5
 20
-52.094764855300532
 30
0.0
 40
14.0
  0
CIRCLE
  5
115C8
  8
0
 10
402.5
 20
-52.094764855300532
 30
0.0
 40
9.0
  0
CIRCLE
  5
115C9
  8
2
 10
388.5
 20
-52.094764855300532
 30
0.0
 40
3.25
  0
CIRCLE
  5
115CA
  8
0
 10
388.5
 20
-52.094764855300532
 30
0.0
 40
1.7
  0
CIRCLE
  5
115CB
  8
2
 10
409.49999999999989
 20
-39.970409202318393
 30
0.0
 40
3.25
  0
CIRCLE
  5
115CC
  8
0
 10
409.49999999999989
 20
-39.970409202318393
 30
0.0
 40
1.7
  0
CIRCLE
  5
115CD
  8
2
 10
409.49999999999989
 20
-64.219120508282742
 30
0.0
 40
3.25
  0
CIRCLE
  5
115CE
  8
0
 10
409.49999999999989
 20
-64.219120508282742
 30
0.0
 40
1.7
  0
CIRCLE
  5
115CF
  8
0
 10
402.5
 20
-52.094764855300532
 30
0.0
 40
17.5
  0
LINE
  5
115D0
  8
0
 10
393.5
 20
-104.373270445643
 30
0.0
 11
392.50000000000011
 21
-103.373270445643
 31
0.0
  0
LINE
  5
115D1
  8
0
 10
386.80000000000001
 20
-103.873270445643
 30
0.0
 11
386.30000000000001
 21
-103.373270445643
 31
0.0
  0
LINE
  5
115D2
  8
0
 10
385.25
 20
-105.873270445643
 30
0.0
 11
391.75
 21
-105.873270445643
 31
0.0
  0
LINE
  5
115D3
  8
0
 10
393.5
 20
-114.873270445643
 30
0.0
 11
393.00000000000011
 21
-115.373270445643
 31
0.0
  0
LINE
  5
115D4
  8
0
 10
385.25
 20
-114.873270445643
 30
0.0
 11
384.75
 21
-115.373270445643
 31
0.0
  0
LINE
  5
115D5
  8
0
 10
393.5
 20
-104.373270445643
 30
0.0
 11
393.5
 21
-114.873270445643
 31
0.0
  0
LINE
  5
115D6
  8
1
 10
388.5
 20
-101.373270445643
 30
0.0
 11
388.5
 21
-117.373270445643
 31
0.0
  0
LINE
  5
115D7
  8
0
 10
386.80000000000001
 20
-103.873270445643
 30
0.0
 11
386.80000000000001
 21
-105.873270445643
 31
0.0
  0
LINE
  5
115D8
  8
0
 10
385.25
 20
-105.873270445643
 30
0.0
 11
385.25
 21
-114.873270445643
 31
0.0
  0
LINE
  5
115D9
  8
0
 10
390.19999999999999
 20
-103.873270445643
 30
0.0
 11
390.70000000000022
 21
-103.373270445643
 31
0.0
  0
LINE
  5
115DA
  8
0
 10
391.75
 20
-114.873270445643
 30
0.0
 11
392.25
 21
-115.373270445643
 31
0.0
  0
LINE
  5
115DB
  8
0
 10
390.19999999999999
 20
-103.873270445643
 30
0.0
 11
390.19999999999999
 21
-105.873270445643
 31
0.0
  0
LINE
  5
115DC
  8
0
 10
391.75
 20
-105.873270445643
 30
0.0
 11
391.75
 21
-114.873270445643
 31
0.0
  0
LINE
  5
115DD
  8
0
 10
386.80000000000001
 20
-103.873270445643
 30
0.0
 11
390.19999999999999
 21
-103.873270445643
 31
0.0
  0
LINE
  5
115DE
  8
0
 10
385.25
 20
-114.873270445643
 30
0.0
 11
391.75
 21
-114.873270445643
 31
0.0
  0
LINE
  5
115DF
  8
0
 10
411.5
 20
-104.373270445643
 30
0.0
 11
412.5
 21
-103.373270445643
 31
0.0
  0
LINE
  5
115E0
  8
0
 10
411.49999999999989
 20
-114.873270445643
 30
0.0
 11
411.99999999999989
 21
-115.373270445643
 31
0.0
  0
LINE
  5
115E1
  8
0
 10
411.5
 20
-104.373270445643
 30
0.0
 11
411.49999999999989
 21
-114.873270445643
 31
0.0
  0
LINE
  5
115E2
  8
0
 10
393.5
 20
-104.373270445643
 30
0.0
 11
411.5
 21
-104.3732704456432
 31
0.0
  0
LINE
  5
115E3
  8
0
 10
411.49999999999989
 20
-114.873270445643
 30
0.0
 11
393.5
 21
-114.8732704456431
 31
0.0
  0
LINE
  5
11608
  8
0
 10
154.9999999999998
 20
-95.373270445642945
 30
0.0
 11
199.99999999999989
 21
-95.373270445642945
 31
0.0
  0
LINE
  5
11609
  8
0
 10
154.9999999999998
 20
-107.373270445643
 30
0.0
 11
173.49999981001011
 21
-107.373270445643
 31
0.0
  0
LINE
  5
1160A
  8
0
 10
168.50000000000011
 20
-96.373270445642987
 30
0.0
 11
167.50000000000011
 21
-95.373270445642945
 31
0.0
  0
LINE
  5
1160B
  8
0
 10
161.80000000000001
 20
-95.873270445642987
 30
0.0
 11
161.30000000000001
 21
-95.373270445642945
 31
0.0
  0
LINE
  5
1160C
  8
0
 10
160.25
 20
-97.873270445643001
 30
0.0
 11
166.75
 21
-97.873270445643001
 31
0.0
  0
LINE
  5
1160D
  8
0
 10
168.50000000000011
 20
-106.873270445643
 30
0.0
 11
168.0000000000002
 21
-107.373270445643
 31
0.0
  0
LINE
  5
1160E
  8
0
 10
160.25
 20
-106.873270445643
 30
0.0
 11
159.75
 21
-107.373270445643
 31
0.0
  0
LINE
  5
11610
  8
0
 10
168.5000000000002
 20
-95.773270549951135
 30
0.0
 11
168.50000000000011
 21
-106.873270445643
 31
0.0
  0
LINE
  5
11612
  8
0
 10
161.80000000000001
 20
-95.873270445642987
 30
0.0
 11
161.80000000000001
 21
-97.873270445643001
 31
0.0
  0
LINE
  5
11613
  8
0
 10
160.25
 20
-97.873270445643001
 30
0.0
 11
160.25
 21
-106.873270445643
 31
0.0
  0
LINE
  5
11614
  8
0
 10
165.2000000000001
 20
-95.873270445642987
 30
0.0
 11
165.7000000000001
 21
-95.373270445642945
 31
0.0
  0
LINE
  5
11615
  8
0
 10
166.75
 20
-106.873270445643
 30
0.0
 11
167.25
 21
-107.373270445643
 31
0.0
  0
LINE
  5
11616
  8
0
 10
165.2000000000001
 20
-95.873270445642987
 30
0.0
 11
165.2000000000001
 21
-97.873270445643001
 31
0.0
  0
LINE
  5
11617
  8
0
 10
166.75
 20
-97.873270445643001
 30
0.0
 11
166.75
 21
-106.873270445643
 31
0.0
  0
LINE
  5
11618
  8
0
 10
161.80000000000001
 20
-95.873270445642987
 30
0.0
 11
162.00000025331971
 21
-95.873270445642945
 31
0.0
  0
LINE
  5
11619
  8
0
 10
160.25
 20
-106.873270445643
 30
0.0
 11
166.75
 21
-106.873270445643
 31
0.0
  0
LINE
  5
1161A
  8
0
 10
186.5
 20
-96.373270445643016
 30
0.0
 11
187.5
 21
-95.373270445643001
 31
0.0
  0
LINE
  5
1161B
  8
0
 10
186.4999999999998
 20
-106.873270445643
 30
0.0
 11
186.9999999999998
 21
-107.373270445643
 31
0.0
  0
LINE
  5
1161C
  8
0
 10
186.50000000000011
 20
-95.773270549951135
 30
0.0
 11
186.4999999999998
 21
-106.873270445643
 31
0.0
  0
LINE
  5
1161E
  8
0
 10
186.4999999999998
 20
-106.873270445643
 30
0.0
 11
181.50000018998981
 21
-106.873270445643
 31
0.0
  0
LINE
  5
1161F
  8
0
 10
166.24999955296511
 20
-100.87327041584059
 30
0.0
 11
166.24999955296511
 21
-97.873270855424934
 31
0.0
  0
LINE
  5
11620
  8
0
 10
160.7499995827674
 20
-97.873270855424934
 30
0.0
 11
160.7499995827674
 21
-100.87327041584059
 31
0.0
  0
LINE
  5
11621
  8
0
 10
164.9999998137354
 20
-97.873270855424934
 30
0.0
 11
164.9999998137354
 21
-95.373270445642945
 31
0.0
  0
LINE
  5
11622
  8
0
 10
162.00000025331971
 20
-95.373270445642945
 30
0.0
 11
162.00000025331971
 21
-97.873270855424934
 31
0.0
  0
LINE
  5
11627
  8
0
 10
170.80000020563591
 20
-110.97626199784681
 30
0.0
 11
170.49999978393311
 21
-111.27626218671909
 31
0.0
  0
LINE
  5
11628
  8
0
 10
170.49999978393311
 20
-114.6762621153798
 30
0.0
 11
170.80000020563591
 21
-114.9762620714213
 31
0.0
  0
LINE
  5
11629
  8
0
 10
170.80000020563591
 20
-114.9762620714213
 30
0.0
 11
173.49999981001011
 21
-114.9762620714213
 31
0.0
  0
LINE
  5
1162A
  8
0
 10
181.50000018998961
 20
-114.9762620714213
 30
0.0
 11
184.19999979436389
 21
-114.9762620714213
 31
0.0
  0
LINE
  5
1162B
  8
0
 10
184.19999979436389
 20
-110.97626199784681
 30
0.0
 11
181.50000018998961
 21
-110.97626199784681
 31
0.0
  0
LINE
  5
1162C
  8
0
 10
173.49999981001011
 20
-110.97626199784681
 30
0.0
 11
170.80000020563591
 21
-110.97626199784681
 31
0.0
  0
LINE
  5
1162D
  8
0
 10
184.19999979436389
 20
-114.9762620714213
 30
0.0
 11
184.50000021606681
 21
-114.6762621153798
 31
0.0
  0
LINE
  5
1162E
  8
0
 10
184.50000021606681
 20
-111.27626218671909
 30
0.0
 11
184.19999979436389
 21
-110.97626199784681
 31
0.0
  0
LINE
  5
11633
  8
0
 10
181.50000018998961
 20
-110.97626199784681
 30
0.0
 11
181.50000018998961
 21
-100.87327041584069
 31
0.0
  0
LINE
  5
11634
  8
0
 10
181.50000018998961
 20
-115.4762620369624
 30
0.0
 11
181.50000018998961
 21
-114.9762620714213
 31
0.0
  0
LINE
  5
11635
  8
0
 10
173.49999981001011
 20
-114.9762620714213
 30
0.0
 11
173.49999981001011
 21
-115.4762620369624
 31
0.0
  0
LINE
  5
11636
  8
0
 10
173.49999981001011
 20
-100.87327041584069
 30
0.0
 11
173.49999981001011
 21
-110.97626199784681
 31
0.0
  0
LINE
  5
11637
  8
0
 10
173.49999981001011
 20
-115.4762620369624
 30
0.0
 11
174.94337564334259
 21
-117.9762622139137
 31
0.0
  0
LINE
  5
11638
  8
0
 10
180.05662435665721
 20
-117.9762622139137
 30
0.0
 11
181.50000018998961
 21
-115.4762620369624
 31
0.0
  0
LINE
  5
1164A
  8
0
 10
160.49999907612781
 20
-94.873270363686586
 30
0.0
 11
161.00000008940691
 21
-95.373270445642945
 31
0.0
  0
LINE
  5
1164B
  8
0
 10
193.999999910593
 20
-95.373270445642945
 30
0.0
 11
194.50000092387191
 21
-94.873270363686586
 31
0.0
  0
ARC
  5
1164C
  8
0
 10
161.4999999999998
 20
-88.712262286590814
 30
0.0
 40
1.0
 50
110.0
 51
180.0
  0
ARC
  5
1164D
  8
0
 10
193.49999999999989
 20
-88.712262286590814
 30
0.0
 40
1.0
 50
0.0
 51
69.999999999999957
  0
LINE
  5
1164E
  8
0
 10
194.50000092387191
 20
-94.873270363686586
 30
0.0
 11
194.50000092387191
 21
-88.712261402187849
 31
0.0
  0
LINE
  5
1164F
  8
0
 10
160.49999907612781
 20
-88.712261402187849
 30
0.0
 11
160.49999907612781
 21
-94.873270363686586
 31
0.0
  0
LINE
  5
11650
  8
0
 10
193.8420196622609
 20
-87.772569962916847
 30
0.0
 11
187.25000020116559
 21
-85.373270669160405
 31
0.0
  0
LINE
  5
11651
  8
0
 10
167.7499997988341
 20
-85.373270669160405
 30
0.0
 11
161.15798033773891
 21
-87.772569962916847
 31
0.0
  0
ARC
  5
11652
  8
0
 10
186.89999999999981
 20
-95.773270549951135
 30
0.0
 40
0.4000000000000057
 50
90.0
 51
180.0
  0
ARC
  5
11653
  8
0
 10
168.09999999999991
 20
-95.773270549951135
 30
0.0
 40
0.4000000000000057
 50
0.0
 51
90.0
  0
LINE
  5
11656
  8
0
 10
168.50000038743011
 20
-99.873270717589207
 30
0.0
 11
169.4999996200203
 21
-100.87327041584059
 31
0.0
  0
LINE
  5
11657
  8
0
 10
166.24999955296511
 20
-100.87327041584059
 30
0.0
 11
160.7499995827674
 21
-100.87327041584059
 31
0.0
  0
LINE
  5
1165A
  8
0
 10
170.80000020563591
 20
-110.97626199784681
 30
0.0
 11
170.80000020563591
 21
-114.9762620714213
 31
0.0
  0
LINE
  5
1165B
  8
0
 10
170.49999978393311
 20
-111.2862371171545
 30
0.0
 11
170.49999978393311
 21
-111.27626218671909
 31
0.0
  0
LINE
  5
1165C
  8
0
 10
170.49999978393311
 20
-114.6762621153798
 30
0.0
 11
170.49999978393311
 21
-111.2862371171545
 31
0.0
  0
LINE
  5
1165D
  8
0
 10
184.19999979436389
 20
-110.98799736077891
 30
0.0
 11
184.19999979436389
 21
-110.97626199784681
 31
0.0
  0
LINE
  5
1165E
  8
0
 10
184.19999979436389
 20
-114.9762620714213
 30
0.0
 11
184.19999979436389
 21
-110.98799736077891
 31
0.0
  0
LINE
  5
1165F
  8
0
 10
184.50000021606681
 20
-111.27626218671909
 30
0.0
 11
184.50000021606681
 21
-114.6762621153798
 31
0.0
  0
POLYLINE
  5
11661
  8
0
 66
     1
 10
0.0
 20
0.0
 30
0.0
 70
   128
  0
VERTEX
  5
1393D
  8
0
 10
181.49672705680109
 20
-110.9828192072641
 30
0.0
  0
VERTEX
  5
1393E
  8
0
 10
181.49825675413001
 20
-110.9797511978726
 30
0.0
  0
VERTEX
  5
1393F
  8
0
 10
181.43657758831969
 20
-111.1063312071096
 30
0.0
  0
VERTEX
  5
13940
  8
0
 10
181.30482967011611
 20
-111.4024994692485
 30
0.0
  0
VERTEX
  5
13941
  8
0
 10
181.13226188346741
 20
-111.8838670461159
 30
0.0
  0
VERTEX
  5
13942
  8
0
 10
181.05262076482171
 20
-112.1881543456297
 30
0.0
  0
VERTEX
  5
13943
  8
0
 10
180.99252019077531
 20
-112.53163018568399
 30
0.0
  0
VERTEX
  5
13944
  8
0
 10
180.96630625426761
 20
-112.85265533092431
 30
0.0
  0
VERTEX
  5
13945
  8
0
 10
180.97068021073929
 20
-113.1898516848636
 30
0.0
  0
VERTEX
  5
13946
  8
0
 10
181.05034437961871
 20
-113.7540440629422
 30
0.0
  0
VERTEX
  5
13947
  8
0
 10
181.1958588752895
 20
-114.26442865353999
 30
0.0
  0
VERTEX
  5
13948
  8
0
 10
181.284229978919
 20
-114.4995465672295
 30
0.0
  0
VERTEX
  5
13949
  8
0
 10
181.36850791983301
 20
-114.6982821899186
 30
0.0
  0
VERTEX
  5
1394A
  8
0
 10
181.43703719601029
 20
-114.84716062272889
 30
0.0
  0
VERTEX
  5
1394B
  8
0
 10
181.48377049714321
 20
-114.94360210212869
 30
0.0
  0
VERTEX
  5
1394C
  8
0
 10
181.4997659623622
 20
-114.9757943146582
 30
0.0
  0
VERTEX
  5
1394D
  8
0
 10
181.49845698848361
 20
-114.9731655402761
 30
0.0
  0
SEQEND
  5
1394E
  8
0
  0
POLYLINE
  5
11662
  8
0
 66
     1
 10
0.0
 20
0.0
 30
0.0
 70
   128
  0
VERTEX
  5
1394F
  8
0
 10
173.5032729431986
 20
-114.96970509483469
 30
0.0
  0
VERTEX
  5
13950
  8
0
 10
173.50174324586979
 20
-114.9727729878109
 30
0.0
  0
VERTEX
  5
13951
  8
0
 10
173.56342241168011
 20
-114.8461929785739
 30
0.0
  0
VERTEX
  5
13952
  8
0
 10
173.6951703298835
 20
-114.5500248328503
 30
0.0
  0
VERTEX
  5
13953
  8
0
 10
173.86773811653251
 20
-114.06865719777529
 30
0.0
  0
VERTEX
  5
13954
  8
0
 10
173.94737923517809
 20
-113.7643698691576
 30
0.0
  0
VERTEX
  5
13955
  8
0
 10
174.00747980922441
 20
-113.42089401455129
 30
0.0
  0
VERTEX
  5
13956
  8
0
 10
174.03369374573219
 20
-113.0998689129669
 30
0.0
  0
VERTEX
  5
13957
  8
0
 10
174.02931978926051
 20
-112.7626725153718
 30
0.0
  0
VERTEX
  5
13958
  8
0
 10
173.94965562038121
 20
-112.1984801518451
 30
0.0
  0
VERTEX
  5
13959
  8
0
 10
173.80414112471041
 20
-111.6880955903511
 30
0.0
  0
VERTEX
  5
1395A
  8
0
 10
173.71577002108091
 20
-111.452977618454
 30
0.0
  0
VERTEX
  5
1395B
  8
0
 10
173.63149208016691
 20
-111.2542419957649
 30
0.0
  0
VERTEX
  5
1395C
  8
0
 10
173.56296280398959
 20
-111.10536356295449
 30
0.0
  0
VERTEX
  5
1395D
  8
0
 10
173.5162295028567
 20
-111.00892208355469
 30
0.0
  0
VERTEX
  5
1395E
  8
0
 10
173.5002340376376
 20
-110.97672975460991
 30
0.0
  0
VERTEX
  5
1395F
  8
0
 10
173.5015430115163
 20
-110.9793586454074
 30
0.0
  0
SEQEND
  5
13960
  8
0
  0
LINE
  5
11663
  8
0
 10
173.49999981001011
 20
-115.4762620369624
 30
0.0
 11
181.50000018998961
 21
-115.4762620369624
 31
0.0
  0
LINE
  5
11664
  8
0
 10
180.05662435665721
 20
-117.9762622139137
 30
0.0
 11
174.94337564334259
 21
-117.9762622139137
 31
0.0
  0
LINE
  5
11669
  8
0
 10
187.25000020116559
 20
-85.373270669160405
 30
0.0
 11
167.7499997988341
 21
-85.373270669160405
 31
0.0
  0
LINE
  5
11674
  8
0
 10
168.50000038743011
 20
-99.873270717589207
 30
0.0
 11
186.4999996125697
 21
-99.873270717589207
 31
0.0
  0
LINE
  5
11675
  8
0
 10
185.5000003799795
 20
-100.87327041584059
 30
0.0
 11
169.4999996200203
 21
-100.87327041584059
 31
0.0
  0
LINE
  5
11678
  8
0
 10
161.15798033773891
 20
-87.772569962916847
 30
0.0
 11
193.84201966226081
 21
-87.772569962916847
 31
0.0
  0
LINE
  5
11679
  8
1
 10
177.4999999999998
 20
-75.003270445642983
 30
0.0
 11
177.4999999999998
 21
-122.9762622139137
 31
0.0
  0
LINE
  5
1167A
  8
1
 10
186.50000021606681
 20
-112.9762621118407
 30
0.0
 11
168.49999978393311
 21
-112.9762621118407
 31
0.0
  0
LINE
  5
1167B
  8
1
 10
163.49999956786621
 20
-102.87327041584059
 30
0.0
 11
163.49999956786621
 21
-93.373270445642987
 31
0.0
  0
LINE
  5
1167D
  8
0
 10
186.4999996125697
 20
-99.873270717589207
 30
0.0
 11
185.5000003799795
 21
-100.87327041584059
 31
0.0
  0
LINE
  5
116C1
  8
0
 10
181.50000018998961
 20
-107.373270445643
 30
0.0
 11
199.99999999999989
 21
-107.373270445643
 31
0.0
  0
LINE
  5
116C2
  8
0
 10
173.49999981001019
 20
-106.8732704456431
 30
0.0
 11
168.50000000000011
 21
-106.8732704456431
 31
0.0
  0
LINE
  5
11706
  8
0
 10
164.9999998137354
 20
-95.873270445642945
 30
0.0
 11
165.2000000000001
 21
-95.873270445642987
 31
0.0
  0
LINE
  5
117DA
  8
0
 10
321.24999955296522
 20
-108.87327041584059
 30
0.0
 11
321.24999955296522
 21
-105.87327085542501
 31
0.0
  0
LINE
  5
117DB
  8
0
 10
315.74999958276749
 20
-105.87327085542501
 30
0.0
 11
315.74999958276749
 21
-108.87327041584059
 31
0.0
  0
LINE
  5
117DC
  8
0
 10
319.99999981373549
 20
-105.87327085542501
 30
0.0
 11
319.99999981373549
 21
-103.3732704456431
 31
0.0
  0
LINE
  5
117DD
  8
0
 10
317.00000025331968
 20
-103.3732704456431
 30
0.0
 11
317.00000025331968
 21
-105.87327085542501
 31
0.0
  0
LINE
  5
117E2
  8
0
 10
325.80000020563591
 20
-118.976261997847
 30
0.0
 11
325.49999978393322
 21
-119.27626218671919
 31
0.0
  0
LINE
  5
117E3
  8
0
 10
325.49999978393322
 20
-122.6762621153799
 30
0.0
 11
325.80000020563591
 21
-122.9762620714214
 31
0.0
  0
LINE
  5
117E4
  8
0
 10
325.80000020563591
 20
-122.9762620714214
 30
0.0
 11
328.49999981001019
 21
-122.9762620714214
 31
0.0
  0
LINE
  5
117E5
  8
0
 10
336.50000018998981
 20
-122.9762620714214
 30
0.0
 11
339.19999979436398
 21
-122.9762620714214
 31
0.0
  0
LINE
  5
117E6
  8
0
 10
339.19999979436398
 20
-118.976261997847
 30
0.0
 11
336.50000018998981
 21
-118.976261997847
 31
0.0
  0
LINE
  5
117E7
  8
0
 10
328.49999981001019
 20
-118.976261997847
 30
0.0
 11
325.80000020563591
 21
-118.976261997847
 31
0.0
  0
LINE
  5
117E8
  8
0
 10
339.19999979436398
 20
-122.9762620714214
 30
0.0
 11
339.50000021606678
 21
-122.6762621153799
 31
0.0
  0
LINE
  5
117E9
  8
0
 10
339.50000021606678
 20
-119.27626218671919
 30
0.0
 11
339.19999979436398
 21
-118.976261997847
 31
0.0
  0
LINE
  5
117EE
  8
0
 10
336.50000018998981
 20
-118.976261997847
 30
0.0
 11
336.50000018998981
 21
-108.87327041584081
 31
0.0
  0
LINE
  5
117EF
  8
0
 10
336.50000018998981
 20
-123.4762620369625
 30
0.0
 11
336.50000018998981
 21
-122.9762620714214
 31
0.0
  0
LINE
  5
117F0
  8
0
 10
328.49999981001019
 20
-122.9762620714214
 30
0.0
 11
328.49999981001019
 21
-123.4762620369625
 31
0.0
  0
LINE
  5
117F1
  8
0
 10
328.49999981001019
 20
-108.87327041584081
 30
0.0
 11
328.49999981001019
 21
-118.976261997847
 31
0.0
  0
LINE
  5
117F2
  8
0
 10
328.49999981001019
 20
-123.4762620369625
 30
0.0
 11
329.94337564334268
 21
-125.9762622139138
 31
0.0
  0
LINE
  5
117F3
  8
0
 10
335.05662435665732
 20
-125.9762622139138
 30
0.0
 11
336.50000018998981
 21
-123.4762620369625
 31
0.0
  0
LINE
  5
11805
  8
0
 10
315.49999907612801
 20
-102.8732703636867
 30
0.0
 11
316.00000008940702
 21
-103.3732704456431
 31
0.0
  0
LINE
  5
11806
  8
0
 10
348.99999991059298
 20
-103.3732704456431
 30
0.0
 11
349.50000092387199
 21
-102.8732703636867
 31
0.0
  0
ARC
  5
11807
  8
0
 10
316.5
 20
-96.712262286590899
 30
0.0
 40
1.0
 50
110.0
 51
180.0
  0
ARC
  5
11808
  8
0
 10
348.5
 20
-96.712262286590899
 30
0.0
 40
1.0
 50
0.0
 51
69.999999999999957
  0
LINE
  5
11809
  8
0
 10
349.50000092387199
 20
-102.8732703636867
 30
0.0
 11
349.50000092387199
 21
-96.712261402187977
 31
0.0
  0
LINE
  5
1180A
  8
0
 10
315.49999907612801
 20
-96.712261402187977
 30
0.0
 11
315.49999907612801
 21
-102.8732703636867
 31
0.0
  0
LINE
  5
1180B
  8
0
 10
348.84201966226101
 20
-95.772569962917004
 30
0.0
 11
342.25000020116568
 21
-93.373270669160505
 31
0.0
  0
LINE
  5
1180C
  8
0
 10
322.74999979883432
 20
-93.373270669160505
 30
0.0
 11
316.15798033773888
 21
-95.772569962917004
 31
0.0
  0
ARC
  5
1180D
  8
0
 10
341.89999999999998
 20
-103.77327054995121
 30
0.0
 40
0.4000000000000057
 50
90.0
 51
180.0
  0
ARC
  5
1180E
  8
0
 10
323.10000000000002
 20
-103.77327054995121
 30
0.0
 40
0.4000000000000057
 50
0.0
 51
90.0
  0
LINE
  5
1180F
  8
0
 10
341.49999961256992
 20
-114.8732704456431
 30
0.0
 11
341.49999961256981
 21
-103.7732706974727
 31
0.0
  0
LINE
  5
11810
  8
0
 10
323.50000038743019
 20
-103.7732706974727
 30
0.0
 11
323.5000003874303
 21
-114.8732704456432
 31
0.0
  0
LINE
  5
11811
  8
0
 10
323.50000038743019
 20
-107.87327071758919
 30
0.0
 11
324.49999962002039
 21
-108.87327041584059
 31
0.0
  0
LINE
  5
11812
  8
0
 10
321.24999955296522
 20
-108.87327041584059
 30
0.0
 11
315.74999958276749
 21
-108.87327041584059
 31
0.0
  0
LINE
  5
11815
  8
0
 10
325.80000020563591
 20
-118.976261997847
 30
0.0
 11
325.80000020563591
 21
-122.9762620714214
 31
0.0
  0
LINE
  5
11816
  8
0
 10
325.49999978393322
 20
-119.2862371171546
 30
0.0
 11
325.49999978393322
 21
-119.27626218671919
 31
0.0
  0
LINE
  5
11817
  8
0
 10
325.49999978393322
 20
-122.6762621153799
 30
0.0
 11
325.49999978393322
 21
-119.2862371171546
 31
0.0
  0
LINE
  5
11818
  8
0
 10
339.19999979436398
 20
-118.987997360779
 30
0.0
 11
339.19999979436398
 21
-118.976261997847
 31
0.0
  0
LINE
  5
11819
  8
0
 10
339.19999979436398
 20
-122.9762620714214
 30
0.0
 11
339.19999979436398
 21
-118.987997360779
 31
0.0
  0
LINE
  5
1181A
  8
0
 10
339.50000021606678
 20
-119.27626218671919
 30
0.0
 11
339.50000021606678
 21
-122.6762621153799
 31
0.0
  0
POLYLINE
  5
1181C
  8
0
 66
     1
 10
0.0
 20
0.0
 30
0.0
 70
   128
  0
VERTEX
  5
13961
  8
0
 10
336.49672705680121
 20
-118.9828192072642
 30
0.0
  0
VERTEX
  5
13962
  8
0
 10
336.49825675413013
 20
-118.9797511978728
 30
0.0
  0
VERTEX
  5
13963
  8
0
 10
336.43657758831972
 20
-119.1063312071097
 30
0.0
  0
VERTEX
  5
13964
  8
0
 10
336.30482967011631
 20
-119.4024994692487
 30
0.0
  0
VERTEX
  5
13965
  8
0
 10
336.13226188346738
 20
-119.88386704611599
 30
0.0
  0
VERTEX
  5
13966
  8
0
 10
336.05262076482182
 20
-120.1881543456298
 30
0.0
  0
VERTEX
  5
13967
  8
0
 10
335.99252019077539
 20
-120.53163018568431
 30
0.0
  0
VERTEX
  5
13968
  8
0
 10
335.96630625426769
 20
-120.85265533092441
 30
0.0
  0
VERTEX
  5
13969
  8
0
 10
335.97068021073937
 20
-121.1898516848638
 30
0.0
  0
VERTEX
  5
1396A
  8
0
 10
336.05034437961882
 20
-121.7540440629423
 30
0.0
  0
VERTEX
  5
1396B
  8
0
 10
336.19585887528962
 20
-122.26442865354019
 30
0.0
  0
VERTEX
  5
1396C
  8
0
 10
336.28422997891897
 20
-122.4995465672296
 30
0.0
  0
VERTEX
  5
1396D
  8
0
 10
336.36850791983312
 20
-122.6982821899188
 30
0.0
  0
VERTEX
  5
1396E
  8
0
 10
336.43703719601018
 20
-122.84716062272911
 30
0.0
  0
VERTEX
  5
1396F
  8
0
 10
336.48377049714333
 20
-122.94360210212891
 30
0.0
  0
VERTEX
  5
13970
  8
0
 10
336.49976596236218
 20
-122.9757943146583
 30
0.0
  0
VERTEX
  5
13971
  8
0
 10
336.49845698848372
 20
-122.9731655402762
 30
0.0
  0
SEQEND
  5
13972
  8
0
  0
POLYLINE
  5
1181D
  8
0
 66
     1
 10
0.0
 20
0.0
 30
0.0
 70
   128
  0
VERTEX
  5
13973
  8
0
 10
328.50327294319868
 20
-122.96970509483489
 30
0.0
  0
VERTEX
  5
13974
  8
0
 10
328.50174324586987
 20
-122.972772987811
 30
0.0
  0
VERTEX
  5
13975
  8
0
 10
328.56342241168028
 20
-122.846192978574
 30
0.0
  0
VERTEX
  5
13976
  8
0
 10
328.69517032988369
 20
-122.5500248328504
 30
0.0
  0
VERTEX
  5
13977
  8
0
 10
328.86773811653262
 20
-122.06865719777539
 30
0.0
  0
VERTEX
  5
13978
  8
0
 10
328.94737923517818
 20
-121.7643698691577
 30
0.0
  0
VERTEX
  5
13979
  8
0
 10
329.00747980922461
 20
-121.42089401455139
 30
0.0
  0
VERTEX
  5
1397A
  8
0
 10
329.03369374573231
 20
-121.099868912967
 30
0.0
  0
VERTEX
  5
1397B
  8
0
 10
329.02931978926063
 20
-120.7626725153719
 30
0.0
  0
VERTEX
  5
1397C
  8
0
 10
328.94965562038118
 20
-120.1984801518452
 30
0.0
  0
VERTEX
  5
1397D
  8
0
 10
328.80414112471038
 20
-119.6880955903512
 30
0.0
  0
VERTEX
  5
1397E
  8
0
 10
328.71577002108103
 20
-119.4529776184541
 30
0.0
  0
VERTEX
  5
1397F
  8
0
 10
328.63149208016688
 20
-119.254241995765
 30
0.0
  0
VERTEX
  5
13980
  8
0
 10
328.56296280398971
 20
-119.10536356295469
 30
0.0
  0
VERTEX
  5
13981
  8
0
 10
328.51622950285667
 20
-119.00892208355491
 30
0.0
  0
VERTEX
  5
13982
  8
0
 10
328.5002340376376
 20
-118.9767297546101
 30
0.0
  0
VERTEX
  5
13983
  8
0
 10
328.50154301151628
 20
-118.9793586454076
 30
0.0
  0
SEQEND
  5
13984
  8
0
  0
LINE
  5
1181E
  8
0
 10
328.49999981001019
 20
-123.4762620369625
 30
0.0
 11
336.50000018998981
 21
-123.4762620369625
 31
0.0
  0
LINE
  5
1181F
  8
0
 10
335.05662435665732
 20
-125.9762622139138
 30
0.0
 11
329.94337564334268
 21
-125.9762622139138
 31
0.0
  0
LINE
  5
11824
  8
0
 10
342.25000020116568
 20
-93.373270669160505
 30
0.0
 11
322.74999979883432
 21
-93.373270669160505
 31
0.0
  0
LINE
  5
1182F
  8
0
 10
323.50000038743019
 20
-107.87327071758919
 30
0.0
 11
341.49999961256981
 21
-107.87327071758919
 31
0.0
  0
LINE
  5
11830
  8
0
 10
340.50000037997961
 20
-108.87327041584059
 30
0.0
 11
324.49999962002039
 21
-108.87327041584059
 31
0.0
  0
LINE
  5
11833
  8
0
 10
316.15798033773888
 20
-95.772569962917004
 30
0.0
 11
348.84201966226078
 21
-95.772569962917004
 31
0.0
  0
LINE
  5
11834
  8
1
 10
332.5
 20
-83.003270609555855
 30
0.0
 11
332.5
 21
-130.9762622139138
 31
0.0
  0
LINE
  5
11835
  8
1
 10
341.50000021606689
 20
-120.9762621118409
 30
0.0
 11
323.49999978393322
 21
-120.9762621118409
 31
0.0
  0
LINE
  5
11836
  8
1
 10
318.49999956786638
 20
-110.87327041584059
 30
0.0
 11
318.49999956786638
 21
-101.3732704456431
 31
0.0
  0
LINE
  5
11838
  8
0
 10
341.49999961256981
 20
-107.87327071758919
 30
0.0
 11
340.50000037997961
 21
-108.87327041584059
 31
0.0
  0
LINE
  5
1187C
  8
0
 10
315.0
 20
-103.3732704456431
 30
0.0
 11
350.0
 21
-103.3732704456431
 31
0.0
  0
LINE
  5
1187D
  8
0
 10
310.0
 20
-95.373270445643087
 30
0.0
 11
317.25504655016402
 21
-95.373270445643087
 31
0.0
  0
LINE
  5
1187E
  8
0
 10
315.0
 20
-95.873270445643087
 30
0.0
 11
314.5
 21
-95.373270445643087
 31
0.0
  0
LINE
  5
1187F
  8
0
 10
310.0
 20
-115.373270445643
 30
0.0
 11
328.49999981001019
 21
-115.373270445643
 31
0.0
  0
LINE
  5
11881
  8
0
 10
315.0
 20
-95.873270445643087
 30
0.0
 11
315.0
 21
-103.3732704456431
 31
0.0
  0
LINE
  5
11882
  8
0
 10
350.0
 20
-95.873270445643087
 30
0.0
 11
350.5
 21
-95.373270445643087
 31
0.0
  0
LINE
  5
11883
  8
0
 10
350.0
 20
-95.873270445643087
 30
0.0
 11
350.0
 21
-103.3732704456431
 31
0.0
  0
LINE
  5
11884
  8
0
 10
315.0
 20
-95.873270445643087
 30
0.0
 11
315.95585600175792
 21
-95.873270445643087
 31
0.0
  0
LINE
  5
11885
  8
0
 10
323.50000000000011
 20
-104.3732704456431
 30
0.0
 11
322.5
 21
-103.3732704456431
 31
0.0
  0
LINE
  5
11886
  8
0
 10
316.7999999999999
 20
-103.8732704456431
 30
0.0
 11
316.30000000000001
 21
-103.3732704456431
 31
0.0
  0
LINE
  5
11887
  8
0
 10
315.25
 20
-105.8732704456431
 30
0.0
 11
321.75
 21
-105.8732704456431
 31
0.0
  0
LINE
  5
11888
  8
0
 10
323.50000000000011
 20
-114.8732704456431
 30
0.0
 11
323.0
 21
-115.3732704456431
 31
0.0
  0
LINE
  5
11889
  8
0
 10
315.25
 20
-114.8732704456431
 30
0.0
 11
314.75
 21
-115.3732704456431
 31
0.0
  0
LINE
  5
1188C
  8
0
 10
316.7999999999999
 20
-103.8732704456431
 30
0.0
 11
316.7999999999999
 21
-105.8732704456431
 31
0.0
  0
LINE
  5
1188D
  8
0
 10
315.25
 20
-105.8732704456431
 30
0.0
 11
315.25
 21
-114.8732704456431
 31
0.0
  0
LINE
  5
1188E
  8
0
 10
320.2000000000001
 20
-103.8732704456431
 30
0.0
 11
320.7000000000001
 21
-103.3732704456431
 31
0.0
  0
LINE
  5
1188F
  8
0
 10
321.75
 20
-114.8732704456431
 30
0.0
 11
322.25
 21
-115.3732704456431
 31
0.0
  0
LINE
  5
11890
  8
0
 10
320.2000000000001
 20
-103.8732704456431
 30
0.0
 11
320.2000000000001
 21
-105.8732704456431
 31
0.0
  0
LINE
  5
11891
  8
0
 10
321.75
 20
-105.8732704456431
 30
0.0
 11
321.75
 21
-114.8732704456431
 31
0.0
  0
LINE
  5
11892
  8
0
 10
316.7999999999999
 20
-103.8732704456431
 30
0.0
 11
317.00000025331968
 21
-103.8732704456431
 31
0.0
  0
LINE
  5
11893
  8
0
 10
315.25
 20
-114.8732704456431
 30
0.0
 11
321.75
 21
-114.8732704456431
 31
0.0
  0
LINE
  5
11894
  8
0
 10
341.5
 20
-104.3732704456431
 30
0.0
 11
342.5
 21
-103.3732704456431
 31
0.0
  0
LINE
  5
11895
  8
0
 10
341.49999999999989
 20
-114.8732704456431
 30
0.0
 11
341.99999999999989
 21
-115.3732704456431
 31
0.0
  0
LINE
  5
11898
  8
0
 10
341.49999999999989
 20
-114.8732704456431
 30
0.0
 11
336.50000018998981
 21
-114.8732704456431
 31
0.0
  0
LINE
  5
11899
  8
0
 10
347.74495344983598
 20
-95.373270445643087
 30
0.0
 11
355.0
 21
-95.373270445643087
 31
0.0
  0
LINE
  5
1189A
  8
0
 10
349.04414399824219
 20
-95.873270445643087
 30
0.0
 11
350.0
 21
-95.873270445643087
 31
0.0
  0
LINE
  5
1189B
  8
0
 10
336.50000018998981
 20
-115.373270445643
 30
0.0
 11
355.0
 21
-115.373270445643
 31
0.0
  0
LINE
  5
1189C
  8
0
 10
328.49999981001019
 20
-114.8732704456432
 30
0.0
 11
323.50000000000011
 21
-114.8732704456432
 31
0.0
  0
LINE
  5
1189D
  8
0
 10
319.9999998137356
 20
-103.8732704456431
 30
0.0
 11
320.2000000000001
 21
-103.8732704456431
 31
0.0
  0
LINE
  5
11A91
  8
3
 10
109.10514411759431
 20
113.9999997206032
 30
0.0
 11
109.10514411759431
 21
114.9999996647238
 31
0.0
  0
LINE
  5
11A92
  8
3
 10
109.10514411759431
 20
113.9999997206032
 30
0.0
 11
109.3756441175935
 21
113.5314799771571
 31
0.0
  0
LINE
  5
11A93
  8
3
 10
106.6461441175928
 20
113.9999997206032
 30
0.0
 11
106.3756441175935
 21
113.5314799771571
 31
0.0
  0
LINE
  5
11A94
  8
3
 10
106.6461441175928
 20
113.9999997206032
 30
0.0
 11
106.6461441175928
 21
114.9999996647238
 31
0.0
  0
LINE
  5
11A95
  8
0
 10
106.3756441175935
 20
113.9999997206032
 30
0.0
 11
109.3756441175935
 21
113.9999997206032
 31
0.0
  0
LINE
  5
11A96
  8
3
 10
121.2295000000006
 20
113.9999997206032
 30
0.0
 11
121.2295000000006
 21
114.9999996647238
 31
0.0
  0
LINE
  5
11A97
  8
3
 10
121.2295000000006
 20
113.9999997206032
 30
0.0
 11
121.4999999999998
 21
113.5314799771571
 31
0.0
  0
LINE
  5
11A98
  8
3
 10
118.7704999999991
 20
113.9999997206032
 30
0.0
 11
118.4999999999998
 21
113.5314799771571
 31
0.0
  0
LINE
  5
11A99
  8
3
 10
118.7704999999991
 20
113.9999997206032
 30
0.0
 11
118.7704999999991
 21
114.9999996647238
 31
0.0
  0
LINE
  5
11A9A
  8
0
 10
118.4999999999998
 20
113.9999997206032
 30
0.0
 11
121.4999999999998
 21
113.9999997206032
 31
0.0
  0
LINE
  5
11A9B
  8
3
 10
133.35385588240669
 20
113.9999997206032
 30
0.0
 11
133.35385588240669
 21
114.9999996647238
 31
0.0
  0
LINE
  5
11A9C
  8
3
 10
133.35385588240669
 20
113.9999997206032
 30
0.0
 11
133.62435588240601
 21
113.5314799771571
 31
0.0
  0
LINE
  5
11A9D
  8
3
 10
130.89485588240521
 20
113.9999997206032
 30
0.0
 11
130.62435588240601
 21
113.5314799771571
 31
0.0
  0
LINE
  5
11A9E
  8
3
 10
130.8948558824053
 20
113.9999997206032
 30
0.0
 11
130.89485588240521
 21
114.9999996647238
 31
0.0
  0
LINE
  5
11A9F
  8
0
 10
130.62435588240601
 20
113.9999997206032
 30
0.0
 11
133.62435588240581
 21
113.9999997206032
 31
0.0
  0
LINE
  5
11AA0
  8
3
 10
169.72949975413141
 20
113.9999997206032
 30
0.0
 11
169.72949975413141
 21
114.9999996647238
 31
0.0
  0
LINE
  5
11AA1
  8
3
 10
169.72949975413141
 20
113.9999997206032
 30
0.0
 11
169.9999997541307
 21
113.5314799771571
 31
0.0
  0
LINE
  5
11AA2
  8
3
 10
167.27049975412999
 20
113.9999997206032
 30
0.0
 11
166.9999997541307
 21
113.5314799771571
 31
0.0
  0
LINE
  5
11AA3
  8
3
 10
167.27049975412999
 20
113.9999997206032
 30
0.0
 11
167.27049975412999
 21
114.9999996647238
 31
0.0
  0
LINE
  5
11AA4
  8
0
 10
166.9999997541307
 20
113.9999997206032
 30
0.0
 11
169.9999997541307
 21
113.9999997206032
 31
0.0
  0
LINE
  5
11AA5
  8
3
 10
190.72950040233189
 20
113.9999997206032
 30
0.0
 11
190.72950040233189
 21
114.9999996647238
 31
0.0
  0
LINE
  5
11AA6
  8
3
 10
190.72950040233201
 20
113.9999997206032
 30
0.0
 11
191.00000040233121
 21
113.5314799771571
 31
0.0
  0
LINE
  5
11AA7
  8
3
 10
188.2705004023305
 20
113.9999997206032
 30
0.0
 11
188.00000040233121
 21
113.5314799771571
 31
0.0
  0
LINE
  5
11AA8
  8
3
 10
188.2705004023305
 20
113.9999997206032
 30
0.0
 11
188.2705004023305
 21
114.9999996647238
 31
0.0
  0
LINE
  5
11AA9
  8
0
 10
188.00000040233121
 20
113.9999997206032
 30
0.0
 11
191.00000040233121
 21
113.9999997206032
 31
0.0
  0
LINE
  5
11AAA
  8
3
 10
234.10514449012331
 20
113.9999997206032
 30
0.0
 11
234.10514449012331
 21
114.9999996647238
 31
0.0
  0
LINE
  5
11AAB
  8
3
 10
234.10514449012331
 20
113.9999997206032
 30
0.0
 11
234.3756444901226
 21
113.5314799771571
 31
0.0
  0
LINE
  5
11AAC
  8
3
 10
231.6461444901218
 20
113.9999997206032
 30
0.0
 11
231.3756444901226
 21
113.5314799771571
 31
0.0
  0
LINE
  5
11AAD
  8
3
 10
231.64614449012191
 20
113.9999997206032
 30
0.0
 11
231.6461444901218
 21
114.9999996647238
 31
0.0
  0
LINE
  5
11AAE
  8
0
 10
231.3756444901226
 20
113.9999997206032
 30
0.0
 11
234.3756444901226
 21
113.9999997206032
 31
0.0
  0
LINE
  5
11AAF
  8
3
 10
258.35385625493581
 20
113.9999997206032
 30
0.0
 11
258.35385625493581
 21
114.9999996647238
 31
0.0
  0
LINE
  5
11AB0
  8
3
 10
258.35385625493581
 20
113.9999997206032
 30
0.0
 11
258.62435625493509
 21
113.5314799771571
 31
0.0
  0
LINE
  5
11AB1
  8
3
 10
255.8948562549343
 20
113.9999997206032
 30
0.0
 11
255.62435625493509
 21
113.5314799771571
 31
0.0
  0
LINE
  5
11AB2
  8
3
 10
255.8948562549343
 20
113.9999997206032
 30
0.0
 11
255.8948562549343
 21
114.9999996647238
 31
0.0
  0
LINE
  5
11AB3
  8
0
 10
255.62435625493509
 20
113.9999997206032
 30
0.0
 11
258.62435625493498
 21
113.9999997206032
 31
0.0
  0
LINE
  5
11ADD
  8
3
 10
334.10514449012328
 20
113.9999997206032
 30
0.0
 11
334.10514449012328
 21
114.9999996647238
 31
0.0
  0
LINE
  5
11ADE
  8
3
 10
334.10514449012328
 20
113.9999997206032
 30
0.0
 11
334.37564449012251
 21
113.5314799771571
 31
0.0
  0
LINE
  5
11ADF
  8
3
 10
331.6461444901218
 20
113.9999997206032
 30
0.0
 11
331.37564449012251
 21
113.5314799771571
 31
0.0
  0
LINE
  5
11AE0
  8
3
 10
331.6461444901218
 20
113.9999997206032
 30
0.0
 11
331.6461444901218
 21
114.9999996647238
 31
0.0
  0
LINE
  5
11AE1
  8
0
 10
331.37564449012262
 20
113.9999997206032
 30
0.0
 11
334.37564449012251
 21
113.9999997206032
 31
0.0
  0
LINE
  5
11AE2
  8
3
 10
346.22950037252963
 20
113.9999997206032
 30
0.0
 11
346.22950037252963
 21
114.9999996647238
 31
0.0
  0
LINE
  5
11AE3
  8
3
 10
346.22950037252963
 20
113.9999997206032
 30
0.0
 11
346.50000037252892
 21
113.5314799771571
 31
0.0
  0
LINE
  5
11AE4
  8
3
 10
343.77050037252809
 20
113.9999997206032
 30
0.0
 11
343.5000003725288
 21
113.5314799771571
 31
0.0
  0
LINE
  5
11AE5
  8
3
 10
343.77050037252809
 20
113.9999997206032
 30
0.0
 11
343.77050037252809
 21
114.9999996647238
 31
0.0
  0
LINE
  5
11AE6
  8
0
 10
343.50000037252892
 20
113.9999997206032
 30
0.0
 11
346.50000037252892
 21
113.9999997206032
 31
0.0
  0
LINE
  5
11AE7
  8
3
 10
358.35385625493581
 20
113.9999997206032
 30
0.0
 11
358.35385625493581
 21
114.9999996647238
 31
0.0
  0
LINE
  5
11AE8
  8
3
 10
358.35385625493581
 20
113.9999997206032
 30
0.0
 11
358.62435625493492
 21
113.5314799771571
 31
0.0
  0
LINE
  5
11AE9
  8
3
 10
355.89485625493421
 20
113.9999997206032
 30
0.0
 11
355.62435625493492
 21
113.5314799771571
 31
0.0
  0
LINE
  5
11AEA
  8
3
 10
355.89485625493438
 20
113.9999997206032
 30
0.0
 11
355.89485625493421
 21
114.9999996647238
 31
0.0
  0
LINE
  5
11AEB
  8
0
 10
355.62435625493492
 20
113.9999997206032
 30
0.0
 11
358.62435625493492
 21
113.9999997206032
 31
0.0
  0
LINE
  5
11AEC
  8
3
 10
394.72950012666041
 20
113.9999997206032
 30
0.0
 11
394.72950012666041
 21
114.9999996647238
 31
0.0
  0
LINE
  5
11AED
  8
3
 10
394.72950012666053
 20
113.9999997206032
 30
0.0
 11
395.0000001266597
 21
113.5314799771571
 31
0.0
  0
LINE
  5
11AEE
  8
3
 10
392.27050012665899
 20
113.9999997206032
 30
0.0
 11
392.0000001266597
 21
113.5314799771571
 31
0.0
  0
LINE
  5
11AEF
  8
3
 10
392.27050012665899
 20
113.9999997206032
 30
0.0
 11
392.27050012665899
 21
114.9999996647238
 31
0.0
  0
LINE
  5
11AF0
  8
0
 10
392.0000001266597
 20
113.9999997206032
 30
0.0
 11
395.00000012665959
 21
113.9999997206032
 31
0.0
  0
LINE
  5
11AF1
  8
3
 10
415.72950077486081
 20
113.9999997206032
 30
0.0
 11
415.72950077486081
 21
114.9999996647238
 31
0.0
  0
LINE
  5
11AF2
  8
3
 10
415.72950077486092
 20
113.9999997206032
 30
0.0
 11
416.0000007748601
 21
113.5314799771571
 31
0.0
  0
LINE
  5
11AF3
  8
3
 10
413.27050077485939
 20
113.9999997206032
 30
0.0
 11
413.0000007748601
 21
113.5314799771571
 31
0.0
  0
LINE
  5
11AF4
  8
3
 10
413.27050077485939
 20
113.9999997206032
 30
0.0
 11
413.27050077485939
 21
114.9999996647238
 31
0.0
  0
LINE
  5
11AF5
  8
0
 10
413.0000007748601
 20
113.9999997206032
 30
0.0
 11
416.0000007748601
 21
113.9999997206032
 31
0.0
  0
LINE
  5
11AF6
  8
3
 10
459.10514486265208
 20
113.9999997206032
 30
0.0
 11
459.10514486265208
 21
114.9999996647238
 31
0.0
  0
LINE
  5
11AF7
  8
3
 10
459.10514486265208
 20
113.9999997206032
 30
0.0
 11
459.3756448626516
 21
113.5314799771571
 31
0.0
  0
LINE
  5
11AF8
  8
3
 10
456.64614486265077
 20
113.9999997206032
 30
0.0
 11
456.3756448626516
 21
113.5314799771571
 31
0.0
  0
LINE
  5
11AF9
  8
3
 10
456.64614486265077
 20
113.9999997206032
 30
0.0
 11
456.64614486265077
 21
114.9999996647238
 31
0.0
  0
LINE
  5
11AFA
  8
0
 10
456.3756448626516
 20
113.9999997206032
 30
0.0
 11
459.37564486265143
 21
113.9999997206032
 31
0.0
  0
LINE
  5
11AFB
  8
3
 10
483.35385662746472
 20
113.9999997206032
 30
0.0
 11
483.35385662746472
 21
114.9999996647238
 31
0.0
  0
LINE
  5
11AFC
  8
3
 10
483.35385662746472
 20
113.9999997206032
 30
0.0
 11
483.62435662746412
 21
113.5314799771571
 31
0.0
  0
LINE
  5
11AFD
  8
3
 10
480.8948566274633
 20
113.9999997206032
 30
0.0
 11
480.6243566274639
 21
113.5314799771571
 31
0.0
  0
LINE
  5
11AFE
  8
3
 10
480.8948566274633
 20
113.9999997206032
 30
0.0
 11
480.8948566274633
 21
114.9999996647238
 31
0.0
  0
LINE
  5
11AFF
  8
0
 10
480.6243566274639
 20
113.9999997206032
 30
0.0
 11
483.62435662746401
 21
113.9999997206032
 31
0.0
  0
LINE
  5
11B00
  8
3
 10
164.72950000000071
 20
-96.373269979981714
 30
0.0
 11
164.72950000000071
 21
-95.373270035861054
 31
0.0
  0
LINE
  5
11B01
  8
3
 10
164.7295000000008
 20
-96.373269979981714
 30
0.0
 11
165.0
 21
-96.841789723427809
 31
0.0
  0
LINE
  5
11B02
  8
3
 10
162.27049999999929
 20
-96.373269979981714
 30
0.0
 11
162.0
 21
-96.841789723427809
 31
0.0
  0
LINE
  5
11B03
  8
3
 10
162.27049999999929
 20
-96.373269979981714
 30
0.0
 11
162.27049999999929
 21
-95.373270035861054
 31
0.0
  0
LINE
  5
11B04
  8
0
 10
162.0
 20
-96.373269979981714
 30
0.0
 11
165.0
 21
-96.373269979981714
 31
0.0
  0
LINE
  5
11B05
  8
3
 10
319.72949956786692
 20
-104.3732699799818
 30
0.0
 11
319.72949956786692
 21
-103.3732700358611
 31
0.0
  0
LINE
  5
11B06
  8
3
 10
319.72949956786692
 20
-104.3732699799818
 30
0.0
 11
319.99999956786638
 21
-104.84178972342779
 31
0.0
  0
LINE
  5
11B07
  8
3
 10
317.27049956786561
 20
-104.3732699799818
 30
0.0
 11
316.99999956786638
 21
-104.84178972342779
 31
0.0
  0
LINE
  5
11B08
  8
3
 10
317.27049956786561
 20
-104.3732699799818
 30
0.0
 11
317.27049956786561
 21
-103.3732700358611
 31
0.0
  0
LINE
  5
11B09
  8
0
 10
316.99999956786638
 20
-104.3732699799818
 30
0.0
 11
319.99999956786638
 21
-104.3732699799818
 31
0.0
  0
POLYLINE
  5
123FE
  8
0
 66
     1
 10
0.0
 20
0.0
 30
0.0
 70
   128
  0
VERTEX
  5
13985
  8
0
 10
179.41380020231
 20
170.70485893636939
 30
0.0
  0
VERTEX
  5
13986
  8
0
 10
179.80514963157461
 20
173.5749594867228
 30
0.0
  0
VERTEX
  5
13987
  8
0
 10
179.98817710205901
 20
176.48124564439061
 30
0.0
  0
SEQEND
  5
13988
  8
0
  0
POLYLINE
  5
123FF
  8
0
 66
     1
 10
0.0
 20
0.0
 30
0.0
 70
   128
  0
VERTEX
  5
13989
  8
0
 10
179.98817710205901
 20
191.90190974622959
 30
0.0
  0
VERTEX
  5
1398A
  8
0
 10
179.80666349641959
 20
194.7929706424473
 30
0.0
  0
VERTEX
  5
1398B
  8
0
 10
179.41380020231
 20
197.67829645425081
 30
0.0
  0
SEQEND
  5
1398C
  8
0
  0
POLYLINE
  5
12400
  8
0
 66
     1
 10
0.0
 20
0.0
 30
0.0
 70
   128
  0
VERTEX
  5
1398D
  8
0
 10
185.58620017021889
 20
197.67829645425081
 30
0.0
  0
VERTEX
  5
1398E
  8
0
 10
185.19485074095411
 20
194.80819590389731
 30
0.0
  0
VERTEX
  5
1398F
  8
0
 10
185.0118232704697
 20
191.90190974622959
 30
0.0
  0
SEQEND
  5
13990
  8
0
  0
POLYLINE
  5
12401
  8
0
 66
     1
 10
0.0
 20
0.0
 30
0.0
 70
   128
  0
VERTEX
  5
13991
  8
0
 10
185.0118232704697
 20
176.48124564439061
 30
0.0
  0
VERTEX
  5
13992
  8
0
 10
185.19333687610921
 20
173.59018474817259
 30
0.0
  0
VERTEX
  5
13993
  8
0
 10
185.58620017021889
 20
170.70485893636939
 30
0.0
  0
SEQEND
  5
13994
  8
0
  0
ARC
  5
12402
  8
0
 10
182.36989105202511
 20
170.1923688492943
 30
0.0
 40
3.0001865277211359
 50
170.164535414743
 51
269.46241595093329
  0
ARC
  5
12403
  8
0
 10
182.63010932050381
 20
198.19078654132591
 30
0.0
 40
3.0001865277211639
 50
350.16453541474289
 51
89.462415950933263
  0
ARC
  5
12404
  8
0
 10
182.3698893171252
 20
198.1907879874814
 30
0.0
 40
3.0001850653520949
 50
90.537551177542994
 51
189.835497456779
  0
ARC
  5
12405
  8
0
 10
182.6301110554036
 20
170.1923674031388
 30
0.0
 40
3.0001850653520949
 50
270.53755117754309
 51
9.8354974567790148
  0
ARC
  5
12406
  8
0
 10
179.49483542562211
 20
176.77747132782559
 30
0.0
 40
0.4999991783136255
 50
358.89307522174067
 51
62.942438698722754
  0
ARC
  5
12407
  8
0
 10
185.50516494690669
 20
191.60568406279461
 30
0.0
 40
0.4999991783136037
 50
178.89307522174059
 51
242.94243869873009
  0
ARC
  5
12408
  8
0
 10
179.49483496468051
 20
191.60568433885649
 30
0.0
 40
0.4999996338363089
 50
297.05759395016122
 51
1.106892129378233
  0
ARC
  5
12409
  8
0
 10
185.50516540784841
 20
176.77747105176371
 30
0.0
 40
0.4999996338363089
 50
117.0575939501539
 51
181.1068921293782
  0
LINE
  5
1240A
  8
0
 10
179.68265742994839
 20
191.14230303093791
 30
0.0
 11
179.72227775491771
 21
191.16040980443361
 31
0.0
  0
LINE
  5
1240B
  8
0
 10
179.72227775491771
 20
177.22274558618659
 30
0.0
 11
179.68265742994839
 21
177.24085235968229
 31
0.0
  0
LINE
  5
1240C
  8
0
 10
185.2777226176112
 20
191.16040980443361
 30
0.0
 11
185.3173429425805
 21
191.14230303093791
 31
0.0
  0
ARC
  5
1240D
  8
0
 10
182.5000001862644
 20
184.19157769531009
 30
0.0
 40
7.499999999999992
 50
112.0642270007195
 51
247.9357729992804
  0
ARC
  5
1240E
  8
0
 10
182.5000001862644
 20
184.19157769531009
 30
0.0
 40
7.4999999999999947
 50
292.06422700071971
 51
67.935772999287508
  0
LINE
  5
1240F
  8
0
 10
179.9947412963956
 20
191.6153431870043
 30
0.0
 11
179.98817710205901
 21
191.90190974622959
 31
0.0
  0
LINE
  5
12410
  8
0
 10
179.98817710205901
 20
176.48124564439061
 30
0.0
 11
179.9947412963956
 21
176.7678122036159
 31
0.0
  0
LINE
  5
12411
  8
0
 10
185.0052590761332
 20
176.7678122036159
 30
0.0
 11
185.0118232704697
 21
176.48124564439061
 31
0.0
  0
LINE
  5
12412
  8
0
 10
185.0118232704697
 20
191.90190974622959
 30
0.0
 11
185.0052590761332
 21
191.6153431870043
 31
0.0
  0
POLYLINE
  5
12413
  8
0
 66
     1
 10
0.0
 20
0.0
 30
0.0
 70
   128
  0
VERTEX
  5
13995
  8
0
 10
394.01328179985268
 20
187.2777776792644
 30
0.0
  0
VERTEX
  5
13996
  8
0
 10
396.8833823502062
 20
186.8864282499998
 30
0.0
  0
VERTEX
  5
13997
  8
0
 10
399.7896685078739
 20
186.7034007795155
 30
0.0
  0
SEQEND
  5
13998
  8
0
  0
POLYLINE
  5
12414
  8
0
 66
     1
 10
0.0
 20
0.0
 30
0.0
 70
   128
  0
VERTEX
  5
13999
  8
0
 10
415.21033260971291
 20
186.7034007795155
 30
0.0
  0
VERTEX
  5
1399A
  8
0
 10
418.10139350593079
 20
186.88491438515479
 30
0.0
  0
VERTEX
  5
1399B
  8
0
 10
420.98671931773401
 20
187.2777776792644
 30
0.0
  0
SEQEND
  5
1399C
  8
0
  0
POLYLINE
  5
12415
  8
0
 66
     1
 10
0.0
 20
0.0
 30
0.0
 70
   128
  0
VERTEX
  5
1399D
  8
0
 10
420.98671931773401
 20
181.10537771135569
 30
0.0
  0
VERTEX
  5
1399E
  8
0
 10
418.1166187673806
 20
181.49672714062021
 30
0.0
  0
VERTEX
  5
1399F
  8
0
 10
415.21033260971291
 20
181.6797546111047
 30
0.0
  0
SEQEND
  5
139A0
  8
0
  0
POLYLINE
  5
12416
  8
0
 66
     1
 10
0.0
 20
0.0
 30
0.0
 70
   128
  0
VERTEX
  5
139A1
  8
0
 10
399.7896685078739
 20
181.6797546111047
 30
0.0
  0
VERTEX
  5
139A2
  8
0
 10
396.89860761165602
 20
181.49824100546539
 30
0.0
  0
VERTEX
  5
139A3
  8
0
 10
394.01328179985268
 20
181.10537771135569
 30
0.0
  0
SEQEND
  5
139A4
  8
0
  0
ARC
  5
12417
  8
0
 10
393.5007917127777
 20
184.32168682954941
 30
0.0
 40
3.0001865277211359
 50
80.164535414743057
 51
179.46241595093309
  0
ARC
  5
12418
  8
0
 10
421.49920940480888
 20
184.0614685610708
 30
0.0
 40
3.0001865277211639
 50
260.16453541474311
 51
359.46241595093318
  0
ARC
  5
12419
  8
0
 10
421.49921085096469
 20
184.3216885644492
 30
0.0
 40
3.0001850653520949
 50
0.5375511775430116
 51
99.835497456775656
  0
ARC
  5
1241A
  8
0
 10
393.50079026662212
 20
184.06146682617091
 30
0.0
 40
3.0001850653520949
 50
180.53755117754301
 51
279.8354974567788
  0
ARC
  5
1241B
  8
0
 10
400.08589419130891
 20
187.1967424559524
 30
0.0
 40
0.4999991783136255
 50
268.89307522174062
 51
332.9424386987219
  0
ARC
  5
1241C
  8
0
 10
414.91410692627773
 20
181.1864129346678
 30
0.0
 40
0.4999991783136037
 50
88.893075221740659
 51
152.94243869872921
  0
ARC
  5
1241D
  8
0
 10
414.91410720233978
 20
187.1967429168941
 30
0.0
 40
0.4999996338363089
 50
207.05759395016051
 51
271.10689212937831
  0
ARC
  5
1241E
  8
0
 10
400.08589391524703
 20
181.18641247372611
 30
0.0
 40
0.4999996338363089
 50
27.057593950153279
 51
91.106892129378195
  0
LINE
  5
1241F
  8
0
 10
414.45072589442111
 20
187.0089204516261
 30
0.0
 11
414.46883266791679
 21
186.9693001266568
 31
0.0
  0
LINE
  5
12420
  8
0
 10
400.54927522316552
 20
181.37423493899399
 30
0.0
 11
400.53116844967002
 21
181.41385526396331
 31
0.0
  0
LINE
  5
12421
  8
0
 10
400.53116844967002
 20
186.9693001266568
 30
0.0
 11
400.54927522316552
 21
187.0089204516261
 31
0.0
  0
LINE
  5
12422
  8
0
 10
414.46883266791679
 20
181.41385526396331
 30
0.0
 11
414.45072589442111
 21
181.37423493899399
 31
0.0
  0
ARC
  5
12423
  8
0
 10
407.5000005587932
 20
184.19157769531009
 30
0.0
 40
7.499999999999992
 50
22.06422700071964
 51
157.93577299928029
  0
ARC
  5
12424
  8
0
 10
407.5000005587932
 20
184.19157769531009
 30
0.0
 40
7.4999999999999947
 50
202.06422700071971
 51
337.93577299928751
  0
LINE
  5
12425
  8
0
 10
414.92376605048747
 20
186.6968365851788
 30
0.0
 11
415.21033260971291
 21
186.7034007795155
 31
0.0
  0
LINE
  5
12426
  8
0
 10
399.7896685078739
 20
186.7034007795155
 30
0.0
 11
400.07623506709911
 21
186.6968365851788
 31
0.0
  0
LINE
  5
12427
  8
0
 10
400.07623506709911
 20
181.68631880544109
 30
0.0
 11
399.7896685078739
 21
181.6797546111047
 31
0.0
  0
LINE
  5
12428
  8
0
 10
415.21033260971291
 20
181.6797546111047
 30
0.0
 11
414.92376605048747
 21
181.68631880544109
 31
0.0
  0
LINE
  5
12429
  8
0
 10
185.27772261761109
 20
177.22274558618659
 30
0.0
 11
185.31734294258041
 21
177.24085235968229
 31
0.0
  0
LINE
  5
1242A
  8
0
 10
415.0000003911552
 20
124.9999994412064
 30
0.0
 11
415.0000003911552
 21
125.16787406057119
 31
0.0
  0
LINE
  5
1242B
  8
0
 10
400.00000072643121
 20
125.16787406057119
 30
0.0
 11
400.00000072643121
 21
124.9999994412064
 31
0.0
  0
LINE
  5
1242C
  8
0
 10
415.0000003911552
 20
125.16787406057119
 30
0.0
 11
414.5000007748601
 21
125.6678750738501
 31
0.0
  0
LINE
  5
1242D
  8
0
 10
400.50000034272631
 20
125.6678750738501
 30
0.0
 11
400.00000072643121
 21
125.16787406057119
 31
0.0
  0
ARC
  5
1242E
  8
0
 10
407.5000005587932
 20
73.567874560415561
 30
0.0
 40
56.500000000000021
 50
94.822326350222738
 51
97.185227316643704
  0
ARC
  5
1242F
  8
0
 10
407.5000005587932
 20
73.567874560415561
 30
0.0
 40
56.500000000000021
 50
82.814772683349716
 51
85.177673649777233
  0
ARC
  5
12430
  8
0
 10
413.10000055879328
 20
125.0678745604156
 30
0.0
 40
1.0000000000000131
 50
90.0
 51
143.1301023541503
  0
ARC
  5
12431
  8
0
 10
401.90000055879318
 20
125.0678745604156
 30
0.0
 40
1.0000000000000011
 50
36.869897645849719
 51
90.0
  0
ARC
  5
12432
  8
0
 10
415.19226253573743
 20
134.58491403037061
 30
0.0
 40
5.0
 50
262.8147726833563
 51
268.15993020362282
  0
ARC
  5
12433
  8
0
 10
399.80773858184898
 20
134.58491403037061
 30
0.0
 40
5.0
 50
271.84006979637718
 51
277.1852273166437
  0
ARC
  5
12434
  8
0
 10
424.0000005587932
 20
129.54086672908821
 30
0.0
 40
0.5000000000000142
 50
0.0
 51
90.0
  0
LINE
  5
12435
  8
0
 10
424.00000046938629
 20
130.04086669534439
 30
0.0
 11
423.97300701587551
 21
130.04017565399371
 31
0.0
  0
ARC
  5
12436
  8
0
 10
424.0000005587932
 20
126.5678745604156
 30
0.0
 40
0.5
 50
270.0
 51
0.0
  0
LINE
  5
12437
  8
0
 10
424.5000014826652
 20
126.567875407636
 30
0.0
 11
424.5000014826652
 21
129.54086754471061
 31
0.0
  0
ARC
  5
12438
  8
0
 10
391.0000005587932
 20
129.54086672908821
 30
0.0
 40
0.5000000000000142
 50
90.0
 51
180.0
  0
ARC
  5
12439
  8
0
 10
391.0000005587932
 20
129.54086672908821
 30
0.0
 40
0.5000000000000142
 50
86.987212495813623
 51
90.0
  0
LINE
  5
1243A
  8
0
 10
391.00071590393748
 20
130.04086669534439
 30
0.0
 11
391.00000064820023
 21
130.04086669534439
 31
0.0
  0
ARC
  5
1243B
  8
0
 10
391.0000005587932
 20
126.5678745604156
 30
0.0
 40
0.5
 50
180.0
 51
270.0
  0
LINE
  5
1243C
  8
0
 10
390.49999963492132
 20
129.54086754471061
 30
0.0
 11
390.49999963492132
 21
126.567875407636
 31
0.0
  0
LINE
  5
1243D
  8
0
 10
400.50000034272631
 20
125.6678750738501
 30
0.0
 11
414.5000007748601
 21
125.6678750738501
 31
0.0
  0
LINE
  5
1243E
  8
0
 10
402.75026381015749
 20
129.86787538975469
 30
0.0
 11
412.24973730742897
 21
129.86787538975469
 31
0.0
  0
POLYLINE
  5
1243F
  8
0
 66
     1
 10
0.0
 20
0.0
 30
0.0
 70
   128
  0
VERTEX
  5
139A5
  8
0
 10
393.9536482840773
 20
129.89900391548869
 30
0.0
  0
VERTEX
  5
139A6
  8
0
 10
396.85951441526367
 20
129.74492404609919
 30
0.0
  0
VERTEX
  5
139A7
  8
0
 10
399.8018581233917
 20
129.5918257907033
 30
0.0
  0
SEQEND
  5
139A8
  8
0
  0
POLYLINE
  5
12440
  8
0
 66
     1
 10
0.0
 20
0.0
 30
0.0
 70
   128
  0
VERTEX
  5
139A9
  8
0
 10
415.19814299419488
 20
129.5918257907033
 30
0.0
  0
VERTEX
  5
139AA
  8
0
 10
418.1252130120991
 20
129.74411938339469
 30
0.0
  0
VERTEX
  5
139AB
  8
0
 10
421.0463528335091
 20
129.89900391548869
 30
0.0
  0
SEQEND
  5
139AC
  8
0
  0
LINE
  5
12441
  8
0
 10
423.99928521364922
 20
126.0678743943572
 30
0.0
 11
391.00071590393748
 21
126.0678743943572
 31
0.0
  0
ARC
  5
12442
  8
0
 10
435.28908842734671
 20
-134.96239829254949
 30
0.0
 40
265.24407231228412
 50
92.445146256206755
 51
93.078075593077486
  0
ARC
  5
12443
  8
0
 10
378.57336593398799
 20
-158.54506439186119
 30
0.0
 40
288.85382744021871
 50
86.947791193296865
 51
87.528986957417416
  0
ARC
  5
12444
  8
0
 10
397.20612631014961
 20
200.84045245995841
 30
0.0
 40
71.312950735931125
 50
272.29930828861518
 51
272.9837800789129
  0
LINE
  5
12445
  8
0
 10
415.031713755086
 20
129.58749228620781
 30
0.0
 11
415.19814299419488
 21
129.5918257907033
 31
0.0
  0
LINE
  5
12446
  8
0
 10
399.8018581233917
 20
129.5918257907033
 30
0.0
 11
400.06718261167367
 21
129.5849172398448
 31
0.0
  0
LINE
  5
12447
  8
0
 10
424.00000046938629
 20
126.0678743943572
 30
0.0
 11
423.99928521364922
 21
126.0678743943572
 31
0.0
  0
LINE
  5
12448
  8
0
 10
391.00071590393748
 20
126.0678743943572
 30
0.0
 11
391.00000064820023
 21
126.0678743943572
 31
0.0
  0
LINE
  5
12449
  8
0
 10
414.45072589442111
 20
126.567875407636
 30
0.0
 11
414.45072589442111
 21
129.1286529973149
 31
0.0
  0
LINE
  5
1244A
  8
0
 10
400.54927522316552
 20
129.1286529973149
 30
0.0
 11
400.54927522316552
 21
126.567875407636
 31
0.0
  0
ARC
  5
1244B
  8
0
 10
413.96830981980952
 20
126.55023739840099
 30
0.0
 40
0.482738405778335
 50
272.2597374851353
 51
2.0939052353671781
  0
ARC
  5
1244C
  8
0
 10
401.031691297777
 20
126.55023739840099
 30
0.0
 40
0.4827384057783481
 50
177.9060947646328
 51
267.74026251486481
  0
LINE
  5
1244D
  8
0
 10
400.95473442226609
 20
129.62473127990961
 30
0.0
 11
414.04526669532032
 21
129.62473127990961
 31
0.0
  0
ARC
  5
1244E
  8
0
 10
413.96251472629888
 20
129.14335975496979
 30
0.0
 40
0.4884326293357716
 50
358.27455728783349
 51
80.245697760064076
  0
ARC
  5
1244F
  8
0
 10
401.03748639128759
 20
129.14335975496979
 30
0.0
 40
0.4884326293357645
 50
99.75430223993591
 51
181.72544271216961
  0
LINE
  5
12450
  8
0
 10
414.04526669532032
 20
129.62473127990961
 30
0.0
 11
414.08180387690629
 21
129.62417993694541
 31
0.0
  0
LINE
  5
12451
  8
0
 10
400.91819724068017
 20
129.62417993694541
 30
0.0
 11
400.95473442226609
 21
129.62473127990961
 31
0.0
  0
LINE
  5
12452
  8
0
 10
414.56687532365288
 20
129.62417993694541
 30
0.0
 11
414.08180387690629
 21
129.62417993694541
 31
0.0
  0
LINE
  5
12453
  8
0
 10
391.02699410170288
 20
130.04017565399411
 30
0.0
 11
391.02628070861078
 21
130.04017565399411
 31
0.0
  0
LINE
  5
124A8
  8
0
 10
190.00000001862639
 20
125.4970088925958
 30
0.0
 11
189.5000004023313
 21
125.9970080432296
 31
0.0
  0
LINE
  5
124A9
  8
0
 10
175.49999997019751
 20
125.9970080432296
 30
0.0
 11
175.00000035390241
 21
125.4970088925958
 31
0.0
  0
LINE
  5
124AA
  8
0
 10
190.00000001862639
 20
124.9999994412064
 30
0.0
 11
190.00000001862639
 21
125.4970088925958
 31
0.0
  0
LINE
  5
124AB
  8
0
 10
175.00000035390241
 20
125.4970088925958
 30
0.0
 11
175.00000035390241
 21
124.9999994412064
 31
0.0
  0
LINE
  5
124AC
  8
0
 10
182.65360382967609
 20
130.36999966472391
 30
0.0
 11
182.3463965428526
 21
130.36999966472391
 31
0.0
  0
LINE
  5
124AD
  8
0
 10
185.6303306575864
 20
126.8970083770156
 30
0.0
 11
185.6303306575864
 21
129.7512345340848
 31
0.0
  0
ARC
  5
124AE
  8
0
 10
185.0308798638917
 20
129.69536606049741
 30
0.0
 40
0.6020486196330923
 50
5.3245530702995882
 51
94.040151905793564
  0
POLYLINE
  5
124AF
  8
0
 66
     1
 10
0.0
 20
0.0
 30
0.0
 70
   128
  0
VERTEX
  5
139AD
  8
0
 10
180.09690319187919
 20
130.30491511791939
 30
0.0
  0
VERTEX
  5
139AE
  8
0
 10
179.96758765541
 20
130.29152456194149
 30
0.0
  0
VERTEX
  5
139AF
  8
0
 10
179.80312051251511
 20
130.26278580993409
 30
0.0
  0
VERTEX
  5
139B0
  8
0
 10
179.73053206689639
 20
130.24158332020039
 30
0.0
  0
VERTEX
  5
139B1
  8
0
 10
179.65631543658651
 20
130.21011206775901
 30
0.0
  0
VERTEX
  5
139B2
  8
0
 10
179.56962560303481
 20
130.15544715791941
 30
0.0
  0
VERTEX
  5
139B3
  8
0
 10
179.48128220625199
 20
130.06856593757871
 30
0.0
  0
VERTEX
  5
139B4
  8
0
 10
179.40875173546351
 20
129.94588281482461
 30
0.0
  0
VERTEX
  5
139B5
  8
0
 10
179.37204132787861
 20
129.79758832126851
 30
0.0
  0
VERTEX
  5
139B6
  8
0
 10
179.3696697149424
 20
129.7512811002135
 30
0.0
  0
SEQEND
  5
139B7
  8
0
  0
LINE
  5
124B0
  8
0
 10
179.3696697149424
 20
129.7512811002135
 30
0.0
 11
179.3696697149424
 21
126.8970083770156
 31
0.0
  0
ARC
  5
124B1
  8
0
 10
185.1303305545128
 20
126.89700799852611
 30
0.0
 40
0.5
 50
270.0
 51
0.0
  0
ARC
  5
124B2
  8
0
 10
179.86966981801561
 20
126.89700799852611
 30
0.0
 40
0.5
 50
180.0
 51
270.0
  0
ARC
  5
124B3
  8
0
 10
182.5000001862642
 20
73.897007998526078
 30
0.0
 40
56.500000000000021
 50
94.822326350222724
 51
97.180755781458231
  0
ARC
  5
124B4
  8
0
 10
182.5000001862642
 20
73.897007998526078
 30
0.0
 40
56.500000000000021
 50
82.819244218541741
 51
85.177673649777233
  0
ARC
  5
124B5
  8
0
 10
175.5000001862644
 20
129.45778553088249
 30
0.0
 40
0.5000000000000071
 50
97.180755781464825
 51
180.0
  0
ARC
  5
124B6
  8
0
 10
175.5000001862642
 20
126.89700799852611
 30
0.0
 40
0.5
 50
180.0
 51
270.0
  0
LINE
  5
124B7
  8
0
 10
175.00000035390241
 20
129.4577859666943
 30
0.0
 11
175.00000035390241
 21
126.8970083770156
 31
0.0
  0
ARC
  5
124B8
  8
0
 10
189.5000001862644
 20
126.89700799852611
 30
0.0
 40
0.5
 50
270.0
 51
0.0
  0
LINE
  5
124B9
  8
0
 10
190.00000001862639
 20
126.8970083770156
 30
0.0
 11
190.00000001862639
 21
129.4577859666943
 31
0.0
  0
ARC
  5
124BA
  8
0
 10
189.5000001862644
 20
129.45778553088249
 30
0.0
 40
0.5
 50
0.0
 51
82.819244218535204
  0
ARC
  5
124BB
  8
0
 10
188.10000018626431
 20
125.39700799852611
 30
0.0
 40
1.0000000000000051
 50
90.0
 51
143.1301023541584
  0
ARC
  5
124BC
  8
0
 10
176.90000018626421
 20
125.39700799852611
 30
0.0
 40
1.0
 50
36.869897645845647
 51
90.0
  0
LINE
  5
124BD
  8
0
 10
175.49999997019751
 20
125.9970080432296
 30
0.0
 11
189.5000004023313
 21
125.9970080432296
 31
0.0
  0
ARC
  5
124BE
  8
0
 10
183.029780404852
 20
105.3945844794019
 30
0.0
 40
24.978247986896971
 50
85.502505575422589
 51
90.862916604501123
  0
ARC
  5
124BF
  8
0
 10
182.0790753490152
 20
100.70257454085539
 30
0.0
 40
29.668629461116119
 50
89.483744827161885
 51
93.830805809564765
  0
LINE
  5
124C0
  8
0
 10
185.36377255624251
 20
130.1970083591342
 30
0.0
 11
187.24973693490011
 21
130.1970083591342
 31
0.0
  0
LINE
  5
124C1
  8
0
 10
177.7502634376286
 20
130.1970083591342
 30
0.0
 11
179.6194744110106
 21
130.1970083591342
 31
0.0
  0
LINE
  5
124C2
  8
0
 10
189.5000001862644
 20
126.39700799852611
 30
0.0
 11
175.49999997019751
 21
126.39700736373661
 31
0.0
  0
LINE
  5
124C3
  8
0
 10
185.57460886513559
 20
129.95386424928901
 30
0.0
 11
189.56250006332971
 21
129.95386424928901
 31
0.0
  0
LINE
  5
124C4
  8
0
 10
175.4375003091989
 20
129.95386424928901
 30
0.0
 11
179.40141850151099
 21
129.95386424928901
 31
0.0
  0
LINE
  5
124FF
  8
0
 10
184.99999983236191
 20
-84.876261217771059
 30
0.0
 11
184.50000021606681
 21
-84.376262067137276
 31
0.0
  0
LINE
  5
12500
  8
0
 10
170.49999978393299
 20
-84.376262067137276
 30
0.0
 11
170.00000016763789
 21
-84.876261217771059
 31
0.0
  0
LINE
  5
12501
  8
0
 10
184.99999983236191
 20
-85.373270669160405
 30
0.0
 11
184.99999983236191
 21
-84.876261217771059
 31
0.0
  0
LINE
  5
12502
  8
0
 10
170.00000016763789
 20
-84.876261217771059
 30
0.0
 11
170.00000016763789
 21
-85.373270669160405
 31
0.0
  0
LINE
  5
12503
  8
0
 10
177.6536036434116
 20
-80.003270445642997
 30
0.0
 11
177.34639635658809
 21
-80.003270445642997
 31
0.0
  0
LINE
  5
12504
  8
0
 10
180.63033047132191
 20
-83.476261733351265
 30
0.0
 11
180.63033047132191
 21
-80.622035576282059
 31
0.0
  0
ARC
  5
12505
  8
0
 10
180.0308796776273
 20
-80.677904049869397
 30
0.0
 40
0.6020486196330923
 50
5.3245530702995918
 51
94.040151905793564
  0
POLYLINE
  5
12506
  8
0
 66
     1
 10
0.0
 20
0.0
 30
0.0
 70
   128
  0
VERTEX
  5
139B8
  8
0
 10
175.09690300561471
 20
-80.068354992447425
 30
0.0
  0
VERTEX
  5
139B9
  8
0
 10
174.96758746914551
 20
-80.081745548425246
 30
0.0
  0
VERTEX
  5
139BA
  8
0
 10
174.80312032625071
 20
-80.110484300432702
 30
0.0
  0
VERTEX
  5
139BB
  8
0
 10
174.7305318806319
 20
-80.131686790166427
 30
0.0
  0
VERTEX
  5
139BC
  8
0
 10
174.65631525032211
 20
-80.163158042607819
 30
0.0
  0
VERTEX
  5
139BD
  8
0
 10
174.56962541677041
 20
-80.217822952447449
 30
0.0
  0
VERTEX
  5
139BE
  8
0
 10
174.48128201998759
 20
-80.304704172788178
 30
0.0
  0
VERTEX
  5
139BF
  8
0
 10
174.40875154919911
 20
-80.427387295542275
 30
0.0
  0
VERTEX
  5
139C0
  8
0
 10
174.37204114161409
 20
-80.575681789098297
 30
0.0
  0
VERTEX
  5
139C1
  8
0
 10
174.36966952867789
 20
-80.621989010153314
 30
0.0
  0
SEQEND
  5
139C2
  8
0
  0
LINE
  5
12507
  8
0
 10
174.36966952867789
 20
-80.621989010153314
 30
0.0
 11
174.36966952867789
 21
-83.476261733351265
 31
0.0
  0
ARC
  5
12508
  8
0
 10
180.13033036824839
 20
-83.476262111840782
 30
0.0
 40
0.5
 50
270.0
 51
0.0
  0
ARC
  5
12509
  8
0
 10
174.86966963175129
 20
-83.476262111840782
 30
0.0
 40
0.5
 50
180.0
 51
270.0
  0
ARC
  5
1250A
  8
0
 10
177.4999999999998
 20
-136.47626211184081
 30
0.0
 40
56.500000000000021
 50
94.822326350222767
 51
97.180755781458274
  0
ARC
  5
1250B
  8
0
 10
177.4999999999998
 20
-136.47626211184081
 30
0.0
 40
56.500000000000021
 50
82.819244218541726
 51
85.177673649777233
  0
ARC
  5
1250C
  8
0
 10
170.5
 20
-80.9154845794843
 30
0.0
 40
0.5000000000000071
 50
97.180755781464853
 51
180.0
  0
ARC
  5
1250D
  8
0
 10
170.4999999999998
 20
-83.476262111840782
 30
0.0
 40
0.5
 50
180.0
 51
270.0
  0
LINE
  5
1250E
  8
0
 10
170.00000016763789
 20
-80.915484143672515
 30
0.0
 11
170.00000016763789
 21
-83.476261733351265
 31
0.0
  0
ARC
  5
1250F
  8
0
 10
184.5
 20
-83.476262111840782
 30
0.0
 40
0.5
 50
270.0
 51
0.0
  0
LINE
  5
12510
  8
0
 10
184.99999983236191
 20
-83.476261733351265
 30
0.0
 11
184.99999983236191
 21
-80.915484143672515
 31
0.0
  0
ARC
  5
12511
  8
0
 10
184.5
 20
-80.9154845794843
 30
0.0
 40
0.5
 50
0.0
 51
82.819244218535147
  0
ARC
  5
12512
  8
0
 10
183.09999999999991
 20
-84.976262111840782
 30
0.0
 40
1.0000000000000051
 50
90.0
 51
143.1301023541584
  0
ARC
  5
12513
  8
0
 10
171.89999999999981
 20
-84.976262111840782
 30
0.0
 40
1.0
 50
36.869897645849719
 51
90.0
  0
LINE
  5
12514
  8
0
 10
170.49999978393299
 20
-84.376262067137276
 30
0.0
 11
184.50000021606681
 21
-84.376262067137276
 31
0.0
  0
ARC
  5
12515
  8
0
 10
178.02978021858749
 20
-104.9786856309578
 30
0.0
 40
24.97824798688994
 50
85.502505575419335
 51
90.862916604501152
  0
ARC
  5
12516
  8
0
 10
177.0790751627508
 20
-109.670695569511
 30
0.0
 40
29.668629461115859
 50
89.483744827161914
 51
93.830805809564765
  0
LINE
  5
12517
  8
0
 10
180.36377236997799
 20
-80.176261751232659
 30
0.0
 11
182.24973674863571
 21
-80.176261751232659
 31
0.0
  0
LINE
  5
12518
  8
0
 10
172.75026325136409
 20
-80.176261751232659
 30
0.0
 11
174.61947422474611
 21
-80.176261751232659
 31
0.0
  0
LINE
  5
12519
  8
0
 10
184.5
 20
-83.976262111840782
 30
0.0
 11
170.49999978393299
 21
-83.976262746630226
 31
0.0
  0
LINE
  5
1251A
  8
0
 10
180.5746086788711
 20
-80.419405861077834
 30
0.0
 11
184.56249987706539
 21
-80.419405861077834
 31
0.0
  0
LINE
  5
1251B
  8
0
 10
170.43750012293441
 20
-80.419405861077834
 30
0.0
 11
174.40141831524659
 21
-80.419405861077834
 31
0.0
  0
LINE
  5
1251C
  8
0
 10
339.99999983236199
 20
-92.876261217771187
 30
0.0
 11
339.50000021606678
 21
-92.376262067137361
 31
0.0
  0
LINE
  5
1251D
  8
0
 10
325.49999978393322
 20
-92.376262067137361
 30
0.0
 11
325.00000016763801
 21
-92.876261217771187
 31
0.0
  0
LINE
  5
1251E
  8
0
 10
339.99999983236199
 20
-93.373270669160505
 30
0.0
 11
339.99999983236199
 21
-92.876261217771187
 31
0.0
  0
LINE
  5
1251F
  8
0
 10
325.00000016763801
 20
-92.876261217771187
 30
0.0
 11
325.00000016763801
 21
-93.373270669160505
 31
0.0
  0
LINE
  5
12520
  8
0
 10
332.6536036434116
 20
-88.003270445643068
 30
0.0
 11
332.34639635658817
 21
-88.003270445643068
 31
0.0
  0
LINE
  5
12521
  8
0
 10
335.630330471322
 20
-91.476261733351365
 30
0.0
 11
335.630330471322
 21
-88.622035576282144
 31
0.0
  0
ARC
  5
12522
  8
0
 10
335.0308796776273
 20
-88.677904049869525
 30
0.0
 40
0.6020486196330923
 50
5.3245530702996131
 51
94.040151905793564
  0
POLYLINE
  5
12523
  8
0
 66
     1
 10
0.0
 20
0.0
 30
0.0
 70
   128
  0
VERTEX
  5
139C3
  8
0
 10
330.09690300561482
 20
-88.06835499244751
 30
0.0
  0
VERTEX
  5
139C4
  8
0
 10
329.9675874691456
 20
-88.081745548425332
 30
0.0
  0
VERTEX
  5
139C5
  8
0
 10
329.80312032625068
 20
-88.110484300432816
 30
0.0
  0
VERTEX
  5
139C6
  8
0
 10
329.7305318806321
 20
-88.131686790166512
 30
0.0
  0
VERTEX
  5
139C7
  8
0
 10
329.65631525032228
 20
-88.163158042607904
 30
0.0
  0
VERTEX
  5
139C8
  8
0
 10
329.56962541677052
 20
-88.217822952447548
 30
0.0
  0
VERTEX
  5
139C9
  8
0
 10
329.4812820199877
 20
-88.304704172788263
 30
0.0
  0
VERTEX
  5
139CA
  8
0
 10
329.40875154919911
 20
-88.427387295542374
 30
0.0
  0
VERTEX
  5
139CB
  8
0
 10
329.37204114161432
 20
-88.575681789098383
 30
0.0
  0
VERTEX
  5
139CC
  8
0
 10
329.369669528678
 20
-88.621989010153456
 30
0.0
  0
SEQEND
  5
139CD
  8
0
  0
LINE
  5
12524
  8
0
 10
329.369669528678
 20
-88.621989010153456
 30
0.0
 11
329.369669528678
 21
-91.476261733351365
 31
0.0
  0
ARC
  5
12525
  8
0
 10
335.13033036824851
 20
-91.476262111840853
 30
0.0
 40
0.5
 50
270.0
 51
0.0
  0
ARC
  5
12526
  8
0
 10
329.86966963175138
 20
-91.476262111840853
 30
0.0
 40
0.5
 50
180.0
 51
270.0
  0
ARC
  5
12527
  8
0
 10
332.5
 20
-144.4762621118409
 30
0.0
 40
56.500000000000021
 50
94.822326350222767
 51
97.180755781458274
  0
ARC
  5
12528
  8
0
 10
332.5
 20
-144.4762621118409
 30
0.0
 40
56.500000000000021
 50
82.819244218541726
 51
85.177673649777233
  0
ARC
  5
12529
  8
0
 10
325.50000000000011
 20
-88.915484579484428
 30
0.0
 40
0.5000000000000071
 50
97.180755781464853
 51
180.0
  0
ARC
  5
1252A
  8
0
 10
325.5
 20
-91.476262111840853
 30
0.0
 40
0.5
 50
180.0
 51
270.0
  0
LINE
  5
1252B
  8
0
 10
325.00000016763801
 20
-88.9154841436726
 30
0.0
 11
325.00000016763801
 21
-91.476261733351365
 31
0.0
  0
ARC
  5
1252C
  8
0
 10
339.5
 20
-91.476262111840853
 30
0.0
 40
0.5
 50
270.0
 51
0.0
  0
LINE
  5
1252D
  8
0
 10
339.99999983236199
 20
-91.476261733351365
 30
0.0
 11
339.99999983236199
 21
-88.9154841436726
 31
0.0
  0
ARC
  5
1252E
  8
0
 10
339.5
 20
-88.915484579484428
 30
0.0
 40
0.5
 50
0.0
 51
82.819244218535147
  0
ARC
  5
1252F
  8
0
 10
338.10000000000002
 20
-92.976262111840882
 30
0.0
 40
1.0000000000000051
 50
90.0
 51
143.1301023541576
  0
ARC
  5
12530
  8
0
 10
326.89999999999992
 20
-92.976262111840882
 30
0.0
 40
1.0
 50
36.869897645848972
 51
90.0
  0
LINE
  5
12531
  8
0
 10
325.49999978393322
 20
-92.376262067137361
 30
0.0
 11
339.50000021606678
 21
-92.376262067137361
 31
0.0
  0
ARC
  5
12532
  8
0
 10
333.02978021858729
 20
-112.9786856309736
 30
0.0
 40
24.978247986905501
 50
85.502505575422603
 51
90.862916604501152
  0
ARC
  5
12533
  8
0
 10
332.079075162751
 20
-117.6706955695207
 30
0.0
 40
29.668629461125409
 50
89.483744827165154
 51
93.830805809564765
  0
LINE
  5
12534
  8
0
 10
335.36377236997799
 20
-88.176261751232758
 30
0.0
 11
337.24973674863583
 21
-88.176261751232758
 31
0.0
  0
LINE
  5
12535
  8
0
 10
327.75026325136417
 20
-88.176261751232758
 30
0.0
 11
329.61947422474623
 21
-88.176261751232758
 31
0.0
  0
LINE
  5
12536
  8
0
 10
339.5
 20
-91.976262111840882
 30
0.0
 11
325.49999978393322
 21
-91.976262746630312
 31
0.0
  0
LINE
  5
12537
  8
0
 10
335.57460867887119
 20
-88.419405861077919
 30
0.0
 11
339.56249987706548
 21
-88.419405861077919
 31
0.0
  0
LINE
  5
12538
  8
0
 10
325.43750012293452
 20
-88.419405861077919
 30
0.0
 11
329.4014183152467
 21
-88.419405861077919
 31
0.0
  0
ARC
  5
12ED9
  8
0
 10
179.23451048085039
 20
197.30105181421831
 30
0.0
 40
1.4202418864077111
 50
82.701515210896787
 51
104.9659305445209
  0
ARC
  5
12EDA
  8
0
 10
179.19108084106441
 20
197.29193833111881
 30
0.0
 40
1.4185229827659971
 50
103.1759075485821
 51
149.71964759371139
  0
ARC
  5
12EDB
  8
0
 10
179.56126662343809
 20
197.12532469240429
 30
0.0
 40
1.822717648800237
 50
151.0644359187834
 51
197.16048733869391
  0
ARC
  5
12EDC
  8
0
 10
179.60989467429101
 20
196.93748352007771
 30
0.0
 40
1.8240856876479901
 50
191.0607474325399
 51
237.10539372271461
  0
ARC
  5
12EDD
  8
0
 10
179.36327531817969
 20
196.6259826470895
 30
0.0
 40
1.4290923663425861
 50
238.625252362401
 51
284.82159884601077
  0
ARC
  5
12EDE
  8
0
 10
179.40313019909601
 20
196.6252745994513
 30
0.0
 40
1.41873094716195
 50
283.27273084612563
 51
283.93001864315778
  0
ARC
  5
12EE1
  8
0
 10
179.39178681367741
 20
196.54361028115801
 30
0.0
 40
0.9567283121558267
 50
284.72745947846869
 51
288.28700942849349
  0
ARC
  5
12EE2
  8
0
 10
179.4096103965577
 20
196.5397712210698
 30
0.0
 40
0.9486236411147199
 50
236.80606736219309
 51
283.74520306103869
  0
ARC
  5
12EE3
  8
0
 10
179.75117920861811
 20
196.9478081038105
 30
0.0
 40
1.478397524587006
 50
189.40767032818431
 51
234.38536532094909
  0
ARC
  5
12EE4
  8
0
 10
179.74683191684949
 20
197.17927944523001
 30
0.0
 40
1.529198747811026
 50
154.59690556716541
 51
198.02280766871709
  0
ARC
  5
12EE5
  8
0
 10
179.19916217218949
 20
197.3776048393612
 30
0.0
 40
0.9510415130223359
 50
104.4661493478423
 51
151.23378221758091
  0
ARC
  5
12EE6
  8
0
 10
179.1890996492242
 20
197.38316095444151
 30
0.0
 40
0.9431848648224963
 50
78.817745411381182
 51
103.958568017592
  0
LINE
  5
12EE7
  8
0
 10
185.65958722494531
 20
198.83952066302291
 30
0.0
 11
187.93511305004341
 21
198.18261321634051
 31
0.0
  0
LINE
  5
12EE8
  8
0
 10
185.59836226842441
 20
198.62735685442581
 30
0.0
 11
185.65958722494531
 21
198.83952066302291
 31
0.0
  0
LINE
  5
12F3F
  8
0
 10
127.49999983236179
 20
124.9999994412064
 30
0.0
 11
127.49999983236179
 21
125.49700702995059
 31
0.0
  0
LINE
  5
12F40
  8
0
 10
112.50000016763779
 20
125.49700702995059
 30
0.0
 11
112.50000016763779
 21
124.9999994412064
 31
0.0
  0
LINE
  5
12F41
  8
0
 10
127.49999983236179
 20
125.49700702995059
 30
0.0
 11
127.0000002160667
 21
125.9970080432296
 31
0.0
  0
LINE
  5
12F42
  8
0
 10
112.99999978393291
 20
125.9970080432296
 30
0.0
 11
112.50000016763779
 21
125.49700702995059
 31
0.0
  0
ARC
  5
12F43
  8
0
 10
119.9999999999997
 20
73.897007529795019
 30
0.0
 40
56.500000000000021
 50
94.822326350222724
 51
97.185227316643704
  0
ARC
  5
12F44
  8
0
 10
119.9999999999997
 20
73.897007529795019
 30
0.0
 40
56.500000000000021
 50
82.814772683349702
 51
85.177673649777233
  0
ARC
  5
12F45
  8
0
 10
125.5999999999998
 20
125.397007529795
 30
0.0
 40
1.0000000000000131
 50
90.0
 51
143.1301023541503
  0
ARC
  5
12F46
  8
0
 10
114.39999999999969
 20
125.397007529795
 30
0.0
 40
1.0000000000000011
 50
36.869897645845967
 51
90.0
  0
ARC
  5
12F47
  8
0
 10
127.692261976944
 20
134.9140469997501
 30
0.0
 40
5.0
 50
262.81477268335618
 51
268.15993020362282
  0
ARC
  5
12F48
  8
0
 10
112.30773802305551
 20
134.9140469997501
 30
0.0
 40
5.0
 50
271.84006979637718
 51
277.1852273166437
  0
ARC
  5
12F49
  8
0
 10
136.4999999999998
 20
129.86999969846761
 30
0.0
 40
0.5000000000000142
 50
0.0
 51
90.0
  0
LINE
  5
12F4A
  8
0
 10
136.49999991059289
 20
130.36999966472391
 30
0.0
 11
136.47300645708199
 21
130.369308623373
 31
0.0
  0
ARC
  5
12F4B
  8
0
 10
136.4999999999998
 20
126.897007529795
 30
0.0
 40
0.5
 50
270.0
 51
0.0
  0
LINE
  5
12F4C
  8
0
 10
137.00000092387191
 20
126.8970083770156
 30
0.0
 11
137.00000092387191
 21
129.87000051409009
 31
0.0
  0
ARC
  5
12F4D
  8
0
 10
103.4999999999997
 20
129.86999969846761
 30
0.0
 40
0.5000000000000142
 50
90.0
 51
180.0
  0
ARC
  5
12F4E
  8
0
 10
103.4999999999997
 20
129.86999969846761
 30
0.0
 40
0.5000000000000142
 50
86.987212495813623
 51
90.0
  0
LINE
  5
12F4F
  8
0
 10
103.500715345144
 20
130.36999966472391
 30
0.0
 11
103.5000000894067
 21
130.36999966472391
 31
0.0
  0
ARC
  5
12F50
  8
0
 10
103.4999999999997
 20
126.897007529795
 30
0.0
 40
0.5
 50
180.0
 51
270.0
  0
LINE
  5
12F51
  8
0
 10
102.99999907612781
 20
129.87000051409009
 30
0.0
 11
102.99999907612781
 21
126.8970083770156
 31
0.0
  0
LINE
  5
12F52
  8
0
 10
112.99999978393291
 20
125.9970080432296
 30
0.0
 11
127.0000002160667
 21
125.9970080432296
 31
0.0
  0
LINE
  5
12F53
  8
0
 10
115.250263251364
 20
130.1970083591342
 30
0.0
 11
124.7497367486356
 21
130.1970083591342
 31
0.0
  0
POLYLINE
  5
12F54
  8
0
 66
     1
 10
0.0
 20
0.0
 30
0.0
 70
   128
  0
VERTEX
  5
139CE
  8
0
 10
106.4536477252838
 20
130.22813688486801
 30
0.0
  0
VERTEX
  5
139CF
  8
0
 10
109.3595138564703
 20
130.07405701547859
 30
0.0
  0
VERTEX
  5
139D0
  8
0
 10
112.301857564598
 20
129.9209587600827
 30
0.0
  0
SEQEND
  5
139D1
  8
0
  0
POLYLINE
  5
12F55
  8
0
 66
     1
 10
0.0
 20
0.0
 30
0.0
 70
   128
  0
VERTEX
  5
139D2
  8
0
 10
127.69814243540139
 20
129.9209587600827
 30
0.0
  0
VERTEX
  5
139D3
  8
0
 10
130.62521245330561
 20
130.07325235277409
 30
0.0
  0
VERTEX
  5
139D4
  8
0
 10
133.54635227471579
 20
130.22813688486801
 30
0.0
  0
SEQEND
  5
139D5
  8
0
  0
LINE
  5
12F56
  8
0
 10
136.49928465485559
 20
126.39700736373661
 30
0.0
 11
103.500715345144
 21
126.39700736373661
 31
0.0
  0
ARC
  5
12F57
  8
0
 10
147.78908786855311
 20
-134.63326532317001
 30
0.0
 40
265.24407231228412
 50
92.445146256206755
 51
93.078075593077443
  0
ARC
  5
12F58
  8
0
 10
91.073365375194385
 20
-158.21593142248179
 30
0.0
 40
288.85382744021871
 50
86.947791193296865
 51
87.528986957417416
  0
ARC
  5
12F59
  8
0
 10
109.706125751356
 20
201.1695854293379
 30
0.0
 40
71.312950735931125
 50
272.29930828861518
 51
272.98378007891301
  0
LINE
  5
12F5A
  8
0
 10
127.5317131962927
 20
129.91662525558721
 30
0.0
 11
127.69814243540139
 21
129.9209587600827
 31
0.0
  0
LINE
  5
12F5B
  8
0
 10
112.301857564598
 20
129.9209587600827
 30
0.0
 11
112.5671820528803
 21
129.9140502092242
 31
0.0
  0
LINE
  5
12F5C
  8
0
 10
136.49999991059289
 20
126.39700736373661
 30
0.0
 11
136.49928465485559
 21
126.39700736373661
 31
0.0
  0
LINE
  5
12F5D
  8
0
 10
103.500715345144
 20
126.39700736373661
 30
0.0
 11
103.5000000894067
 21
126.39700736373661
 31
0.0
  0
LINE
  5
12F5E
  8
0
 10
126.95072533562769
 20
126.8970083770156
 30
0.0
 11
126.95072533562769
 21
129.4577859666943
 31
0.0
  0
LINE
  5
12F5F
  8
0
 10
113.04927466437201
 20
129.4577859666943
 30
0.0
 11
113.04927466437201
 21
126.8970083770156
 31
0.0
  0
ARC
  5
12F60
  8
0
 10
126.4683092610161
 20
126.8793703677805
 30
0.0
 40
0.482738405778335
 50
272.25973748513519
 51
2.093905235367179
  0
ARC
  5
12F61
  8
0
 10
113.5316907389835
 20
126.8793703677805
 30
0.0
 40
0.4827384057783481
 50
177.9060947646328
 51
267.74026251486481
  0
LINE
  5
12F62
  8
0
 10
113.4547338634727
 20
129.95386424928901
 30
0.0
 11
126.54526613652691
 21
129.95386424928901
 31
0.0
  0
ARC
  5
12F63
  8
0
 10
126.4625141675054
 20
129.47249272434919
 30
0.0
 40
0.4884326293357716
 50
358.27455728783349
 51
80.245697760064076
  0
ARC
  5
12F64
  8
0
 10
113.5374858324941
 20
129.47249272434919
 30
0.0
 40
0.4884326293357645
 50
99.754302239935939
 51
181.72544271216961
  0
LINE
  5
12F65
  8
0
 10
126.54526613652691
 20
129.95386424928901
 30
0.0
 11
126.5818033181129
 21
129.9533129063249
 31
0.0
  0
LINE
  5
12F66
  8
0
 10
113.4181966818867
 20
129.9533129063249
 30
0.0
 11
113.4547338634727
 21
129.95386424928901
 31
0.0
  0
LINE
  5
12F67
  8
0
 10
127.06687476485951
 20
129.9533129063249
 30
0.0
 11
126.5818033181129
 21
129.9533129063249
 31
0.0
  0
LINE
  5
12F68
  8
0
 10
103.52699354290939
 20
130.36930862337351
 30
0.0
 11
103.5262801498172
 21
130.36930862337351
 31
0.0
  0
LINE
  5
12F69
  8
0
 10
252.5000002048908
 20
124.9999994412064
 30
0.0
 11
252.5000002048908
 21
125.49700702995059
 31
0.0
  0
LINE
  5
12F6A
  8
0
 10
237.50000054016681
 20
125.49700702995059
 30
0.0
 11
237.50000054016681
 21
124.9999994412064
 31
0.0
  0
LINE
  5
12F6B
  8
0
 10
252.5000002048908
 20
125.49700702995059
 30
0.0
 11
252.0000005885957
 21
125.9970080432296
 31
0.0
  0
LINE
  5
12F6C
  8
0
 10
238.00000015646191
 20
125.9970080432296
 30
0.0
 11
237.50000054016681
 21
125.49700702995059
 31
0.0
  0
ARC
  5
12F6D
  8
0
 10
245.00000037252869
 20
73.897007529795019
 30
0.0
 40
56.500000000000021
 50
94.822326350222724
 51
97.185227316643704
  0
ARC
  5
12F6E
  8
0
 10
245.00000037252869
 20
73.897007529795019
 30
0.0
 40
56.500000000000021
 50
82.814772683349702
 51
85.177673649777233
  0
ARC
  5
12F6F
  8
0
 10
250.6000003725288
 20
125.397007529795
 30
0.0
 40
1.0000000000000131
 50
90.0
 51
143.13010235415069
  0
ARC
  5
12F70
  8
0
 10
239.40000037252869
 20
125.397007529795
 30
0.0
 40
1.0000000000000011
 50
36.869897645845967
 51
90.0
  0
ARC
  5
12F71
  8
0
 10
252.692262349473
 20
134.9140469997501
 30
0.0
 40
5.0
 50
262.81477268335618
 51
268.15993020362282
  0
ARC
  5
12F72
  8
0
 10
237.30773839558441
 20
134.9140469997501
 30
0.0
 40
5.0
 50
271.84006979637718
 51
277.1852273166437
  0
ARC
  5
12F73
  8
0
 10
261.50000037252892
 20
129.86999969846761
 30
0.0
 40
0.5000000000000142
 50
0.0
 51
90.0
  0
LINE
  5
12F74
  8
0
 10
261.50000028312189
 20
130.36999966472391
 30
0.0
 11
261.47300682961099
 21
130.369308623373
 31
0.0
  0
ARC
  5
12F75
  8
0
 10
261.50000037252892
 20
126.897007529795
 30
0.0
 40
0.5
 50
270.0
 51
0.0
  0
LINE
  5
12F76
  8
0
 10
262.00000129640091
 20
126.8970083770156
 30
0.0
 11
262.00000129640091
 21
129.87000051409009
 31
0.0
  0
ARC
  5
12F77
  8
0
 10
228.50000037252869
 20
129.86999969846761
 30
0.0
 40
0.5000000000000142
 50
90.0
 51
180.0
  0
ARC
  5
12F78
  8
0
 10
228.50000037252869
 20
129.86999969846761
 30
0.0
 40
0.5000000000000142
 50
86.987212495813623
 51
90.0
  0
LINE
  5
12F79
  8
0
 10
228.50071571767299
 20
130.36999966472391
 30
0.0
 11
228.50000046193571
 21
130.36999966472391
 31
0.0
  0
ARC
  5
12F7A
  8
0
 10
228.50000037252869
 20
126.897007529795
 30
0.0
 40
0.5
 50
180.0
 51
270.0
  0
LINE
  5
12F7B
  8
0
 10
227.99999944865669
 20
129.87000051409009
 30
0.0
 11
227.99999944865669
 21
126.8970083770156
 31
0.0
  0
LINE
  5
12F7C
  8
0
 10
238.00000015646191
 20
125.9970080432296
 30
0.0
 11
252.0000005885957
 21
125.9970080432296
 31
0.0
  0
LINE
  5
12F7D
  8
0
 10
240.25026362389301
 20
130.1970083591342
 30
0.0
 11
249.7497371211646
 21
130.1970083591342
 31
0.0
  0
POLYLINE
  5
12F7E
  8
0
 66
     1
 10
0.0
 20
0.0
 30
0.0
 70
   128
  0
VERTEX
  5
139D6
  8
0
 10
231.45364809781279
 20
130.22813688486801
 30
0.0
  0
VERTEX
  5
139D7
  8
0
 10
234.3595142289993
 20
130.07405701547859
 30
0.0
  0
VERTEX
  5
139D8
  8
0
 10
237.3018579371271
 20
129.9209587600827
 30
0.0
  0
SEQEND
  5
139D9
  8
0
  0
POLYLINE
  5
12F7F
  8
0
 66
     1
 10
0.0
 20
0.0
 30
0.0
 70
   128
  0
VERTEX
  5
139DA
  8
0
 10
252.69814280793051
 20
129.9209587600827
 30
0.0
  0
VERTEX
  5
139DB
  8
0
 10
255.62521282583461
 20
130.07325235277409
 30
0.0
  0
VERTEX
  5
139DC
  8
0
 10
258.54635264724482
 20
130.22813688486801
 30
0.0
  0
SEQEND
  5
139DD
  8
0
  0
LINE
  5
12F80
  8
0
 10
261.49928502738459
 20
126.39700736373661
 30
0.0
 11
228.50071571767299
 21
126.39700736373661
 31
0.0
  0
ARC
  5
12F81
  8
0
 10
272.7890882410822
 20
-134.63326532317001
 30
0.0
 40
265.24407231228412
 50
92.445146256206755
 51
93.078075593077443
  0
ARC
  5
12F82
  8
0
 10
216.07336574772339
 20
-158.21593142248179
 30
0.0
 40
288.85382744021871
 50
86.947791193296865
 51
87.528986957417416
  0
ARC
  5
12F83
  8
0
 10
234.7061261238851
 20
201.1695854293379
 30
0.0
 40
71.312950735931125
 50
272.29930828861518
 51
272.98378007891301
  0
LINE
  5
12F84
  8
0
 10
252.53171356882169
 20
129.91662525558721
 30
0.0
 11
252.69814280793051
 21
129.9209587600827
 31
0.0
  0
LINE
  5
12F85
  8
0
 10
237.3018579371271
 20
129.9209587600827
 30
0.0
 11
237.5671824254093
 21
129.9140502092242
 31
0.0
  0
LINE
  5
12F86
  8
0
 10
261.50000028312189
 20
126.39700736373661
 30
0.0
 11
261.49928502738459
 21
126.39700736373661
 31
0.0
  0
LINE
  5
12F87
  8
0
 10
228.50071571767299
 20
126.39700736373661
 30
0.0
 11
228.50000046193571
 21
126.39700736373661
 31
0.0
  0
LINE
  5
12F88
  8
0
 10
251.95072570815671
 20
126.8970083770156
 30
0.0
 11
251.95072570815671
 21
129.4577859666943
 31
0.0
  0
LINE
  5
12F89
  8
0
 10
238.04927503690081
 20
129.4577859666943
 30
0.0
 11
238.04927503690081
 21
126.8970083770156
 31
0.0
  0
ARC
  5
12F8A
  8
0
 10
251.468309633545
 20
126.8793703677805
 30
0.0
 40
0.482738405778335
 50
272.25973748513519
 51
2.093905235367179
  0
ARC
  5
12F8B
  8
0
 10
238.5316911115126
 20
126.8793703677805
 30
0.0
 40
0.4827384057783481
 50
177.9060947646328
 51
267.74026251486481
  0
LINE
  5
12F8C
  8
0
 10
238.45473423600171
 20
129.95386424928901
 30
0.0
 11
251.54526650905589
 21
129.95386424928901
 31
0.0
  0
ARC
  5
12F8D
  8
0
 10
251.46251454003439
 20
129.47249272434919
 30
0.0
 40
0.4884326293357716
 50
358.27455728783349
 51
80.245697760064076
  0
ARC
  5
12F8E
  8
0
 10
238.5374862050231
 20
129.47249272434919
 30
0.0
 40
0.4884326293357645
 50
99.754302239935939
 51
181.72544271216961
  0
LINE
  5
12F8F
  8
0
 10
251.54526650905589
 20
129.95386424928901
 30
0.0
 11
251.581803690642
 21
129.9533129063249
 31
0.0
  0
LINE
  5
12F90
  8
0
 10
238.4181970544156
 20
129.9533129063249
 30
0.0
 11
238.45473423600171
 21
129.95386424928901
 31
0.0
  0
LINE
  5
12F91
  8
0
 10
252.06687513738851
 20
129.9533129063249
 30
0.0
 11
251.581803690642
 21
129.9533129063249
 31
0.0
  0
LINE
  5
12F92
  8
0
 10
228.5269939154384
 20
130.36930862337351
 30
0.0
 11
228.52628052234621
 21
130.36930862337351
 31
0.0
  0
LINE
  5
12FD7
  8
1
 10
407.5000005587932
 20
135.0408665314317
 30
0.0
 11
407.5000005587932
 21
87.067874927073788
 31
0.0
  0
LINE
  5
12FDB
  8
0
 10
477.50000057742011
 20
125.1678759232163
 30
0.0
 11
477.0000009611249
 21
125.6678750738501
 31
0.0
  0
LINE
  5
12FDC
  8
0
 10
463.00000052899082
 20
125.6678750738501
 30
0.0
 11
462.50000091269573
 21
125.1678759232163
 31
0.0
  0
LINE
  5
12FDD
  8
0
 10
477.50000057742011
 20
124.9999994412064
 30
0.0
 11
477.50000057742011
 21
125.1678759232163
 31
0.0
  0
LINE
  5
12FDE
  8
0
 10
462.50000091269573
 20
125.1678759232163
 30
0.0
 11
462.50000091269573
 21
124.9999994412064
 31
0.0
  0
LINE
  5
12FDF
  8
0
 10
470.15360438846938
 20
130.04086669534439
 30
0.0
 11
469.84639710164589
 21
130.04086669534439
 31
0.0
  0
LINE
  5
12FE0
  8
0
 10
473.13033121638
 20
126.567875407636
 30
0.0
 11
473.13033121638
 21
129.42210156470529
 31
0.0
  0
ARC
  5
12FE1
  8
0
 10
472.5308804226853
 20
129.366233091118
 30
0.0
 40
0.6020486196330923
 50
5.3245530702996131
 51
94.040151905793564
  0
POLYLINE
  5
12FE2
  8
0
 66
     1
 10
0.0
 20
0.0
 30
0.0
 70
   128
  0
VERTEX
  5
139DE
  8
0
 10
467.59690375067248
 20
129.97578214853999
 30
0.0
  0
VERTEX
  5
139DF
  8
0
 10
467.4675882142032
 20
129.9623915925622
 30
0.0
  0
VERTEX
  5
139E0
  8
0
 10
467.30312107130862
 20
129.93365284055471
 30
0.0
  0
VERTEX
  5
139E1
  8
0
 10
467.2305326256897
 20
129.91245035082099
 30
0.0
  0
VERTEX
  5
139E2
  8
0
 10
467.15631599537988
 20
129.88097909837961
 30
0.0
  0
VERTEX
  5
139E3
  8
0
 10
467.06962616182818
 20
129.82631418854001
 30
0.0
  0
VERTEX
  5
139E4
  8
0
 10
466.98128276504548
 20
129.7394329681992
 30
0.0
  0
VERTEX
  5
139E5
  8
0
 10
466.908752294257
 20
129.6167498454451
 30
0.0
  0
VERTEX
  5
139E6
  8
0
 10
466.87204188667198
 20
129.46845535188911
 30
0.0
  0
VERTEX
  5
139E7
  8
0
 10
466.86967027373561
 20
129.4221481308341
 30
0.0
  0
SEQEND
  5
139E8
  8
0
  0
LINE
  5
12FE3
  8
0
 10
466.86967027373561
 20
129.4221481308341
 30
0.0
 11
466.86967027373561
 21
126.567875407636
 31
0.0
  0
ARC
  5
12FE4
  8
0
 10
472.63033111330628
 20
126.56787502914661
 30
0.0
 40
0.5
 50
270.0
 51
0.0
  0
ARC
  5
12FE5
  8
0
 10
467.36967037680938
 20
126.56787502914661
 30
0.0
 40
0.5
 50
180.0
 51
270.0
  0
ARC
  5
12FE6
  8
0
 10
470.00000074505778
 20
73.567875029146649
 30
0.0
 40
56.500000000000021
 50
94.822326350222738
 51
97.180755781458302
  0
ARC
  5
12FE7
  8
0
 10
470.00000074505778
 20
73.567875029146649
 30
0.0
 40
56.500000000000021
 50
82.819244218541741
 51
85.177673649777233
  0
ARC
  5
12FE8
  8
0
 10
463.000000745058
 20
129.12865256150309
 30
0.0
 40
0.5000000000000071
 50
97.180755781464825
 51
180.0
  0
ARC
  5
12FE9
  8
0
 10
463.00000074505772
 20
126.56787502914661
 30
0.0
 40
0.5
 50
180.0
 51
270.0
  0
LINE
  5
12FEA
  8
0
 10
462.50000091269573
 20
129.1286529973149
 30
0.0
 11
462.50000091269573
 21
126.567875407636
 31
0.0
  0
ARC
  5
12FEB
  8
0
 10
477.00000074505812
 20
126.56787502914661
 30
0.0
 40
0.5
 50
270.0
 51
0.0
  0
LINE
  5
12FEC
  8
0
 10
477.50000057742011
 20
126.567875407636
 30
0.0
 11
477.50000057742011
 21
129.1286529973149
 31
0.0
  0
ARC
  5
12FED
  8
0
 10
477.00000074505812
 20
129.12865256150309
 30
0.0
 40
0.5
 50
0.0
 51
82.819244218535133
  0
ARC
  5
12FEE
  8
0
 10
475.60000074505791
 20
125.06787502914661
 30
0.0
 40
1.0000000000000051
 50
90.0
 51
143.1301023541584
  0
ARC
  5
12FEF
  8
0
 10
464.40000074505781
 20
125.06787502914661
 30
0.0
 40
1.0
 50
36.869897645849719
 51
90.0
  0
LINE
  5
12FF0
  8
0
 10
463.00000052899082
 20
125.6678750738501
 30
0.0
 11
477.0000009611249
 21
125.6678750738501
 31
0.0
  0
ARC
  5
12FF1
  8
0
 10
470.52978096364541
 20
105.0654515100215
 30
0.0
 40
24.97824798689793
 50
85.502505575419335
 51
90.862916604501152
  0
ARC
  5
12FF2
  8
0
 10
469.57907590780877
 20
100.3734415714612
 30
0.0
 40
29.668629461131012
 50
89.483744827161885
 51
93.830805809561483
  0
LINE
  5
12FF3
  8
0
 10
472.86377311503611
 20
129.86787538975469
 30
0.0
 11
474.74973749369371
 21
129.86787538975469
 31
0.0
  0
LINE
  5
12FF4
  8
0
 10
465.25026399642189
 20
129.86787538975469
 30
0.0
 11
467.119474969804
 21
129.86787538975469
 31
0.0
  0
LINE
  5
12FF5
  8
0
 10
477.00000074505812
 20
126.06787502914661
 30
0.0
 11
463.00000052899082
 21
126.0678743943572
 31
0.0
  0
LINE
  5
12FF6
  8
0
 10
473.07460942392902
 20
129.62473127990961
 30
0.0
 11
477.06250062212342
 21
129.62473127990961
 31
0.0
  0
LINE
  5
12FF7
  8
0
 10
462.9375008679923
 20
129.62473127990961
 30
0.0
 11
466.90141906030448
 21
129.62473127990961
 31
0.0
  0
LINE
  5
12FF8
  8
0
 10
352.5000002048908
 20
125.1678759232163
 30
0.0
 11
352.0000005885957
 21
125.6678750738501
 31
0.0
  0
LINE
  5
12FF9
  8
0
 10
338.00000015646179
 20
125.6678750738501
 30
0.0
 11
337.50000054016681
 21
125.1678759232163
 31
0.0
  0
LINE
  5
12FFA
  8
0
 10
352.5000002048908
 20
124.9999994412064
 30
0.0
 11
352.5000002048908
 21
125.1678759232163
 31
0.0
  0
LINE
  5
12FFB
  8
0
 10
337.50000054016681
 20
125.1678759232163
 30
0.0
 11
337.50000054016681
 21
124.9999994412064
 31
0.0
  0
LINE
  5
12FFC
  8
0
 10
345.15360401594052
 20
130.04086669534439
 30
0.0
 11
344.84639672911692
 21
130.04086669534439
 31
0.0
  0
LINE
  5
12FFD
  8
0
 10
348.1303308438508
 20
126.567875407636
 30
0.0
 11
348.1303308438508
 21
129.42210156470529
 31
0.0
  0
ARC
  5
12FFE
  8
0
 10
347.5308800501561
 20
129.366233091118
 30
0.0
 40
0.6020486196330923
 50
5.3245530702996131
 51
94.040151905793564
  0
POLYLINE
  5
12FFF
  8
0
 66
     1
 10
0.0
 20
0.0
 30
0.0
 70
   128
  0
VERTEX
  5
139E9
  8
0
 10
342.59690337814362
 20
129.97578214853999
 30
0.0
  0
VERTEX
  5
139EA
  8
0
 10
342.46758784167429
 20
129.9623915925622
 30
0.0
  0
VERTEX
  5
139EB
  8
0
 10
342.30312069877948
 20
129.93365284055471
 30
0.0
  0
VERTEX
  5
139EC
  8
0
 10
342.23053225316067
 20
129.91245035082099
 30
0.0
  0
VERTEX
  5
139ED
  8
0
 10
342.15631562285091
 20
129.88097909837961
 30
0.0
  0
VERTEX
  5
139EE
  8
0
 10
342.06962578929932
 20
129.82631418854001
 30
0.0
  0
VERTEX
  5
139EF
  8
0
 10
341.98128239251639
 20
129.7394329681992
 30
0.0
  0
VERTEX
  5
139F0
  8
0
 10
341.90875192172803
 20
129.6167498454451
 30
0.0
  0
VERTEX
  5
139F1
  8
0
 10
341.87204151414301
 20
129.46845535188911
 30
0.0
  0
VERTEX
  5
139F2
  8
0
 10
341.86966990120669
 20
129.4221481308341
 30
0.0
  0
SEQEND
  5
139F3
  8
0
  0
LINE
  5
13000
  8
0
 10
341.86966990120669
 20
129.4221481308341
 30
0.0
 11
341.86966990120669
 21
126.567875407636
 31
0.0
  0
ARC
  5
13001
  8
0
 10
347.63033074077742
 20
126.56787502914661
 30
0.0
 40
0.5
 50
270.0
 51
0.0
  0
ARC
  5
13002
  8
0
 10
342.36967000428018
 20
126.56787502914661
 30
0.0
 40
0.5
 50
180.0
 51
270.0
  0
ARC
  5
13003
  8
0
 10
345.00000037252869
 20
73.567875029146649
 30
0.0
 40
56.500000000000021
 50
94.822326350222738
 51
97.180755781458302
  0
ARC
  5
13004
  8
0
 10
345.00000037252869
 20
73.567875029146649
 30
0.0
 40
56.500000000000021
 50
82.819244218541741
 51
85.177673649777233
  0
ARC
  5
13005
  8
0
 10
338.00000037252892
 20
129.12865256150309
 30
0.0
 40
0.5000000000000071
 50
97.180755781464825
 51
180.0
  0
ARC
  5
13006
  8
0
 10
338.00000037252869
 20
126.56787502914661
 30
0.0
 40
0.5
 50
180.0
 51
270.0
  0
LINE
  5
13007
  8
0
 10
337.50000054016681
 20
129.1286529973149
 30
0.0
 11
337.50000054016681
 21
126.567875407636
 31
0.0
  0
ARC
  5
13008
  8
0
 10
352.0000003725288
 20
126.56787502914661
 30
0.0
 40
0.5
 50
270.0
 51
0.0
  0
LINE
  5
13009
  8
0
 10
352.5000002048908
 20
126.567875407636
 30
0.0
 11
352.5000002048908
 21
129.1286529973149
 31
0.0
  0
ARC
  5
1300A
  8
0
 10
352.0000003725288
 20
129.12865256150309
 30
0.0
 40
0.5
 50
0.0
 51
82.819244218535133
  0
ARC
  5
1300B
  8
0
 10
350.60000037252883
 20
125.06787502914661
 30
0.0
 40
1.0000000000000051
 50
90.0
 51
143.13010235415791
  0
ARC
  5
1300C
  8
0
 10
339.40000037252878
 20
125.06787502914661
 30
0.0
 40
1.0
 50
36.869897645849228
 51
90.0
  0
LINE
  5
1300D
  8
0
 10
338.00000015646179
 20
125.6678750738501
 30
0.0
 11
352.0000005885957
 21
125.6678750738501
 31
0.0
  0
ARC
  5
1300E
  8
0
 10
345.52978059111621
 20
105.0654515100215
 30
0.0
 40
24.97824798689793
 50
85.502505575419335
 51
90.862916604501152
  0
ARC
  5
1300F
  8
0
 10
344.57907553527969
 20
100.3734415714612
 30
0.0
 40
29.668629461131012
 50
89.483744827161885
 51
93.830805809561483
  0
LINE
  5
13010
  8
0
 10
347.86377274250708
 20
129.86787538975469
 30
0.0
 11
349.74973712116469
 21
129.86787538975469
 31
0.0
  0
LINE
  5
13011
  8
0
 10
340.25026362389292
 20
129.86787538975469
 30
0.0
 11
342.11947459727492
 21
129.86787538975469
 31
0.0
  0
LINE
  5
13012
  8
0
 10
352.0000003725288
 20
126.06787502914661
 30
0.0
 11
338.00000015646179
 21
126.0678743943572
 31
0.0
  0
LINE
  5
13013
  8
0
 10
348.07460905139999
 20
129.62473127990961
 30
0.0
 11
352.06250024959428
 21
129.62473127990961
 31
0.0
  0
LINE
  5
13014
  8
0
 10
337.93750049546333
 20
129.62473127990961
 30
0.0
 11
341.90141868777539
 21
129.62473127990961
 31
0.0
  0
ARC
  5
130E1
  8
0
 10
195.38973094268761
 20
186.3576391337146
 30
0.0
 40
1.8245429833872779
 50
235.302373856423
 51
281.3087155437197
  0
ARC
  5
130E2
  8
0
 10
195.57972562967271
 20
186.3824856546168
 30
0.0
 40
1.821709352357286
 50
275.28475229157328
 51
321.32902432585172
  0
ARC
  5
130E3
  8
0
 10
195.8726364605221
 20
186.1047114569364
 30
0.0
 40
1.419857131977408
 50
322.69498281675271
 51
9.1207553695378873
  0
ARC
  5
130E4
  8
0
 10
195.86899410999411
 20
186.1471373374994
 30
0.0
 40
1.4173645950186951
 50
7.403812025825621
 51
53.943983258972239
  0
ARC
  5
130E5
  8
0
 10
195.667174962052
 20
185.79881643171331
 30
0.0
 40
1.818229507434886
 50
55.263004268314859
 51
101.3827273778703
  0
ARC
  5
130E6
  8
0
 10
195.47639665456711
 20
185.7623616167657
 30
0.0
 40
1.826669530307816
 50
95.279216989034722
 51
141.22421880500119
  0
ARC
  5
130E7
  8
0
 10
195.18704779287481
 20
186.04531639082211
 30
0.0
 40
1.4244295197933321
 50
142.80845113217791
 51
189.10040575737381
  0
ARC
  5
130E8
  8
0
 10
195.18660542814121
 20
186.00321009578551
 30
0.0
 40
1.41794060066021
 50
187.42298929873229
 51
233.89790660392441
  0
LINE
  5
130E9
  8
0
 10
193.6692577600478
 20
181.58812643960121
 30
0.0
 11
196.6384771093725
 21
182.76079904753709
 31
0.0
  0
LINE
  5
130EA
  8
0
 10
193.58892746269689
 20
181.0858741868287
 30
0.0
 11
193.6692577600478
 21
181.58812643960121
 31
0.0
  0
LINE
  5
130EB
  8
0
 10
197.0236125215886
 20
180.53557383827851
 30
0.0
 11
193.58892746269689
 21
181.0858741868287
 31
0.0
  0
LINE
  5
130EC
  8
0
 10
197.10094023495901
 20
181.0153036843985
 30
0.0
 11
197.0236125215886
 21
180.53557383827851
 31
0.0
  0
LINE
  5
130ED
  8
0
 10
194.38922785222519
 20
181.44998825155201
 30
0.0
 11
197.10094023495901
 21
181.0153036843985
 31
0.0
  0
LINE
  5
130EE
  8
0
 10
197.3554446175693
 20
182.6046429108828
 30
0.0
 11
194.38922785222519
 21
181.44998825155201
 31
0.0
  0
LINE
  5
130EF
  8
0
 10
197.43877749890081
 20
183.12416246626509
 30
0.0
 11
197.3554446175693
 21
182.6046429108828
 31
0.0
  0
LINE
  5
130F0
  8
0
 10
194.00409337133161
 20
183.6744627566076
 30
0.0
 11
197.43877749890081
 21
183.12416246626509
 31
0.0
  0
LINE
  5
130F1
  8
0
 10
193.9267656579612
 20
183.19473308511081
 30
0.0
 11
194.00409337133161
 21
183.6744627566076
 31
0.0
  0
LINE
  5
130F2
  8
0
 10
196.6384771093725
 20
182.76079904753709
 30
0.0
 11
193.9267656579612
 21
183.19473308511081
 31
0.0
  0
ARC
  5
130F3
  8
0
 10
195.59397862482541
 20
186.5049212573206
 30
0.0
 40
1.4567837451932231
 50
273.26483328342181
 51
318.91206986293929
  0
ARC
  5
130F4
  8
0
 10
195.35641169228441
 20
186.5589272973921
 30
0.0
 40
1.5421051311680971
 50
239.02865876211331
 51
281.99661621003912
  0
ARC
  5
130F5
  8
0
 10
195.09988354162431
 20
186.01891397029991
 30
0.0
 40
0.9488433531019442
 50
188.6886459438405
 51
235.52764487708649
  0
ARC
  5
130F6
  8
0
 10
195.09407892602741
 20
186.0079635332857
 30
0.0
 40
0.9415036811843084
 50
140.85634786054959
 51
188.0832495226594
  0
ARC
  5
130F7
  8
0
 10
195.46984132627551
 20
185.6287222733244
 30
0.0
 40
1.473434399589713
 50
93.567986320020481
 51
138.64240727321939
  0
ARC
  5
130F8
  8
0
 10
195.7022247583773
 20
185.608911852001
 30
0.0
 40
1.5252167982778351
 50
58.770049680246501
 51
102.2677807196189
  0
ARC
  5
130F9
  8
0
 10
195.9525079349539
 20
186.12983028985309
 30
0.0
 40
0.9516705904962446
 50
8.7270993931344663
 51
55.392540394031791
  0
ARC
  5
130FA
  8
0
 10
195.9567521154608
 20
186.14226346365041
 30
0.0
 40
0.9456607884026539
 50
321.0279920014284
 51
8.0215173358018426
  0
ENDSEC
  0
EOF
