  0
SECTION
  2
HEADER
  9
$ACADVER
  1
AC1009
  9
$INSBASE
 10
0.0
 20
0.0
 30
0.0
  9
$EXTMIN
 10
0.0
 20
-302.75252440175041
 30
0.0
  9
$EXTMAX
 10
487.00000166892988
 20
206.19157769531009
 30
0.0
  9
$LIMMIN
 10
0.0
 20
0.0
  9
$LIMMAX
 10
187.5
 20
135.0
  9
$ORTHOMODE
 70
     1
  9
$REGENMODE
 70
     1
  9
$FILLMODE
 70
     1
  9
$QTEXTMODE
 70
     0
  9
$MIRRTEXT
 70
     0
  9
$DRAGMODE
 70
     2
  9
$LTSCALE
 40
5.0
  9
$OSMODE
 70
    37
  9
$ATTMODE
 70
     1
  9
$TEXTSIZE
 40
0.2
  9
$TRACEWID
 40
0.05
  9
$TEXTSTYLE
  7
STANDARD
  9
$CLAYER
  8
0
  9
$CELTYPE
  6
BYLAYER
  9
$CECOLOR
 62
   256
  9
$DIMSCALE
 40
0.5
  9
$DIMASZ
 40
3.0
  9
$DIMEXO
 40
2.0
  9
$DIMDLI
 40
0.3799999999999999
  9
$DIMRND
 40
0.0
  9
$DIMDLE
 40
0.0
  9
$DIMEXE
 40
2.0
  9
$DIMTP
 40
0.0
  9
$DIMTM
 40
0.0
  9
$DIMTXT
 40
3.2000000000000002
  9
$DIMCEN
 40
0.09
  9
$DIMTSZ
 40
0.0
  9
$DIMTOL
 70
     0
  9
$DIMLIM
 70
     0
  9
$DIMTIH
 70
     0
  9
$DIMTOH
 70
     0
  9
$DIMSE1
 70
     0
  9
$DIMSE2
 70
     0
  9
$DIMTAD
 70
     1
  9
$DIMZIN
 70
     8
  9
$DIMBLK
  1

  9
$DIMASO
 70
     0
  9
$DIMSHO
 70
     0
  9
$DIMPOST
  1

  9
$DIMAPOST
  1

  9
$DIMALT
 70
     0
  9
$DIMALTD
 70
     2
  9
$DIMALTF
 40
25.399999999999999
  9
$DIMLFAC
 40
1.0
  9
$DIMTOFL
 70
     0
  9
$DIMTVP
 40
1.6000000000000001
  9
$DIMTIX
 70
     1
  9
$DIMSOXD
 70
     0
  9
$DIMSAH
 70
     0
  9
$DIMBLK1
  1

  9
$DIMBLK2
  1

  9
$DIMSTYLE
  2
STANDARD
  9
$DIMCLRD
 70
     0
  9
$DIMCLRE
 70
     0
  9
$DIMCLRT
 70
     0
  9
$DIMTFAC
 40
1.0
  9
$DIMGAP
 40
1.0
  9
$LUNITS
 70
     2
  9
$LUPREC
 70
     1
  9
$SKETCHINC
 40
0.1
  9
$FILLETRAD
 40
0.4
  9
$AUNITS
 70
     0
  9
$AUPREC
 70
     0
  9
$MENU
  1
E:\r13\win\SUPPORT\ACAD
  9
$ELEVATION
 40
0.0
  9
$PELEVATION
 40
0.0
  9
$THICKNESS
 40
0.0
  9
$LIMCHECK
 70
     0
  9
$BLIPMODE
 70
     0
  9
$CHAMFERA
 40
0.0
  9
$CHAMFERB
 40
0.0
  9
$SKPOLY
 70
     0
  9
$TDCREATE
 40
2451824.7531229062
  9
$TDUPDATE
 40
2459191.672461852
  9
$TDINDWG
 40
1.2138506712999999
  9
$TDUSRTIMER
 40
1.2138504860999999
  9
$USRTIMER
 70
     1
  9
$ANGBASE
 50
0.0
  9
$ANGDIR
 70
     0
  9
$PDMODE
 70
     0
  9
$PDSIZE
 40
0.0
  9
$PLINEWID
 40
0.0
  9
$COORDS
 70
     1
  9
$SPLFRAME
 70
     0
  9
$SPLINETYPE
 70
     6
  9
$SPLINESEGS
 70
     8
  9
$ATTDIA
 70
     0
  9
$ATTREQ
 70
     1
  9
$HANDLING
 70
     1
  9
$HANDSEED
  5
14219
  9
$SURFTAB1
 70
     6
  9
$SURFTAB2
 70
     6
  9
$SURFTYPE
 70
     6
  9
$SURFU
 70
     6
  9
$SURFV
 70
     6
  9
$UCSNAME
  2

  9
$UCSORG
 10
0.0
 20
0.0
 30
0.0
  9
$UCSXDIR
 10
1.0
 20
0.0
 30
0.0
  9
$UCSYDIR
 10
0.0
 20
1.0
 30
0.0
  9
$PUCSNAME
  2

  9
$PUCSORG
 10
0.0
 20
0.0
 30
0.0
  9
$PUCSXDIR
 10
1.0
 20
0.0
 30
0.0
  9
$PUCSYDIR
 10
0.0
 20
1.0
 30
0.0
  9
$USERI1
 70
     0
  9
$USERI2
 70
     1
  9
$USERI3
 70
     0
  9
$USERI4
 70
     0
  9
$USERI5
 70
     0
  9
$USERR1
 40
0.0
  9
$USERR2
 40
0.0
  9
$USERR3
 40
0.0
  9
$USERR4
 40
0.0
  9
$USERR5
 40
0.0
  9
$WORLDVIEW
 70
     1
  9
$SHADEDGE
 70
     3
  9
$SHADEDIF
 70
    70
  9
$TILEMODE
 70
     1
  9
$MAXACTVP
 70
    16
  9
$PLIMCHECK
 70
     0
  9
$PEXTMIN
 10
1.0000000000000000E+020
 20
1.0000000000000000E+020
 30
1.0000000000000000E+020
  9
$PEXTMAX
 10
-1.0000000000000000E+020
 20
-1.0000000000000000E+020
 30
-1.0000000000000000E+020
  9
$PLIMMIN
 10
0.0
 20
0.0
  9
$PLIMMAX
 10
12.0
 20
9.0
  9
$UNITMODE
 70
     0
  9
$VISRETAIN
 70
     0
  9
$PLINEGEN
 70
     0
  9
$PSLTSCALE
 70
     0
  0
ENDSEC
  0
SECTION
  2
TABLES
  0
TABLE
  2
VPORT
 70
     1
  0
VPORT
  2
*ACTIVE
 70
     0
 10
0.0
 20
0.0
 11
1.0
 21
1.0
 12
362.34662576687123
 22
150.0
 13
0.0
 23
0.0
 14
5.0
 24
5.0
 15
5.0
 25
5.0
 16
0.0
 26
0.0
 36
1.0
 17
0.0
 27
0.0
 37
0.0
 40
300.0
 41
2.415644171779141
 42
50.0
 43
0.0
 44
0.0
 50
0.0
 51
0.0
 71
     0
 72
   500
 73
     1
 74
     0
 75
     0
 76
     0
 77
     0
 78
     0
  0
ENDTAB
  0
TABLE
  2
LTYPE
 70
     5
  0
LTYPE
  2
CONTINUOUS
 70
     0
  3
Solid Line
 72
    65
 73
     0
 40
0.0
  0
LTYPE
  2
CENTER
 70
     0
  3
____ _ ____ _ ____ _ ____ _ ____ _ ____ _ ____
 72
    65
 73
     4
 40
2.0
 49
1.25
 49
-0.25
 49
0.25
 49
-0.25
  0
LTYPE
  2
PHANTOM2
 70
     0
  3
___ _ _ ___ _ _ ___ _ _ ___ _ _
 72
    65
 73
     6
 40
1.25
 49
0.625
 49
-0.125
 49
0.125
 49
-0.125
 49
0.125
 49
-0.125
  0
LTYPE
  2
HIDDEN
 70
     0
  3
__ __ __ __ __ __ __ __ __ __ __ __ __ __ __ __
 72
    65
 73
     2
 40
0.375
 49
0.25
 49
-0.125
  0
LTYPE
  2
PHANTOM
 70
     0
  3
_____ _ _ _____ _ _ _____ _ _ _____ _ _ ____
 72
    65
 73
     6
 40
2.5
 49
1.25
 49
-0.25
 49
0.25
 49
-0.25
 49
0.25
 49
-0.25
  0
ENDTAB
  0
TABLE
  2
LAYER
 70
     6
  0
LAYER
  2
0
 70
     0
 62
     7
  6
CONTINUOUS
  0
LAYER
  2
1
 70
     0
 62
     1
  6
CENTER
  0
LAYER
  2
2
 70
     0
 62
     2
  6
HIDDEN
  0
LAYER
  2
5
 70
     0
 62
     3
  6
PHANTOM
  0
LAYER
  2
3
 70
     0
 62
     3
  6
CONTINUOUS
  0
LAYER
  2
DEFPOINTS
 70
     0
 62
     7
  6
CONTINUOUS
  0
ENDTAB
  0
TABLE
  2
STYLE
 70
     2
  0
STYLE
  2
STANDARD
 70
     0
 40
0.0
 41
1.0
 50
0.0
 71
     0
 42
0.2
  3
TXT
  4
BIGFONT
  0
STYLE
  2
STANDARD1
 70
     0
 40
0.0
 41
1.0
 50
0.0
 71
     0
 42
3.0
  3
txt
  4

  0
ENDTAB
  0
TABLE
  2
VIEW
 70
     0
  0
ENDTAB
  0
TABLE
  2
UCS
 70
     0
  0
ENDTAB
  0
TABLE
  2
APPID
 70
    11
  0
APPID
  2
ACAD
 70
     0
  0
APPID
  2
ACAD_MLEADERVER
 70
     0
  0
APPID
  2
ACAD_EXEMPT_FROM_CAD_STANDARDS
 70
     0
  0
APPID
  2
ACAD_DSTYLE_DIMJAG
 70
     0
  0
APPID
  2
ACAD_DSTYLE_DIMTALN
 70
     0
  0
APPID
  2
ACAD_NAV_VCDISPLAY
 70
     0
  0
APPID
  2
ACAD_PSEXT
 70
     0
  0
APPID
  2
ACAECLAYERSTANDARD
 70
     0
  0
APPID
  2
ACCMTRANSPARENCY
 70
     0
  0
APPID
  2
ACAD_DSTYLE_DIMRADIAL_EXTENSION
 70
     0
  0
APPID
  2
ACADANNOTATIVE
 70
     0
  0
ENDTAB
  0
TABLE
  2
DIMSTYLE
 70
     1
  0
DIMSTYLE
  2
STANDARD
 70
     0
  3

  4

  5

  6

  7

 40
1.0
 41
0.18
 42
0.0625
 43
0.38
 44
0.18
 45
0.0
 46
0.0
 47
0.0
 48
0.0
140
0.18
141
0.09
142
0.0
143
25.399999999999999
144
1.0
145
0.0
146
1.0
147
0.09
 71
     0
 72
     0
 73
     1
 74
     1
 75
     0
 76
     0
 77
     0
 78
     0
170
     0
171
     2
172
     0
173
     0
174
     0
175
     0
176
     0
177
     0
178
     0
  0
ENDTAB
  0
ENDSEC
  0
SECTION
  2
BLOCKS
  0
BLOCK
  8
0
  2
$MODEL_SPACE
 70
     0
 10
0.0
 20
0.0
 30
0.0
  3
$MODEL_SPACE
  1

  0
ENDBLK
  5
9
  8
0
  0
BLOCK
 67
     1
  8
0
  2
$PAPER_SPACE
 70
     0
 10
0.0
 20
0.0
 30
0.0
  3
$PAPER_SPACE
  1

  0
ENDBLK
  5
E
 67
     1
  8
0
  0
ENDSEC
  0
SECTION
  2
ENTITIES
  0
TEXT
  5
7FEA
  8
0
 62
     3
 10
125.0
 20
0.0
 30
0.0
 40
3.2000000000000002
  1
■サムターンクランパーの取付け方法〈オフを上にする場合〉(下図)
  0
TEXT
  5
7FEB
  8
0
 62
     3
 10
175.0866666666665
 20
-19.168098188633891
 30
0.0
 40
3.2000000000000002
  1
6mmのプレートに固定する場合
 72
     1
 11
202.49999999999989
 21
-19.594764855300561
 31
0.0
 73
     1
  0
TEXT
  5
80DD
  8
0
 62
     3
 10
314.61999999999989
 20
-19.168098188633891
 30
0.0
 40
3.2000000000000002
  1
6mmを超え14mm以下のプレートに固定する場合
 72
     1
 11
357.49999999999989
 21
-19.594764855300561
 31
0.0
 73
     1
  0
TEXT
  5
8474
  8
0
 62
     3
 10
158.4333333333332
 20
-134.27626221391381
 30
0.0
 40
3.2000000000000002
  1
組付け状態
 72
     1
 11
167.49999999999989
 21
-134.27626221391381
 31
0.0
  0
POLYLINE
  5
8487
  8
5
 66
     1
 10
0.0
 20
0.0
 30
0.0
 70
     1
  0
VERTEX
  5
1403E
  8
5
 10
125.0
 20
-10.0
 30
0.0
  0
VERTEX
  5
1403F
  8
5
 10
435.0
 20
-10.0
 30
0.0
  0
VERTEX
  5
14040
  8
5
 10
435.0
 20
-302.75252440175041
 30
0.0
  0
VERTEX
  5
14041
  8
5
 10
125.0
 20
-302.75252440175041
 30
0.0
  0
SEQEND
  5
14042
  8
5
  0
TEXT
  5
8489
  8
0
 62
     3
 10
230.2466666666667
 20
-134.27626221391381
 30
0.0
 40
3.2000000000000002
  1
取付け穴
 72
     1
 11
237.5
 21
-134.27626221391381
 31
0.0
  0
TEXT
  5
848A
  8
0
 62
     3
 10
313.43333333333322
 20
-134.27626221391381
 30
0.0
 40
3.2000000000000002
  1
組付け状態
 72
     1
 11
322.49999999999989
 21
-134.27626221391381
 31
0.0
  0
TEXT
  5
848B
  8
0
 62
     3
 10
385.24666666666673
 20
-134.27626221391381
 30
0.0
 40
3.2000000000000002
  1
取付け穴
 72
     1
 11
392.5
 21
-134.27626221391381
 31
0.0
  0
TEXT
  5
87B9
  8
0
 62
     3
 10
0.0
 20
0.0
 30
0.0
 40
10.0
  1
QCTHL0834-14S
  7
STANDARD1
  0
TEXT
  5
884B
  8
0
 62
     3
 10
125.0
 20
-7.0
 30
0.0
 40
3.2000000000000002
  1
■Installation Instructions for Quarter-Turn Clamps〈For Y-axis Positioning of "OFF" Mark〉 (see diagram below)
  0
TEXT
  5
884C
  8
0
 62
     3
 10
143.77999999999989
 20
-26.168098188633891
 30
0.0
 40
3.2000000000000002
  1
For installation on plate of 6 mm thickness.
 72
     1
 11
202.49999999999989
 21
-26.594764855300561
 31
0.0
 73
     1
  0
TEXT
  5
884D
  8
0
 62
     3
 10
283.63333333333333
 20
-26.168098188633891
 30
0.0
 40
3.2000000000000002
  1
For installation on plate of over 6 to 14 mm thickness.
 72
     1
 11
357.49999999999989
 21
-26.594764855300561
 31
0.0
 73
     1
  0
TEXT
  5
884E
  8
0
 62
     3
 10
142.53999999999991
 20
-141.27626221391381
 30
0.0
 40
3.2000000000000002
  1
Installed condition
 72
     1
 11
167.49999999999989
 21
-141.27626221391381
 31
0.0
  0
TEXT
  5
884F
  8
0
 62
     3
 10
215.4733333333333
 20
-141.27626221391381
 30
0.0
 40
3.2000000000000002
  1
Installation hole
 72
     1
 11
237.5
 21
-141.27626221391381
 31
0.0
  0
TEXT
  5
8850
  8
0
 62
     3
 10
297.53999999999991
 20
-141.27626221391381
 30
0.0
 40
3.2000000000000002
  1
Installed condition
 72
     1
 11
322.49999999999989
 21
-141.27626221391381
 31
0.0
  0
TEXT
  5
8851
  8
0
 62
     3
 10
370.4733333333333
 20
-141.27626221391381
 30
0.0
 40
3.2000000000000002
  1
Installation hole
 72
     1
 11
392.5
 21
-141.27626221391381
 31
0.0
  0
CIRCLE
  5
E557
  8
0
 10
407.50000055879332
 20
184.19157769531009
 30
0.0
 40
4.7497368348150673
  0
ARC
  5
E57C
  8
0
 10
404.0372423803812
 20
196.7923473385197
 30
0.0
 40
1.8194188490691501
 50
331.02990570554857
 51
17.188839690110601
  0
ARC
  5
E57D
  8
0
 10
403.98314765442922
 20
196.97966251624001
 30
0.0
 40
1.82617571457771
 50
11.06112765922693
 51
57.071242750899202
  0
ARC
  5
E57E
  8
0
 10
404.23451085337928
 20
197.30105181421831
 30
0.0
 40
1.4202418864077111
 50
58.534822148540869
 51
104.96593054452021
  0
ARC
  5
E57F
  8
0
 10
404.19108121359329
 20
197.29193833111881
 30
0.0
 40
1.418522982765998
 50
103.17590754858141
 51
149.71964759371139
  0
ARC
  5
E580
  8
0
 10
404.56126699596712
 20
197.12532469240429
 30
0.0
 40
1.8227176488002379
 50
151.0644359187836
 51
197.16048733869391
  0
ARC
  5
E581
  8
0
 10
404.60989504681999
 20
196.93748352007771
 30
0.0
 40
1.8240856876479901
 50
191.06074743253981
 51
237.10539372271529
  0
ARC
  5
E582
  8
0
 10
404.36327569070858
 20
196.6259826470895
 30
0.0
 40
1.4290923663425861
 50
238.62525236240151
 51
284.82159884601151
  0
ARC
  5
E583
  8
0
 10
404.40313057162501
 20
196.62527459945139
 30
0.0
 40
1.4187309471619509
 50
283.27273084612631
 51
329.77577577305402
  0
LINE
  5
E584
  8
0
 10
412.01093921437842
 20
196.4476281777024
 30
0.0
 11
410.6055336352436
 21
196.85303382575509
 31
0.0
  0
LINE
  5
E585
  8
0
 10
412.12205018848158
 20
196.8312622979283
 30
0.0
 11
412.01093921437842
 21
196.4476281777024
 31
0.0
  0
LINE
  5
E586
  8
0
 10
410.71664460934682
 20
197.236667945981
 30
0.0
 11
412.12205018848158
 21
196.8312622979283
 31
0.0
  0
LINE
  5
E587
  8
0
 10
411.02820623666031
 20
198.31699747592211
 30
0.0
 11
410.71664460934682
 21
197.236667945981
 31
0.0
  0
LINE
  5
E588
  8
0
 10
412.82400198280789
 20
197.79898002743721
 30
0.0
 11
411.02820623666031
 21
198.31699747592211
 31
0.0
  0
LINE
  5
E589
  8
0
 10
412.93511342257239
 20
198.18261321634051
 30
0.0
 11
412.82400198280789
 21
197.79898002743721
 31
0.0
  0
LINE
  5
E58A
  8
0
 10
410.65958759747417
 20
198.83952066302299
 30
0.0
 11
412.93511342257239
 21
198.18261321634051
 31
0.0
  0
LINE
  5
E58B
  8
0
 10
409.69637444242812
 20
195.50168290734291
 30
0.0
 11
410.65958759747417
 21
198.83952066302299
 31
0.0
  0
LINE
  5
E58C
  8
0
 10
410.176104288548
 20
195.3627938404679
 30
0.0
 11
409.69637444242812
 21
195.50168290734291
 31
0.0
  0
LINE
  5
E58D
  8
0
 10
410.6055336352436
 20
196.85303382575509
 30
0.0
 11
410.176104288548
 21
195.3627938404679
 31
0.0
  0
ARC
  5
E58E
  8
0
 10
407.50000055879332
 20
184.19157769531009
 30
0.0
 40
9.7500000000000053
 50
15.458917323615379
 51
90.0
  0
ARC
  5
E58F
  8
0
 10
407.50000055879332
 20
184.19157769531009
 30
0.0
 40
9.7500000000000089
 50
195.41913746628779
 51
344.56766745780902
  0
ARC
  5
E590
  8
0
 10
407.50000055879332
 20
184.19157769531009
 30
0.0
 40
9.75
 50
90.0
 51
164.58086275409099
  0
LINE
  5
E591
  8
0
 10
408.8795557664705
 20
197.1893064677715
 30
0.0
 11
407.42009626148479
 21
197.23960720002651
 31
0.0
  0
LINE
  5
E592
  8
0
 10
408.89231849461771
 20
197.57294058799741
 30
0.0
 11
408.8795557664705
 21
197.1893064677715
 31
0.0
  0
LINE
  5
E593
  8
0
 10
407.43285902601178
 20
197.62324038892979
 30
0.0
 11
408.89231849461771
 21
197.57294058799741
 31
0.0
  0
LINE
  5
E594
  8
0
 10
407.47264881349088
 20
198.7598767504096
 30
0.0
 11
407.43285902601178
 21
197.62324038892979
 31
0.0
  0
LINE
  5
E595
  8
0
 10
409.33751373551758
 20
198.69531281292441
 30
0.0
 11
407.47264881349088
 21
198.7598767504096
 31
0.0
  0
LINE
  5
E596
  8
0
 10
409.3510272260753
 20
199.07894600182769
 30
0.0
 11
409.33751373551758
 21
198.69531281292441
 31
0.0
  0
LINE
  5
E597
  8
0
 10
407.00643259799091
 20
199.1607775911688
 30
0.0
 11
409.3510272260753
 21
199.07894600182769
 31
0.0
  0
LINE
  5
E598
  8
0
 10
406.88556171255169
 20
195.6945616751909
 30
0.0
 11
407.00643259799091
 21
199.1607775911688
 31
0.0
  0
LINE
  5
E599
  8
0
 10
407.36529145680811
 20
195.6772949546575
 30
0.0
 11
406.88556171255169
 21
195.6945616751909
 31
0.0
  0
LINE
  5
E59A
  8
0
 10
407.42009626148479
 20
197.23960720002651
 30
0.0
 11
407.36529145680811
 21
195.6772949546575
 31
0.0
  0
LINE
  5
E59B
  8
0
 10
418.58892783522577
 20
181.0858741868287
 30
0.0
 11
418.64315709162491
 21
181.42493158187111
 31
0.0
  0
LINE
  5
E59C
  8
0
 10
422.0236128941176
 20
180.53557383827871
 30
0.0
 11
418.58892783522577
 21
181.0858741868287
 31
0.0
  0
POLYLINE
  5
E59F
  8
0
 66
     1
 10
0.0
 20
0.0
 30
0.0
 70
   128
  0
VERTEX
  5
14044
  8
0
 10
418.4677450731395
 20
187.6496943645179
 30
0.0
  0
VERTEX
  5
14045
  8
0
 10
419.06505811959482
 20
189.8788945749402
 30
0.0
  0
VERTEX
  5
14046
  8
0
 10
419.65823702514149
 20
192.09267068654299
 30
0.0
  0
SEQEND
  5
14047
  8
0
  0
LINE
  5
E5A0
  8
0
 10
419.65823702514149
 20
192.09267068654299
 30
0.0
 11
418.40048868209101
 21
191.27531638368961
 31
0.0
  0
ARC
  5
E5A1
  8
0
 10
407.50000055879332
 20
184.19157769531009
 30
0.0
 40
13.000000000000011
 50
33.018034190655591
 51
56.981965809344459
  0
LINE
  5
E5A2
  8
0
 10
414.5837392471729
 20
195.09206581860781
 30
0.0
 11
415.40109355002619
 21
196.34981416165829
 31
0.0
  0
POLYLINE
  5
E5A3
  8
0
 66
     1
 10
0.0
 20
0.0
 30
0.0
 70
   128
  0
VERTEX
  5
14048
  8
0
 10
415.40109355002619
 20
196.34981416165829
 30
0.0
  0
VERTEX
  5
14049
  8
0
 10
413.1900951080022
 20
195.75737938284871
 30
0.0
  0
VERTEX
  5
1404A
  8
0
 10
410.95811722800107
 20
195.15932220965621
 30
0.0
  0
SEQEND
  5
1404B
  8
0
  0
ARC
  5
E5A4
  8
0
 10
407.50000055879332
 20
184.19157769531009
 30
0.0
 40
11.499999999999989
 50
17.499999999999851
 51
72.500000000000128
  0
LINE
  5
E5A5
  8
0
 10
407.50000055879332
 20
193.49157772958279
 30
0.0
 11
406.50000051129592
 21
193.49157772958279
 31
0.0
  0
ARC
  5
E5A6
  8
0
 10
407.50000055879332
 20
184.19157769531009
 30
0.0
 40
9.3000000000000114
 50
16.072489068318522
 51
90.0
  0
LINE
  5
E5A7
  8
0
 10
406.50000051129592
 20
193.49157772958279
 30
0.0
 11
406.50000051129592
 21
191.62461217492819
 31
0.0
  0
ARC
  5
E5A8
  8
0
 10
403.8338967638386
 20
196.96514230972619
 30
0.0
 40
1.4890341937566269
 50
9.5196210146058586
 51
54.16867872084574
  0
ARC
  5
E5A9
  8
0
 10
403.83568579784151
 20
196.73859980956129
 30
0.0
 40
1.5410618951319099
 50
334.82386527223019
 51
17.866846606887471
  0
ARC
  5
E5AA
  8
0
 10
404.39178718620639
 20
196.54361028115801
 30
0.0
 40
0.9567283121558267
 50
284.72745947846869
 51
331.22224426337249
  0
ARC
  5
E5AB
  8
0
 10
404.40961076908661
 20
196.5397712210698
 30
0.0
 40
0.9486236411147199
 50
236.80606736219309
 51
283.7452030610379
  0
ARC
  5
E5AC
  8
0
 10
404.75117958114708
 20
196.9478081038105
 30
0.0
 40
1.4783975245870069
 50
189.40767032818431
 51
234.38536532094909
  0
ARC
  5
E5AD
  8
0
 10
404.7468322893784
 20
197.17927944523001
 30
0.0
 40
1.5291987478110269
 50
154.59690556716521
 51
198.02280766871701
  0
ARC
  5
E5AE
  8
0
 10
404.19916254471849
 20
197.3776048393612
 30
0.0
 40
0.9510415130223361
 50
104.4661493478423
 51
151.23378221758111
  0
ARC
  5
E5AF
  8
0
 10
404.18910002175312
 20
197.38316095444151
 30
0.0
 40
0.9431848648224965
 50
56.798152478284628
 51
103.9585680175912
  0
LINE
  5
E5B6
  8
0
 10
417.25000075995899
 20
109.4999996945262
 30
0.0
 11
417.25000075995899
 21
112.4999992549419
 31
0.0
  0
LINE
  5
E5B7
  8
0
 10
411.75000078976132
 20
112.4999992549419
 30
0.0
 11
411.75000078976132
 21
109.4999996945262
 31
0.0
  0
LINE
  5
E5B8
  8
0
 10
416.00000102072931
 20
112.4999992549419
 30
0.0
 11
416.00000102072931
 21
114.9999996647238
 31
0.0
  0
LINE
  5
E5B9
  8
0
 10
413.000000528991
 20
114.9999996647238
 30
0.0
 11
413.000000528991
 21
112.4999992549419
 31
0.0
  0
LINE
  5
E5BA
  8
0
 10
396.2500001117586
 20
109.4999996945262
 30
0.0
 11
396.2500001117586
 21
112.4999992549419
 31
0.0
  0
LINE
  5
E5BB
  8
0
 10
390.75000014156092
 20
112.4999992549419
 30
0.0
 11
390.75000014156092
 21
109.4999996945262
 31
0.0
  0
LINE
  5
E5BC
  8
0
 10
395.00000037252892
 20
112.4999992549419
 30
0.0
 11
395.00000037252892
 21
114.9999996647238
 31
0.0
  0
LINE
  5
E5BD
  8
0
 10
392.00000081211311
 20
114.9999996647238
 30
0.0
 11
392.00000081211311
 21
112.4999992549419
 31
0.0
  0
LINE
  5
E5C2
  8
0
 10
411.50000074878312
 20
100.5678746383637
 30
0.0
 11
411.50000074878312
 21
109.4999996945262
 31
0.0
  0
LINE
  5
E5C3
  8
0
 10
403.50000036880351
 20
109.4999996945262
 30
0.0
 11
403.50000036880351
 21
100.5678746383637
 31
0.0
  0
LINE
  5
E5C4
  8
0
 10
403.50000036880351
 20
100.5678746383637
 30
0.0
 11
404.94337620213611
 21
98.067874461412416
 31
0.0
  0
LINE
  5
E5C5
  8
0
 10
410.05662491545058
 20
98.067874461412416
 30
0.0
 11
411.50000074878312
 21
100.5678746383637
 31
0.0
  0
LINE
  5
E5D4
  8
0
 10
390.49999963492138
 20
115.4999997466802
 30
0.0
 11
391.0000006482004
 21
114.9999996647238
 31
0.0
  0
LINE
  5
E5D5
  8
0
 10
424.00000046938641
 20
114.9999996647238
 30
0.0
 11
424.50000148266531
 21
115.4999997466802
 31
0.0
  0
ARC
  5
E5D6
  8
0
 10
391.50000055879337
 20
121.661007823776
 30
0.0
 40
1.0
 50
110.0000000000035
 51
180.0
  0
ARC
  5
E5D7
  8
0
 10
423.50000055879332
 20
121.661007823776
 30
0.0
 40
1.0
 50
0.0
 51
69.999999999996433
  0
LINE
  5
E5D8
  8
0
 10
424.50000148266531
 20
115.4999997466802
 30
0.0
 11
424.50000148266531
 21
121.661008708179
 31
0.0
  0
LINE
  5
E5D9
  8
0
 10
390.49999963492138
 20
121.661008708179
 30
0.0
 11
390.49999963492138
 21
115.4999997466802
 31
0.0
  0
LINE
  5
E5DB
  8
0
 10
397.7500003576277
 20
124.9999994412064
 30
0.0
 11
391.15798089653242
 21
122.6007001474499
 31
0.0
  0
ARC
  5
E5DC
  8
0
 10
416.90000055879329
 20
114.5999995604157
 30
0.0
 40
0.3999999999999986
 50
90.0
 51
180.0
  0
ARC
  5
E5DD
  8
0
 10
398.1000005587934
 20
114.5999995604157
 30
0.0
 40
0.3999999999999986
 50
0.0
 51
90.0
  0
LINE
  5
E5DE
  8
0
 10
416.50000017136313
 20
112.4999992549419
 30
0.0
 11
416.50000017136313
 21
114.59999941289421
 31
0.0
  0
LINE
  5
E5DF
  8
0
 10
398.50000094622362
 20
114.59999941289421
 30
0.0
 11
398.50000094622362
 21
110.4999993927777
 31
0.0
  0
LINE
  5
E5E0
  8
0
 10
398.50000094622362
 20
110.4999993927777
 30
0.0
 11
399.50000017881382
 21
109.4999996945262
 31
0.0
  0
LINE
  5
E5E3
  8
0
 10
417.25000075995899
 20
112.4999992549419
 30
0.0
 11
411.75000078976132
 21
112.4999992549419
 31
0.0
  0
LINE
  5
E5E6
  8
0
 10
396.2500001117586
 20
109.4999996945262
 30
0.0
 11
390.75000014156097
 21
109.4999996945262
 31
0.0
  0
LINE
  5
E5E8
  8
0
 10
396.2500001117586
 20
112.4999992549419
 30
0.0
 11
390.75000014156097
 21
112.4999992549419
 31
0.0
  0
CIRCLE
  5
E5E9
  8
0
 10
407.50000055879332
 20
103.0678745604156
 30
0.0
 40
1.700000000000002
  0
CIRCLE
  5
E5EA
  8
0
 10
407.50000055879332
 20
103.0678745604156
 30
0.0
 40
1.9999999999999929
  0
LINE
  5
E5ED
  8
0
 10
403.50000036880351
 20
100.5678746383637
 30
0.0
 11
411.50000074878312
 21
100.5678746383637
 31
0.0
  0
LINE
  5
E5EE
  8
0
 10
410.05662491545058
 20
98.067874461412416
 30
0.0
 11
404.94337620213611
 21
98.067874461412416
 31
0.0
  0
LINE
  5
E632
  8
0
 10
424.00000046938641
 20
114.9999996647238
 30
0.0
 11
391.0000006482004
 21
114.9999996647238
 31
0.0
  0
LINE
  5
E634
  8
0
 10
417.25000075995899
 20
124.9999994412064
 30
0.0
 11
397.7500003576277
 21
124.9999994412064
 31
0.0
  0
LINE
  5
E63F
  8
0
 10
398.50000094622362
 20
110.4999993927777
 30
0.0
 11
411.75000078976132
 21
110.4999993927777
 31
0.0
  0
LINE
  5
E640
  8
0
 10
417.25000075995899
 20
109.4999996945262
 30
0.0
 11
399.50000017881382
 21
109.4999996945262
 31
0.0
  0
LINE
  5
E652
  8
0
 10
391.15798089653242
 20
122.6007001474499
 30
0.0
 11
423.84202022105433
 21
122.60070014745
 31
0.0
  0
LINE
  5
E655
  8
0
 10
484.87435661256279
 20
109.4999996945262
 30
0.0
 11
484.87435661256279
 21
112.4999992549419
 31
0.0
  0
LINE
  5
E656
  8
0
 10
479.37435664236523
 20
112.4999992549419
 30
0.0
 11
479.37435664236523
 21
109.4999996945262
 31
0.0
  0
LINE
  5
E657
  8
0
 10
483.6243559420106
 20
112.4999992549419
 30
0.0
 11
483.6243559420106
 21
114.9999996647238
 31
0.0
  0
LINE
  5
E658
  8
0
 10
480.62435638159479
 20
114.9999996647238
 30
0.0
 11
480.62435638159479
 21
112.4999992549419
 31
0.0
  0
LINE
  5
E659
  8
0
 10
460.62564484775038
 20
109.4999996945262
 30
0.0
 11
460.62564484775038
 21
112.4999992549419
 31
0.0
  0
LINE
  5
E65A
  8
0
 10
455.1256448775527
 20
112.4999992549419
 30
0.0
 11
455.1256448775527
 21
109.4999996945262
 31
0.0
  0
LINE
  5
E65B
  8
0
 10
459.3756451085207
 20
112.4999992549419
 30
0.0
 11
459.3756451085207
 21
114.9999996647238
 31
0.0
  0
LINE
  5
E65C
  8
0
 10
456.3756455481049
 20
114.9999996647238
 30
0.0
 11
456.3756455481049
 21
112.4999992549419
 31
0.0
  0
LINE
  5
E65D
  8
0
 10
476.70000053942192
 20
101.0678746039048
 30
0.0
 11
477.00000096112478
 21
101.3678745599463
 31
0.0
  0
LINE
  5
E65E
  8
0
 10
477.00000096112478
 20
104.7678746050223
 30
0.0
 11
476.70000053942192
 21
105.0678744446486
 31
0.0
  0
LINE
  5
E65F
  8
0
 10
476.70000053942192
 20
105.0678744446486
 30
0.0
 11
474.00000093504769
 21
105.0678744446486
 31
0.0
  0
LINE
  5
E660
  8
0
 10
466.00000055506808
 20
105.0678744446486
 30
0.0
 11
463.30000095069403
 21
105.0678744446486
 31
0.0
  0
LINE
  5
E661
  8
0
 10
463.30000095069403
 20
101.0678746039048
 30
0.0
 11
466.00000055506808
 21
101.0678746039048
 31
0.0
  0
LINE
  5
E662
  8
0
 10
474.00000093504769
 20
101.0678746039048
 30
0.0
 11
476.70000053942192
 21
101.0678746039048
 31
0.0
  0
LINE
  5
E663
  8
0
 10
463.30000095069403
 20
105.0678744446486
 30
0.0
 11
463.00000052899111
 21
104.7678746050223
 31
0.0
  0
LINE
  5
E664
  8
0
 10
463.00000052899111
 20
101.3678745599463
 30
0.0
 11
463.30000095069403
 21
101.0678746039048
 31
0.0
  0
LINE
  5
E669
  8
0
 10
466.00000055506808
 20
100.5678746383637
 30
0.0
 11
467.44337638840068
 21
98.067874461412416
 31
0.0
  0
LINE
  5
E66A
  8
0
 10
472.55662510171521
 20
98.067874461412416
 30
0.0
 11
474.00000093504769
 21
100.5678746383637
 31
0.0
  0
LINE
  5
E66B
  8
0
 10
474.00000093504769
 20
105.0678744446486
 30
0.0
 11
474.00000093504769
 21
109.4999996945262
 31
0.0
  0
LINE
  5
E66C
  8
0
 10
474.00000093504769
 20
100.5678746383637
 30
0.0
 11
474.00000093504769
 21
101.0678746039048
 31
0.0
  0
LINE
  5
E66D
  8
0
 10
466.00000055506808
 20
101.0678746039048
 30
0.0
 11
466.00000055506808
 21
100.5678746383637
 31
0.0
  0
LINE
  5
E66E
  8
0
 10
466.00000055506808
 20
109.4999996945262
 30
0.0
 11
466.00000055506808
 21
105.0678744446486
 31
0.0
  0
LINE
  5
E680
  8
0
 10
452.9999998211859
 20
115.4999997466802
 30
0.0
 11
453.50000083446491
 21
114.9999996647238
 31
0.0
  0
LINE
  5
E681
  8
0
 10
486.50000065565098
 20
114.9999996647238
 30
0.0
 11
487.00000166892988
 21
115.4999997466802
 31
0.0
  0
ARC
  5
E682
  8
0
 10
454.00000074505789
 20
121.661007823776
 30
0.0
 40
1.0
 50
109.9999999999974
 51
180.0
  0
ARC
  5
E683
  8
0
 10
486.00000074505778
 20
121.661007823776
 30
0.0
 40
1.0000000000000071
 50
0.0
 51
69.99999999999649
  0
LINE
  5
E684
  8
0
 10
487.00000166892988
 20
115.4999997466802
 30
0.0
 11
487.00000166892988
 21
121.661008708179
 31
0.0
  0
LINE
  5
E685
  8
0
 10
452.9999998211859
 20
121.661008708179
 30
0.0
 11
452.9999998211859
 21
115.4999997466802
 31
0.0
  0
LINE
  5
E686
  8
0
 10
486.34202088838362
 20
122.60070044456189
 30
0.0
 11
479.75000094622362
 21
124.9999994412064
 31
0.0
  0
LINE
  5
E689
  8
0
 10
460.25000054389233
 20
124.9999994412064
 30
0.0
 11
453.65798108279688
 21
122.6007001474499
 31
0.0
  0
ARC
  5
E68C
  8
0
 10
479.40000074505792
 20
114.5999995604157
 30
0.0
 40
0.3999999999999986
 50
90.0
 51
180.0
  0
ARC
  5
E68D
  8
0
 10
460.60000074505791
 20
114.5999995604157
 30
0.0
 40
0.3999999999999986
 50
0.0
 51
90.0
  0
LINE
  5
E68E
  8
0
 10
479.0000003576277
 20
110.4999993927777
 30
0.0
 11
479.0000003576277
 21
114.59999941289421
 31
0.0
  0
LINE
  5
E68F
  8
0
 10
461.00000113248808
 20
114.59999941289421
 30
0.0
 11
461.00000113248808
 21
110.4999993927777
 31
0.0
  0
LINE
  5
E690
  8
0
 10
461.00000113248808
 20
110.4999993927777
 30
0.0
 11
462.00000036507828
 21
109.4999996945262
 31
0.0
  0
LINE
  5
E691
  8
0
 10
478.0000011250375
 20
109.4999996945262
 30
0.0
 11
479.0000003576277
 21
110.4999993927777
 31
0.0
  0
LINE
  5
E694
  8
0
 10
484.87435661256279
 20
109.4999996945262
 30
0.0
 11
479.37435664236523
 21
109.4999996945262
 31
0.0
  0
LINE
  5
E695
  8
0
 10
484.87435661256279
 20
112.4999992549419
 30
0.0
 11
479.37435664236523
 21
112.4999992549419
 31
0.0
  0
LINE
  5
E697
  8
0
 10
460.62564484775038
 20
109.4999996945262
 30
0.0
 11
455.1256448775527
 21
109.4999996945262
 31
0.0
  0
LINE
  5
E699
  8
0
 10
460.62564484775038
 20
112.4999992549419
 30
0.0
 11
455.1256448775527
 21
112.4999992549419
 31
0.0
  0
LINE
  5
E69A
  8
0
 10
476.70000053942192
 20
101.0678746039048
 30
0.0
 11
476.70000053942192
 21
105.0678744446486
 31
0.0
  0
LINE
  5
E69B
  8
0
 10
477.00000096112478
 20
104.7678746050223
 30
0.0
 11
477.00000096112478
 21
101.3678745599463
 31
0.0
  0
LINE
  5
E69C
  8
0
 10
463.30000095069403
 20
105.0678744446486
 30
0.0
 11
463.30000095069403
 21
101.0678746039048
 31
0.0
  0
LINE
  5
E69D
  8
0
 10
463.00000052899111
 20
101.3678745599463
 30
0.0
 11
463.00000052899111
 21
104.7678746050223
 31
0.0
  0
LINE
  5
E6A0
  8
0
 10
472.55662510171521
 20
98.067874461412416
 30
0.0
 11
467.44337638840068
 21
98.067874461412416
 31
0.0
  0
LINE
  5
E6A3
  8
0
 10
466.00000055506808
 20
100.5678746383637
 30
0.0
 11
474.00000093504781
 21
100.5678746383637
 31
0.0
  0
ARC
  5
E6A4
  8
0
 10
461.81330157529311
 20
102.8739269309164
 30
0.0
 40
4.726578431530065
 50
2.351701458350083
 51
27.566977811728648
  0
ARC
  5
E6A5
  8
0
 10
461.93534846301981
 20
103.2289988516313
 30
0.0
 40
4.6033713505274019
 50
332.04403169260678
 51
357.99415968255897
  0
ARC
  5
E6A6
  8
0
 10
478.18670557677842
 20
103.2618236233686
 30
0.0
 40
4.7265841475170403
 50
182.35171599794461
 51
207.56696222907519
  0
ARC
  5
E6A7
  8
0
 10
478.06465312373263
 20
102.90675029100051
 30
0.0
 40
4.6033714463587634
 50
152.04403201089031
 51
177.99415998984571
  0
LINE
  5
E6B6
  8
0
 10
486.50000065565098
 20
114.9999996647238
 30
0.0
 11
453.50000083446491
 21
114.9999996647238
 31
0.0
  0
POLYLINE
  5
E6B8
  8
0
 66
     1
 10
0.0
 20
0.0
 30
0.0
 70
   128
  0
VERTEX
  5
1404C
  8
0
 10
470.37694299244288
 20
123.72505608946079
 30
0.0
  0
VERTEX
  5
1404D
  8
0
 10
470.34963812795439
 20
123.88097997754809
 30
0.0
  0
VERTEX
  5
1404E
  8
0
 10
470.38315735873738
 20
123.9978162571788
 30
0.0
  0
VERTEX
  5
1404F
  8
0
 10
470.48001010436531
 20
124.1133579984307
 30
0.0
  0
VERTEX
  5
14050
  8
0
 10
470.66598200937699
 20
124.2284489795565
 30
0.0
  0
SEQEND
  5
14051
  8
0
  0
ARC
  5
E6B9
  8
0
 10
471.21922815419998
 20
124.2182528106666
 30
0.0
 40
0.9760570165334067
 50
210.35093646770781
 51
260.17168355800669
  0
ARC
  5
E6BA
  8
0
 10
472.0880330941211
 20
126.9698357497448
 30
0.0
 40
3.8549697037006299
 50
254.4194937621715
 51
270.74570623972812
  0
ARC
  5
E6BB
  8
0
 10
472.24783868050298
 20
125.70664109951819
 30
0.0
 40
2.5937666339634151
 50
267.57747527074463
 51
289.21345872663699
  0
POLYLINE
  5
E6BC
  8
0
 66
     1
 10
0.0
 20
0.0
 30
0.0
 70
   128
  0
VERTEX
  5
14052
  8
0
 10
473.38970571756329
 20
123.72636739164589
 30
0.0
  0
VERTEX
  5
14053
  8
0
 10
473.4177923109379
 20
123.5740067437291
 30
0.0
  0
VERTEX
  5
14054
  8
0
 10
473.3827636390921
 20
123.4617022797465
 30
0.0
  0
VERTEX
  5
14055
  8
0
 10
473.28304157592328
 20
123.3544753864407
 30
0.0
  0
VERTEX
  5
14056
  8
0
 10
473.1014173757282
 20
123.2573496177792
 30
0.0
  0
SEQEND
  5
14057
  8
0
  0
ARC
  5
E6BD
  8
0
 10
472.48016934629931
 20
123.2104627100931
 30
0.0
 40
1.045664406537899
 50
29.562653283899898
 51
77.034399504632376
  0
ARC
  5
E6BE
  8
0
 10
471.66108878724469
 20
121.0696960881159
 30
0.0
 40
3.330829422597366
 50
71.557954659540158
 51
90.561545450140073
  0
ARC
  5
E6BF
  8
0
 10
471.5433528207285
 20
122.0966483753992
 30
0.0
 40
2.3052881287373279
 50
87.88464638327109
 51
112.3702657172901
  0
LINE
  5
E6C0
  8
0
 10
482.25605122745009
 20
123.795316927135
 30
0.0
 11
482.66145687550289
 21
123.80372118204831
 31
0.0
  0
LINE
  5
E6C1
  8
0
 10
482.63968534767599
 20
123.6503006890416
 30
0.0
 11
482.25605122745009
 21
123.795316927135
 31
0.0
  0
LINE
  5
E6C2
  8
0
 10
483.0450909957288
 20
123.6584721133113
 30
0.0
 11
482.63968534767599
 21
123.6503006890416
 31
0.0
  0
LINE
  5
E6C3
  8
0
 10
484.12542052566982
 20
123.2495265081525
 30
0.0
 11
483.0450909957288
 21
123.6584721133113
 31
0.0
  0
LINE
  5
E6C4
  8
0
 10
483.60740307718493
 20
123.23042880743741
 30
0.0
 11
484.12542052566982
 21
123.2495265081525
 31
0.0
  0
LINE
  5
E6C5
  8
0
 10
483.9910362660882
 20
123.08564353734251
 30
0.0
 11
483.60740307718493
 21
123.23042880743741
 31
0.0
  0
LINE
  5
E6C6
  8
0
 10
484.64794371277083
 20
123.0946755036711
 30
0.0
 11
483.9910362660882
 21
123.08564353734251
 31
0.0
  0
LINE
  5
E6C7
  8
0
 10
481.31010595709068
 20
124.3552653118968
 30
0.0
 11
484.64794371277083
 21
123.0946755036711
 31
0.0
  0
LINE
  5
E6C8
  8
0
 10
481.17121689021582
 20
124.3676817044615
 30
0.0
 11
481.31010595709068
 21
124.3552653118968
 31
0.0
  0
LINE
  5
E6C9
  8
0
 10
482.66145687550289
 20
123.80372118204831
 30
0.0
 11
481.17121689021582
 21
124.3676817044615
 31
0.0
  0
LINE
  5
E6CA
  8
0
 10
479.75000094622362
 20
124.9999994412064
 30
0.0
 11
460.25000054389233
 21
124.9999994412064
 31
0.0
  0
LINE
  5
E6CB
  8
0
 10
482.99772951751942
 20
123.79135135561231
 30
0.0
 11
483.04819746945498
 21
123.7995541030006
 31
0.0
  0
LINE
  5
E6CC
  8
0
 10
483.38136363774532
 20
123.6519994214177
 30
0.0
 11
482.99772951751942
 21
123.79135135561231
 31
0.0
  0
LINE
  5
E6CD
  8
0
 10
483.43178132061678
 20
123.6599410015086
 30
0.0
 11
483.38136363774532
 21
123.6519994214177
 31
0.0
  0
LINE
  5
E6CE
  8
0
 10
484.50373586267222
 20
123.2275845482945
 30
0.0
 11
484.5683145611647
 21
123.24627673962451
 31
0.0
  0
LINE
  5
E6CF
  8
0
 10
484.88736905157549
 20
123.08842819184061
 30
0.0
 11
484.50373586267222
 21
123.2275845482945
 31
0.0
  0
LINE
  5
E6D0
  8
0
 10
484.97545334471522
 20
123.0980903440372
 30
0.0
 11
484.88736905157549
 21
123.08842819184061
 31
0.0
  0
LINE
  5
E6D3
  8
0
 10
467.39654948934879
 20
124.3744561448693
 30
0.0
 11
468.56922209728481
 21
123.37644156068561
 31
0.0
  0
LINE
  5
E6D4
  8
0
 10
466.89429723657639
 20
124.35736265033481
 30
0.0
 11
467.39654948934879
 21
124.3744561448693
 31
0.0
  0
LINE
  5
E6D5
  8
0
 10
466.34399688802631
 20
123.0976352468133
 30
0.0
 11
466.89429723657639
 21
124.35736265033481
 31
0.0
  0
LINE
  5
E6D6
  8
0
 10
466.82372673414619
 20
123.1101112440228
 30
0.0
 11
466.34399688802631
 21
123.0976352468133
 31
0.0
  0
LINE
  5
E6D7
  8
0
 10
467.25841130129959
 20
124.10782407969231
 30
0.0
 11
466.82372673414619
 21
123.1101112440228
 31
0.0
  0
LINE
  5
E6D8
  8
0
 10
468.41306596063049
 20
123.1110071763396
 30
0.0
 11
467.25841130129959
 21
124.10782407969231
 31
0.0
  0
LINE
  5
E6D9
  8
0
 10
468.93258551601292
 20
123.0975775048136
 30
0.0
 11
468.41306596063049
 21
123.1110071763396
 31
0.0
  0
LINE
  5
E6DA
  8
0
 10
469.48288580635528
 20
124.3573347106576
 30
0.0
 11
468.93258551601292
 21
123.0975775048136
 31
0.0
  0
LINE
  5
E6DB
  8
0
 10
469.00315613485839
 20
124.3739103898406
 30
0.0
 11
469.48288580635528
 21
124.3573347106576
 31
0.0
  0
LINE
  5
E6DC
  8
0
 10
468.56922209728481
 20
123.37644156068561
 30
0.0
 11
469.00315613485839
 21
124.3739103898406
 31
0.0
  0
POLYLINE
  5
E6DD
  8
0
 66
     1
 10
0.0
 20
0.0
 30
0.0
 70
   128
  0
VERTEX
  5
14058
  8
0
 10
473.45811741426559
 20
124.3630511686206
 30
0.0
  0
VERTEX
  5
14059
  8
0
 10
475.68731762468781
 20
123.8579241558909
 30
0.0
  0
VERTEX
  5
1405A
  8
0
 10
477.90109373629059
 20
123.2711406424641
 30
0.0
  0
SEQEND
  5
1405B
  8
0
  0
LINE
  5
E6DE
  8
0
 10
477.90109373629059
 20
123.2711406424641
 30
0.0
 11
477.0837394334373
 21
123.81709683686491
 31
0.0
  0
LINE
  5
E6DF
  8
0
 10
477.0837394334373
 20
123.81709683686491
 30
0.0
 11
480.90048886835552
 21
123.81709683686491
 31
0.0
  0
LINE
  5
E6E0
  8
0
 10
480.90048886835552
 20
123.81709683686491
 30
0.0
 11
482.15823721140589
 21
123.2711406424641
 31
0.0
  0
POLYLINE
  5
E6E1
  8
0
 66
     1
 10
0.0
 20
0.0
 30
0.0
 70
   128
  0
VERTEX
  5
1405C
  8
0
 10
482.15823721140589
 20
123.2711406424641
 30
0.0
  0
VERTEX
  5
1405D
  8
0
 10
481.5658024325964
 20
123.8572349771857
 30
0.0
  0
VERTEX
  5
1405E
  8
0
 10
480.9677452594039
 20
124.3630511686206
 30
0.0
  0
SEQEND
  5
1405F
  8
0
  0
LINE
  5
E6E2
  8
0
 10
480.9677452594039
 20
124.3630511686206
 30
0.0
 11
473.45811741426559
 21
124.3630511686206
 31
0.0
  0
ARC
  5
E6F3
  8
0
 10
471.5040391600225
 20
124.06608915845381
 30
0.0
 40
0.7217143160373915
 50
206.63716208226651
 51
258.15705948809438
  0
POLYLINE
  5
E6F4
  8
0
 66
     1
 10
0.0
 20
0.0
 30
0.0
 70
   128
  0
VERTEX
  5
14060
  8
0
 10
471.0451111476865
 20
124.1417502984404
 30
0.0
  0
VERTEX
  5
14061
  8
0
 10
470.86056375876041
 20
123.9900900050997
 30
0.0
  0
VERTEX
  5
14062
  8
0
 10
470.8311099838462
 20
123.8687237724662
 30
0.0
  0
VERTEX
  5
14063
  8
0
 10
470.85892498027499
 20
123.7425165250897
 30
0.0
  0
SEQEND
  5
14064
  8
0
  0
ARC
  5
E6F5
  8
0
 10
471.6428165655567
 20
122.6986494992491
 30
0.0
 40
1.561983253168189
 50
88.489155307625253
 51
112.4984239808103
  0
ARC
  5
E6F6
  8
0
 10
471.69227949564117
 20
122.0092594731573
 30
0.0
 40
2.2508454869883772
 50
71.386058728812117
 51
90.210755282944405
  0
ARC
  5
E6F7
  8
0
 10
472.2312637089214
 20
123.40971779166711
 30
0.0
 40
0.754306863070778
 50
26.259834211907499
 51
76.23632572126256
  0
POLYLINE
  5
E6F8
  8
0
 66
     1
 10
0.0
 20
0.0
 30
0.0
 70
   128
  0
VERTEX
  5
14065
  8
0
 10
472.72153764963122
 20
123.3602365478873
 30
0.0
  0
VERTEX
  5
14066
  8
0
 10
472.90543707087608
 20
123.49888812750579
 30
0.0
  0
VERTEX
  5
14067
  8
0
 10
472.93525895103778
 20
123.6014341935515
 30
0.0
  0
VERTEX
  5
14068
  8
0
 10
472.9077237006274
 20
123.7434552982449
 30
0.0
  0
SEQEND
  5
14069
  8
0
  0
ARC
  5
E6F9
  8
0
 10
472.12783870436431
 20
124.9803194933702
 30
0.0
 40
1.7254411574596831
 50
268.4992297863331
 51
290.12596933029369
  0
ARC
  5
E6FA
  8
0
 10
472.07064862350762
 20
125.7565540281083
 30
0.0
 40
2.5011126071671721
 50
253.39550990274731
 51
270.2749009779514
  0
LINE
  5
E70B
  8
0
 10
461.00000113248808
 20
110.4999993927777
 30
0.0
 11
479.0000003576277
 21
110.4999993927777
 31
0.0
  0
LINE
  5
E70C
  8
0
 10
478.0000011250375
 20
109.4999996945262
 30
0.0
 11
462.00000036507828
 21
109.4999996945262
 31
0.0
  0
LINE
  5
E722
  8
0
 10
453.65798108279688
 20
122.6007001474499
 30
0.0
 11
486.3420204073189
 21
122.6007001474499
 31
0.0
  0
LINE
  5
E724
  8
0
 10
335.62564447522129
 20
109.4999996945262
 30
0.0
 11
335.62564447522129
 21
112.4999992549419
 31
0.0
  0
LINE
  5
E725
  8
0
 10
330.12564450502367
 20
112.4999992549419
 30
0.0
 11
330.12564450502367
 21
109.4999996945262
 31
0.0
  0
LINE
  5
E726
  8
0
 10
334.37564473599173
 20
112.4999992549419
 30
0.0
 11
334.37564473599173
 21
114.9999996647238
 31
0.0
  0
LINE
  5
E727
  8
0
 10
331.37564517557593
 20
114.9999996647238
 30
0.0
 11
331.37564517557593
 21
112.4999992549419
 31
0.0
  0
LINE
  5
E728
  8
0
 10
359.87435624003382
 20
109.4999996945262
 30
0.0
 11
359.87435624003382
 21
112.4999992549419
 31
0.0
  0
LINE
  5
E729
  8
0
 10
354.37435626983608
 20
112.4999992549419
 30
0.0
 11
354.37435626983608
 21
109.4999996945262
 31
0.0
  0
LINE
  5
E72A
  8
0
 10
358.62435556948162
 20
112.4999992549419
 30
0.0
 11
358.62435556948162
 21
114.9999996647238
 31
0.0
  0
LINE
  5
E72B
  8
0
 10
355.62435600906582
 20
114.9999996647238
 30
0.0
 11
355.62435600906582
 21
112.4999992549419
 31
0.0
  0
LINE
  5
E72C
  8
0
 10
347.7500003576277
 20
109.4999996945262
 30
0.0
 11
347.7500003576277
 21
112.4999992549419
 31
0.0
  0
LINE
  5
E72D
  8
0
 10
342.25000038743002
 20
112.4999992549419
 30
0.0
 11
342.25000038743002
 21
109.4999996945262
 31
0.0
  0
LINE
  5
E72E
  8
0
 10
346.50000038556738
 20
112.4999992549419
 30
0.0
 11
346.50000038556738
 21
114.9999996647238
 31
0.0
  0
LINE
  5
E72F
  8
0
 10
343.50000035949029
 20
114.9999996647238
 30
0.0
 11
343.50000035949029
 21
112.4999992549419
 31
0.0
  0
LINE
  5
E730
  8
0
 10
338.30000057816483
 20
105.0678744446486
 30
0.0
 11
338.00000015646202
 21
104.7678746050223
 31
0.0
  0
LINE
  5
E731
  8
0
 10
338.00000015646202
 20
101.3678745599463
 30
0.0
 11
338.30000057816483
 21
101.0678746039048
 31
0.0
  0
LINE
  5
E732
  8
0
 10
338.30000057816483
 20
101.0678746039048
 30
0.0
 11
341.000000182539
 21
101.0678746039048
 31
0.0
  0
LINE
  5
E733
  8
0
 10
349.00000056251861
 20
101.0678746039048
 30
0.0
 11
351.70000016689278
 21
101.0678746039048
 31
0.0
  0
LINE
  5
E734
  8
0
 10
351.70000016689278
 20
105.0678744446486
 30
0.0
 11
349.00000056251861
 21
105.0678744446486
 31
0.0
  0
LINE
  5
E735
  8
0
 10
341.000000182539
 20
105.0678744446486
 30
0.0
 11
338.30000057816483
 21
105.0678744446486
 31
0.0
  0
LINE
  5
E736
  8
0
 10
351.70000016689278
 20
101.0678746039048
 30
0.0
 11
352.0000005885957
 21
101.3678745599463
 31
0.0
  0
LINE
  5
E737
  8
0
 10
352.0000005885957
 20
104.7678746050223
 30
0.0
 11
351.70000016689278
 21
105.0678744446486
 31
0.0
  0
LINE
  5
E73C
  8
0
 10
341.000000182539
 20
100.5678746383637
 30
0.0
 11
342.44337601587159
 21
98.067874461412416
 31
0.0
  0
LINE
  5
E73D
  8
0
 10
347.55662472918613
 20
98.067874461412416
 30
0.0
 11
349.00000056251861
 21
100.5678746383637
 31
0.0
  0
LINE
  5
E73E
  8
0
 10
349.00000056251861
 20
105.0678744446486
 30
0.0
 11
349.00000056251861
 21
109.4999996945262
 31
0.0
  0
LINE
  5
E73F
  8
0
 10
349.00000056251861
 20
100.5678746383637
 30
0.0
 11
349.00000056251861
 21
101.0678746039048
 31
0.0
  0
LINE
  5
E740
  8
0
 10
341.000000182539
 20
101.0678746039048
 30
0.0
 11
341.000000182539
 21
100.5678746383637
 31
0.0
  0
LINE
  5
E741
  8
0
 10
341.000000182539
 20
109.4999996945262
 30
0.0
 11
341.000000182539
 21
105.0678744446486
 31
0.0
  0
ARC
  5
E753
  8
0
 10
329.0000003725288
 20
121.661007823776
 30
0.0
 40
1.0
 50
110.0000000000035
 51
180.0
  0
ARC
  5
E754
  8
0
 10
361.0000003725288
 20
121.661007823776
 30
0.0
 40
1.0
 50
0.0
 51
69.99999999999649
  0
LINE
  5
E755
  8
0
 10
327.99999944865681
 20
115.4999997466802
 30
0.0
 11
328.50000046193583
 21
114.9999996647238
 31
0.0
  0
LINE
  5
E756
  8
0
 10
361.50000028312189
 20
114.9999996647238
 30
0.0
 11
362.0000012964008
 21
115.4999997466802
 31
0.0
  0
LINE
  5
E757
  8
0
 10
362.0000012964008
 20
115.4999997466802
 30
0.0
 11
362.0000012964008
 21
121.661008708179
 31
0.0
  0
LINE
  5
E758
  8
0
 10
327.99999944865681
 20
121.661008708179
 30
0.0
 11
327.99999944865681
 21
115.4999997466802
 31
0.0
  0
LINE
  5
E759
  8
0
 10
361.34202003478981
 20
122.6007001474499
 30
0.0
 11
354.75000057369448
 21
124.9999994412064
 31
0.0
  0
ARC
  5
E75D
  8
0
 10
354.40000037252878
 20
114.5999995604157
 30
0.0
 40
0.3999999999999986
 50
90.0
 51
180.0
  0
ARC
  5
E75E
  8
0
 10
335.60000037252883
 20
114.5999995604157
 30
0.0
 40
0.3999999999999986
 50
0.0
 51
90.0
  0
LINE
  5
E75F
  8
0
 10
353.99999998509861
 20
110.4999993927777
 30
0.0
 11
353.99999998509861
 21
114.59999941289421
 31
0.0
  0
LINE
  5
E760
  8
0
 10
336.00000075995899
 20
114.59999941289421
 30
0.0
 11
336.00000075995899
 21
110.4999993927777
 31
0.0
  0
LINE
  5
E761
  8
0
 10
336.00000075995899
 20
110.4999993927777
 30
0.0
 11
336.99999999254919
 21
109.4999996945262
 31
0.0
  0
LINE
  5
E762
  8
0
 10
353.00000075250841
 20
109.4999996945262
 30
0.0
 11
353.99999998509861
 21
110.4999993927777
 31
0.0
  0
LINE
  5
E766
  8
0
 10
335.62564447522129
 20
109.4999996945262
 30
0.0
 11
330.12564450502367
 21
109.4999996945262
 31
0.0
  0
LINE
  5
E768
  8
0
 10
335.62564447522129
 20
112.4999992549419
 30
0.0
 11
330.12564450502367
 21
112.4999992549419
 31
0.0
  0
LINE
  5
E769
  8
0
 10
359.87435624003382
 20
112.4999992549419
 30
0.0
 11
354.37435626983608
 21
112.4999992549419
 31
0.0
  0
LINE
  5
E76A
  8
0
 10
359.87435624003382
 20
109.4999996945262
 30
0.0
 11
354.37435626983608
 21
109.4999996945262
 31
0.0
  0
LINE
  5
E76D
  8
0
 10
347.7500003576277
 20
112.4999992549419
 30
0.0
 11
342.25000038743002
 21
112.4999992549419
 31
0.0
  0
LINE
  5
E76F
  8
0
 10
338.30000057816483
 20
105.0678744446486
 30
0.0
 11
338.30000057816483
 21
101.0678746039048
 31
0.0
  0
LINE
  5
E771
  8
0
 10
338.00000015646202
 20
101.3678745599463
 30
0.0
 11
338.00000015646202
 21
104.7678746050224
 31
0.0
  0
LINE
  5
E773
  8
0
 10
351.70000016689278
 20
101.0678746039048
 30
0.0
 11
351.70000016689278
 21
105.0678744446486
 31
0.0
  0
LINE
  5
E774
  8
0
 10
352.0000005885957
 20
104.7678746050223
 30
0.0
 11
352.0000005885957
 21
101.3678745599463
 31
0.0
  0
LINE
  5
E779
  8
0
 10
347.55662472918613
 20
98.067874461412416
 30
0.0
 11
342.44337601587159
 21
98.067874461412416
 31
0.0
  0
LINE
  5
E77A
  8
0
 10
341.000000182539
 20
100.5678746383637
 30
0.0
 11
349.00000056251861
 21
100.5678746383637
 31
0.0
  0
POLYLINE
  5
E77B
  8
0
 66
     1
 10
0.0
 20
0.0
 30
0.0
 70
   128
  0
VERTEX
  5
1406A
  8
0
 10
348.99672742933012
 20
105.061317468062
 30
0.0
  0
VERTEX
  5
1406B
  8
0
 10
348.99825712665893
 20
105.0643854774534
 30
0.0
  0
VERTEX
  5
1406C
  8
0
 10
348.93657796084858
 20
104.9378053518012
 30
0.0
  0
VERTEX
  5
1406D
  8
0
 10
348.80483004264511
 20
104.6416372060775
 30
0.0
  0
VERTEX
  5
1406E
  8
0
 10
348.6322622559963
 20
104.16026962921021
 30
0.0
  0
VERTEX
  5
1406F
  8
0
 10
348.55262113735063
 20
103.8559823296964
 30
0.0
  0
VERTEX
  5
14070
  8
0
 10
348.4925205633042
 20
103.51250648964189
 30
0.0
  0
VERTEX
  5
14071
  8
0
 10
348.4663066267965
 20
103.1914813735056
 30
0.0
  0
VERTEX
  5
14072
  8
0
 10
348.47068058326818
 20
102.8542849904624
 30
0.0
  0
VERTEX
  5
14073
  8
0
 10
348.55034475214762
 20
102.29009258328
 30
0.0
  0
VERTEX
  5
14074
  8
0
 10
348.69585924781842
 20
101.7797080799937
 30
0.0
  0
VERTEX
  5
14075
  8
0
 10
348.78423035144777
 20
101.5445901080966
 30
0.0
  0
VERTEX
  5
14076
  8
0
 10
348.86850829236192
 20
101.3458544854074
 30
0.0
  0
VERTEX
  5
14077
  8
0
 10
348.93703756853921
 20
101.19697605259709
 30
0.0
  0
VERTEX
  5
14078
  8
0
 10
348.98377086967213
 20
101.10053457319729
 30
0.0
  0
VERTEX
  5
14079
  8
0
 10
348.99976633489109
 20
101.0683423606679
 30
0.0
  0
VERTEX
  5
1407A
  8
0
 10
348.99845736101253
 20
101.07097113505
 30
0.0
  0
SEQEND
  5
1407B
  8
0
  0
POLYLINE
  5
E77C
  8
0
 66
     1
 10
0.0
 20
0.0
 30
0.0
 70
   128
  0
VERTEX
  5
1407C
  8
0
 10
341.00327331572748
 20
101.07443158049129
 30
0.0
  0
VERTEX
  5
1407D
  8
0
 10
341.00174361839868
 20
101.0713636875152
 30
0.0
  0
VERTEX
  5
1407E
  8
0
 10
341.06342278420902
 20
101.1979436967522
 30
0.0
  0
VERTEX
  5
1407F
  8
0
 10
341.1951707024125
 20
101.4941118424758
 30
0.0
  0
VERTEX
  5
14080
  8
0
 10
341.36773848906142
 20
101.9754794193431
 30
0.0
  0
VERTEX
  5
14081
  8
0
 10
341.44737960770709
 20
102.27976677706459
 30
0.0
  0
VERTEX
  5
14082
  8
0
 10
341.50748018175341
 20
102.62324264622291
 30
0.0
  0
VERTEX
  5
14083
  8
0
 10
341.53369411826111
 20
102.9442677514453
 30
0.0
  0
VERTEX
  5
14084
  8
0
 10
341.52932016178943
 20
103.28146413085049
 30
0.0
  0
VERTEX
  5
14085
  8
0
 10
341.4496559929101
 20
103.845656523481
 30
0.0
  0
VERTEX
  5
14086
  8
0
 10
341.3041414972393
 20
104.356041084975
 30
0.0
  0
VERTEX
  5
14087
  8
0
 10
341.21577039360977
 20
104.5911590568721
 30
0.0
  0
VERTEX
  5
14088
  8
0
 10
341.1314924526958
 20
104.7898946795612
 30
0.0
  0
VERTEX
  5
14089
  8
0
 10
341.06296317651851
 20
104.93877311237151
 30
0.0
  0
VERTEX
  5
1408A
  8
0
 10
341.01622987538559
 20
105.03521459177129
 30
0.0
  0
VERTEX
  5
1408B
  8
0
 10
341.00023441016651
 20
105.06740668788549
 30
0.0
  0
VERTEX
  5
1408C
  8
0
 10
341.00154338404519
 20
105.0647780299186
 30
0.0
  0
SEQEND
  5
1408D
  8
0
  0
LINE
  5
E78B
  8
0
 10
361.50000028312189
 20
114.9999996647238
 30
0.0
 11
328.50000046193583
 21
114.9999996647238
 31
0.0
  0
LINE
  5
E795
  8
0
 10
354.75000057369448
 20
124.9999994412064
 30
0.0
 11
335.25000017136313
 21
124.9999994412064
 31
0.0
  0
LINE
  5
E79D
  8
0
 10
336.00000075995899
 20
110.4999993927777
 30
0.0
 11
342.25000038743002
 21
110.4999993927777
 31
0.0
  0
LINE
  5
E79E
  8
0
 10
347.7500003576277
 20
110.4999993927777
 30
0.0
 11
353.99999998509861
 21
110.4999993927777
 31
0.0
  0
LINE
  5
E7A0
  8
0
 10
353.00000075250841
 20
109.4999996945262
 30
0.0
 11
336.99999999254919
 21
109.4999996945262
 31
0.0
  0
LINE
  5
E7CA
  8
0
 10
328.65798071026779
 20
122.6007001474499
 30
0.0
 11
361.34202003478981
 21
122.6007001474499
 31
0.0
  0
LINE
  5
E7CD
  8
0
 10
405.50000046379841
 20
43.300000205636017
 30
0.0
 11
405.80000053625531
 21
42.999999783933163
 31
0.0
  0
LINE
  5
E7CE
  8
0
 10
409.20000058133132
 20
42.999999783933163
 30
0.0
 11
409.50000065378822
 21
43.300000205636017
 31
0.0
  0
LINE
  5
E7CF
  8
0
 10
409.50000065378822
 20
43.300000205636017
 30
0.0
 11
409.50000065378822
 21
46.535898419097059
 31
0.0
  0
LINE
  5
E7D0
  8
0
 10
409.50000065378822
 20
53.464101580902927
 30
0.0
 11
409.50000065378822
 21
56.699999794363968
 31
0.0
  0
LINE
  5
E7D1
  8
0
 10
405.50000046379841
 20
56.699999794363968
 30
0.0
 11
405.50000046379841
 21
53.464101580902927
 31
0.0
  0
LINE
  5
E7D2
  8
0
 10
405.50000046379841
 20
46.535898419097059
 30
0.0
 11
405.50000046379841
 21
43.300000205636017
 31
0.0
  0
LINE
  5
E7D3
  8
0
 10
409.50000065378822
 20
56.699999794363968
 30
0.0
 11
409.20000058133132
 21
57.00000021606683
 31
0.0
  0
LINE
  5
E7D4
  8
0
 10
405.80000053625531
 20
57.00000021606683
 30
0.0
 11
405.50000046379841
 21
56.699999794363968
 31
0.0
  0
LINE
  5
E7D5
  8
0
 10
415.221688572213
 20
39.12564439434918
 30
0.0
 11
413.77831289288957
 21
39.125644051559007
 31
0.0
  0
LINE
  5
E7D6
  8
0
 10
413.05662497905467
 20
37.875644731846521
 30
0.0
 11
413.77831289288957
 21
39.125644051559007
 31
0.0
  0
LINE
  5
E7D7
  8
0
 10
413.05662497905467
 20
37.875644731846521
 30
0.0
 11
413.77831304609072
 21
36.625643916850201
 31
0.0
  0
LINE
  5
E7D8
  8
0
 10
413.77831304609072
 20
36.625643916850201
 30
0.0
 11
415.22168872541403
 21
36.625644259640403
 31
0.0
  0
LINE
  5
E7D9
  8
0
 10
415.94337602895678
 20
37.875644423003038
 30
0.0
 11
415.22168872541403
 21
36.625644259640403
 31
0.0
  0
LINE
  5
E7DA
  8
0
 10
415.94337602895678
 20
37.875644423003038
 30
0.0
 11
415.221688572213
 21
39.12564439434918
 31
0.0
  0
CIRCLE
  5
E7DB
  8
0
 10
414.50000055879349
 20
37.87564434701784
 30
0.0
 40
2.75
  0
LINE
  5
E7DC
  8
0
 10
413.0566250555446
 20
62.1243557327358
 30
0.0
 11
413.77831283223242
 21
60.874355756193133
 31
0.0
  0
LINE
  5
E7DD
  8
0
 10
415.22168851155578
 20
60.874355937816603
 30
0.0
 11
413.77831283223242
 21
60.874355756193133
 31
0.0
  0
LINE
  5
E7DE
  8
0
 10
415.22168851155578
 20
60.874355937816603
 30
0.0
 11
415.94337610544648
 21
62.124355101558933
 31
0.0
  0
LINE
  5
E7DF
  8
0
 10
415.94337610544648
 20
62.124355101558933
 30
0.0
 11
415.22168863750358
 21
63.374356072525408
 31
0.0
  0
LINE
  5
E7E0
  8
0
 10
413.77831295818021
 20
63.374355890901938
 30
0.0
 11
415.22168863750358
 21
63.374356072525408
 31
0.0
  0
LINE
  5
E7E1
  8
0
 10
413.77831295818021
 20
63.374355890901938
 30
0.0
 11
413.0566250555446
 21
62.1243557327358
 31
0.0
  0
CIRCLE
  5
E7E2
  8
0
 10
414.5000005587932
 20
62.12435565298221
 30
0.0
 40
2.749999999999996
  0
LINE
  5
E7E3
  8
0
 10
394.22168842739001
 20
48.750000062846979
 30
0.0
 11
394.94337631125143
 21
50.0000000108557
 31
0.0
  0
LINE
  5
E7E4
  8
0
 10
394.22168801386567
 20
51.249999892409697
 30
0.0
 11
394.94337631125143
 21
50.0000000108557
 31
0.0
  0
LINE
  5
E7E5
  8
0
 10
394.22168801386567
 20
51.249999892409697
 30
0.0
 11
392.77831275636743
 21
51.249999948008728
 31
0.0
  0
LINE
  5
E7E6
  8
0
 10
392.77831275636743
 20
51.249999948008728
 30
0.0
 11
392.05662487250601
 21
50.0
 31
0.0
  0
LINE
  5
E7E7
  8
0
 10
392.7783131698917
 20
48.750000118445989
 30
0.0
 11
392.05662487250601
 21
50.0
 31
0.0
  0
LINE
  5
E7E8
  8
0
 10
392.7783131698917
 20
48.750000118445989
 30
0.0
 11
394.22168842739001
 21
48.750000062846979
 31
0.0
  0
CIRCLE
  5
E7E9
  8
0
 10
393.50000055879337
 20
50.0
 30
0.0
 40
2.7500000000000089
  0
ARC
  5
E7EA
  8
0
 10
409.00967447183677
 20
55.487018045464431
 30
0.0
 40
0.5000000000000068
 50
348.7109749693376
 51
11.289025030662341
  0
LINE
  5
E7EB
  8
0
 10
405.20967438817001
 20
56.68701808899641
 30
0.0
 11
405.50000046379841
 21
56.68701808899641
 31
0.0
  0
ARC
  5
E7EC
  8
0
 10
409.20967447183682
 20
55.687018045464413
 30
0.0
 40
1.0
 50
0.0
 51
73.122520622088885
  0
LINE
  5
E7ED
  8
0
 10
410.20967450924201
 20
55.68701792508363
 30
0.0
 11
410.20967450924201
 21
53.95851070061326
 31
0.0
  0
ARC
  5
E7EE
  8
0
 10
411.20967447183682
 20
53.958510901510117
 30
0.0
 40
1.0000000000000131
 50
180.0
 51
230.23807925223929
  0
ARC
  5
E7EF
  8
0
 10
407.50000055879332
 20
49.5
 30
0.0
 40
4.7999999999999954
 50
294.62431835216341
 51
50.238079252239388
  0
ARC
  5
E7F0
  8
0
 10
407.50000055879332
 20
49.5
 30
0.0
 40
4.800000000000006
 50
137.7068365951194
 51
245.37568164783659
  0
ARC
  5
E7F1
  8
0
 10
403.20967447183682
 20
53.40296067973793
 30
0.0
 40
1.0
 50
317.7068365951194
 51
0.0
  0
LINE
  5
E7F2
  8
0
 10
404.20967445708789
 20
53.402960719540708
 30
0.0
 11
404.20967445708789
 21
55.68701792508363
 31
0.0
  0
ARC
  5
E7F3
  8
0
 10
405.20967447183682
 20
55.687018045464413
 30
0.0
 40
1.0
 50
90.0
 51
180.0
  0
LINE
  5
E7F4
  8
0
 10
405.40967451408483
 20
55.987017881125212
 30
0.0
 11
405.50000046379841
 21
55.978791508823633
 31
0.0
  0
ARC
  5
E7F5
  8
0
 10
405.40967447183692
 20
55.487018045464431
 30
0.0
 40
0.5
 50
90.0
 51
280.40774938656273
  0
LINE
  5
E7F6
  8
0
 10
405.50000046379841
 20
43.300000205636017
 30
0.0
 11
409.50000065378822
 21
43.300000205636017
 31
0.0
  0
LINE
  5
E7F7
  8
0
 10
409.20000058133132
 20
42.999999783933163
 30
0.0
 11
405.80000053625531
 21
42.999999783933163
 31
0.0
  0
LINE
  5
E7F8
  8
0
 10
409.50000065378822
 20
56.699999794363968
 30
0.0
 11
405.50000046379841
 21
56.699999794363968
 31
0.0
  0
LINE
  5
E7F9
  8
0
 10
405.80000053625531
 20
57.00000021606683
 30
0.0
 11
409.20000058133132
 21
57.00000021606683
 31
0.0
  0
CIRCLE
  5
E7FA
  8
0
 10
407.50000055879332
 20
50.0
 30
0.0
 40
2.556624327025943
  0
CIRCLE
  5
E7FB
  8
0
 10
407.50000055879332
 20
50.0
 30
0.0
 40
4.0
  0
CIRCLE
  5
E7FC
  8
0
 10
407.50000055879332
 20
50.0
 30
0.0
 40
1.75
  0
CIRCLE
  5
E7FD
  8
0
 10
407.50000055879332
 20
50.0
 30
0.0
 40
7.9999999999999893
  0
CIRCLE
  5
E7FE
  8
0
 10
407.50000055879332
 20
50.0
 30
0.0
 40
8.9999999999999964
  0
CIRCLE
  5
E7FF
  8
0
 10
407.50000055879332
 20
50.0
 30
0.0
 40
7.5
  0
CIRCLE
  5
E805
  8
0
 10
407.50000055879332
 20
49.999999999999943
 30
0.0
 40
17.0
  0
CIRCLE
  5
E806
  8
0
 10
407.50000055879332
 20
50.0
 30
0.0
 40
1.299999999999994
  0
CIRCLE
  5
E807
  8
0
 10
407.50000055879332
 20
50.0
 30
0.0
 40
1.499999999999998
  0
CIRCLE
  5
E97D
  8
0
 10
182.5000001862644
 20
184.19157769531009
 30
0.0
 40
4.7497368348150673
  0
ARC
  5
E9A0
  8
0
 10
195.38973094268761
 20
186.3576391337146
 30
0.0
 40
1.824542983387279
 50
235.3023738564234
 51
281.30871554371947
  0
ARC
  5
E9A1
  8
0
 10
195.57972562967271
 20
186.3824856546168
 30
0.0
 40
1.8217093523572869
 50
275.28475229157328
 51
321.32902432585121
  0
ARC
  5
E9A2
  8
0
 10
195.87263646052219
 20
186.10471145693651
 30
0.0
 40
1.4198571319774089
 50
322.69498281675271
 51
9.1207553695380046
  0
ARC
  5
E9A3
  8
0
 10
195.86899410999419
 20
186.1471373374994
 30
0.0
 40
1.4173645950186959
 50
7.4038120258255127
 51
53.943983258971741
  0
ARC
  5
E9A4
  8
0
 10
195.667174962052
 20
185.79881643171331
 30
0.0
 40
1.818229507434886
 50
55.263004268314312
 51
101.3827273778698
  0
ARC
  5
E9A5
  8
0
 10
195.47639665456711
 20
185.76236161676579
 30
0.0
 40
1.826669530307816
 50
95.279216989034964
 51
141.2242188050011
  0
ARC
  5
E9A6
  8
0
 10
195.18704779287489
 20
186.04531639082211
 30
0.0
 40
1.4244295197933321
 50
142.80845113217839
 51
189.10040575737381
  0
ARC
  5
E9A7
  8
0
 10
195.18660542814121
 20
186.00321009578551
 30
0.0
 40
1.41794060066021
 50
187.4229892987324
 51
233.89790660392461
  0
LINE
  5
E9AD
  8
0
 10
187.01093884184939
 20
196.4476281777024
 30
0.0
 11
185.6055332627146
 21
196.85303382575509
 31
0.0
  0
LINE
  5
E9AE
  8
0
 10
187.12204981595261
 20
196.8312622979283
 30
0.0
 11
187.01093884184939
 21
196.4476281777024
 31
0.0
  0
LINE
  5
E9AF
  8
0
 10
185.71664423681781
 20
197.236667945981
 30
0.0
 11
187.12204981595261
 21
196.8312622979283
 31
0.0
  0
LINE
  5
E9B0
  8
0
 10
186.02820586413131
 20
198.31699747592211
 30
0.0
 11
185.71664423681781
 21
197.236667945981
 31
0.0
  0
LINE
  5
E9B1
  8
0
 10
187.82400161027891
 20
197.79898002743721
 30
0.0
 11
186.02820586413131
 21
198.31699747592211
 31
0.0
  0
LINE
  5
E9B2
  8
0
 10
187.93511305004341
 20
198.18261321634051
 30
0.0
 11
187.82400161027891
 21
197.79898002743721
 31
0.0
  0
LINE
  5
E9B4
  8
0
 10
185.6055332627146
 20
196.85303382575509
 30
0.0
 11
185.35523452965111
 21
195.9844275929832
 31
0.0
  0
ARC
  5
E9B5
  8
0
 10
182.5000001862644
 20
184.19157769531009
 30
0.0
 40
9.7500000000000071
 50
285.41913746628791
 51
74.580862754091484
  0
ARC
  5
E9B6
  8
0
 10
182.5000001862644
 20
184.19157769531009
 30
0.0
 40
9.7500000000000036
 50
105.41913746628769
 51
254.58086275409141
  0
LINE
  5
E9B7
  8
0
 10
193.6692577600478
 20
181.58812643960121
 30
0.0
 11
196.6384771093725
 21
182.76079904753709
 31
0.0
  0
LINE
  5
E9B8
  8
0
 10
193.58892746269689
 20
181.0858741868287
 30
0.0
 11
193.6692577600478
 21
181.58812643960121
 31
0.0
  0
LINE
  5
E9B9
  8
0
 10
197.02361252158869
 20
180.53557383827859
 30
0.0
 11
193.58892746269689
 21
181.0858741868287
 31
0.0
  0
LINE
  5
E9BA
  8
0
 10
197.10094023495901
 20
181.0153036843985
 30
0.0
 11
197.02361252158869
 21
180.53557383827859
 31
0.0
  0
LINE
  5
E9BB
  8
0
 10
194.38922785222519
 20
181.44998825155201
 30
0.0
 11
197.10094023495901
 21
181.0153036843985
 31
0.0
  0
LINE
  5
E9BC
  8
0
 10
197.3554446175693
 20
182.6046429108828
 30
0.0
 11
194.38922785222519
 21
181.44998825155201
 31
0.0
  0
LINE
  5
E9BD
  8
0
 10
197.43877749890081
 20
183.1241624662652
 30
0.0
 11
197.3554446175693
 21
182.6046429108828
 31
0.0
  0
LINE
  5
E9BE
  8
0
 10
194.00409337133161
 20
183.6744627566076
 30
0.0
 11
197.43877749890081
 21
183.1241624662652
 31
0.0
  0
LINE
  5
E9BF
  8
0
 10
193.9267656579612
 20
183.19473308511081
 30
0.0
 11
194.00409337133161
 21
183.6744627566076
 31
0.0
  0
LINE
  5
E9C0
  8
0
 10
196.6384771093725
 20
182.76079904753709
 30
0.0
 11
193.9267656579612
 21
183.19473308511081
 31
0.0
  0
POLYLINE
  5
E9C1
  8
0
 66
     1
 10
0.0
 20
0.0
 30
0.0
 70
   128
  0
VERTEX
  5
1408E
  8
0
 10
193.4677447006105
 20
187.6496943645179
 30
0.0
  0
VERTEX
  5
1408F
  8
0
 10
194.06505774706591
 20
189.8788945749402
 30
0.0
  0
VERTEX
  5
14090
  8
0
 10
194.65823665261249
 20
192.09267068654299
 30
0.0
  0
SEQEND
  5
14091
  8
0
  0
LINE
  5
E9C2
  8
0
 10
194.65823665261249
 20
192.09267068654299
 30
0.0
 11
193.40048830956209
 21
191.27531638368961
 31
0.0
  0
ARC
  5
E9C3
  8
0
 10
182.5000001862644
 20
184.19157769531009
 30
0.0
 40
13.0
 50
33.018034190653701
 51
56.981965809341347
  0
LINE
  5
E9C4
  8
0
 10
189.5837388746439
 20
195.09206581860781
 30
0.0
 11
190.40109317749719
 21
196.34981416165829
 31
0.0
  0
POLYLINE
  5
E9C5
  8
0
 66
     1
 10
0.0
 20
0.0
 30
0.0
 70
   128
  0
VERTEX
  5
14092
  8
0
 10
190.40109317749719
 20
196.34981416165829
 30
0.0
  0
VERTEX
  5
14093
  8
0
 10
188.19009473547331
 20
195.75737938284871
 30
0.0
  0
VERTEX
  5
14094
  8
0
 10
185.95811685547221
 20
195.15932220965621
 30
0.0
  0
SEQEND
  5
14095
  8
0
  0
ARC
  5
E9C6
  8
0
 10
182.5000001862644
 20
184.19157769531009
 30
0.0
 40
11.5
 50
17.499999999999901
 51
72.500000000000128
  0
LINE
  5
E9C7
  8
0
 10
189.93303466588239
 20
183.19157764781261
 30
0.0
 11
191.80000022053699
 21
183.19157764781261
 31
0.0
  0
LINE
  5
E9C8
  8
0
 10
191.80000022053699
 20
183.19157764781261
 30
0.0
 11
191.80000022053699
 21
184.19157769531009
 31
0.0
  0
ARC
  5
E9C9
  8
0
 10
182.5000001862644
 20
184.19157769531009
 30
0.0
 40
9.3000000000000114
 50
0.0
 51
74.000597671373669
  0
ARC
  5
E9CA
  8
0
 10
195.59397862482541
 20
186.50492125732069
 30
0.0
 40
1.4567837451932231
 50
273.26483328342158
 51
318.91206986293901
  0
ARC
  5
E9CB
  8
0
 10
195.35641169228441
 20
186.55892729739219
 30
0.0
 40
1.5421051311680971
 50
239.02865876211411
 51
281.99661621003912
  0
ARC
  5
E9CC
  8
0
 10
195.09988354162431
 20
186.01891397029991
 30
0.0
 40
0.9488433531019442
 50
188.68864594384061
 51
235.52764487708649
  0
ARC
  5
E9CD
  8
0
 10
195.09407892602741
 20
186.0079635332857
 30
0.0
 40
0.9415036811843085
 50
140.8563478605503
 51
188.0832495226594
  0
ARC
  5
E9CE
  8
0
 10
195.46984132627551
 20
185.6287222733244
 30
0.0
 40
1.473434399589713
 50
93.567986320020267
 51
138.6424072732197
  0
ARC
  5
E9CF
  8
0
 10
195.7022247583773
 20
185.608911852001
 30
0.0
 40
1.525216798277836
 50
58.770049680246693
 51
102.2677807196189
  0
ARC
  5
E9D0
  8
0
 10
195.95250793495401
 20
186.1298302898532
 30
0.0
 40
0.9516705904962446
 50
8.7270993931345657
 51
55.392540394031478
  0
ARC
  5
E9D1
  8
0
 10
195.9567521154608
 20
186.14226346365049
 30
0.0
 40
0.9456607884026539
 50
321.02799200142852
 51
8.0215173358017466
  0
LINE
  5
E9DC
  8
0
 10
171.24999973922951
 20
109.4999996945262
 30
0.0
 11
171.24999973922951
 21
112.4999992549419
 31
0.0
  0
LINE
  5
E9DD
  8
0
 10
165.74999976903189
 20
112.4999992549419
 30
0.0
 11
165.74999976903189
 21
109.4999996945262
 31
0.0
  0
LINE
  5
E9DE
  8
0
 10
169.99999999999989
 20
112.4999992549419
 30
0.0
 11
169.99999999999989
 21
114.9999996647238
 31
0.0
  0
LINE
  5
E9DF
  8
0
 10
167.00000043958411
 20
114.9999996647238
 30
0.0
 11
167.00000043958411
 21
112.4999992549419
 31
0.0
  0
LINE
  5
E9E0
  8
0
 10
192.25000038743011
 20
109.4999996945262
 30
0.0
 11
192.25000038743011
 21
112.4999992549419
 31
0.0
  0
LINE
  5
E9E1
  8
0
 10
186.7500004172324
 20
112.4999992549419
 30
0.0
 11
186.7500004172324
 21
109.4999996945262
 31
0.0
  0
LINE
  5
E9E2
  8
0
 10
191.0000006482004
 20
112.4999992549419
 30
0.0
 11
191.0000006482004
 21
114.9999996647238
 31
0.0
  0
LINE
  5
E9E3
  8
0
 10
188.00000015646211
 20
114.9999996647238
 30
0.0
 11
188.00000015646211
 21
112.4999992549419
 31
0.0
  0
LINE
  5
E9E4
  8
0
 10
175.8000003919004
 20
105.39700811252
 30
0.0
 11
175.49999997019751
 21
105.09700792364779
 31
0.0
  0
LINE
  5
E9E5
  8
0
 10
175.49999997019751
 20
101.6970079949871
 30
0.0
 11
175.8000003919004
 21
101.3970080389455
 31
0.0
  0
LINE
  5
E9E6
  8
0
 10
175.8000003919004
 20
101.3970080389455
 30
0.0
 11
178.4999999962746
 21
101.3970080389455
 31
0.0
  0
LINE
  5
E9E7
  8
0
 10
186.50000037625421
 20
101.3970080389455
 30
0.0
 11
189.19999998062841
 21
101.3970080389455
 31
0.0
  0
LINE
  5
E9E8
  8
0
 10
189.19999998062841
 20
105.39700811252
 30
0.0
 11
186.50000037625421
 21
105.39700811252
 31
0.0
  0
LINE
  5
E9E9
  8
0
 10
178.4999999962746
 20
105.39700811252
 30
0.0
 11
175.8000003919004
 21
105.39700811252
 31
0.0
  0
LINE
  5
E9EA
  8
0
 10
189.19999998062841
 20
101.3970080389455
 30
0.0
 11
189.50000040233121
 21
101.6970079949871
 31
0.0
  0
LINE
  5
E9EB
  8
0
 10
189.50000040233121
 20
105.09700792364779
 30
0.0
 11
189.19999998062841
 21
105.39700811252
 31
0.0
  0
LINE
  5
E9F0
  8
0
 10
186.50000037625421
 20
105.39700811252
 30
0.0
 11
186.50000037625421
 21
109.4999996945262
 31
0.0
  0
LINE
  5
E9F1
  8
0
 10
186.50000037625421
 20
100.89700807340439
 30
0.0
 11
186.50000037625421
 21
101.3970080389455
 31
0.0
  0
LINE
  5
E9F2
  8
0
 10
178.4999999962746
 20
101.3970080389455
 30
0.0
 11
178.4999999962746
 21
100.89700807340439
 31
0.0
  0
LINE
  5
E9F3
  8
0
 10
178.4999999962746
 20
109.4999996945262
 30
0.0
 11
178.4999999962746
 21
105.39700811252
 31
0.0
  0
LINE
  5
E9F4
  8
0
 10
178.4999999962746
 20
100.89700807340439
 30
0.0
 11
179.94337582960711
 21
98.397007896453147
 31
0.0
  0
LINE
  5
E9F5
  8
0
 10
185.05662454292161
 20
98.397007896453147
 30
0.0
 11
186.50000037625421
 21
100.89700807340439
 31
0.0
  0
LINE
  5
EA07
  8
0
 10
165.49999926239241
 20
115.4999997466802
 30
0.0
 11
166.00000027567131
 21
114.9999996647238
 31
0.0
  0
LINE
  5
EA08
  8
0
 10
199.00000009685741
 20
114.9999996647238
 30
0.0
 11
199.5000011101364
 21
115.4999997466802
 31
0.0
  0
ARC
  5
EA09
  8
0
 10
166.5000001862644
 20
121.661007823776
 30
0.0
 40
1.0
 50
110.0000000000006
 51
180.0
  0
ARC
  5
EA0A
  8
0
 10
198.5000001862644
 20
121.661007823776
 30
0.0
 40
1.0
 50
0.0
 51
69.999999999999332
  0
LINE
  5
EA0B
  8
0
 10
199.5000011101364
 20
115.4999997466802
 30
0.0
 11
199.5000011101364
 21
121.661008708179
 31
0.0
  0
LINE
  5
EA0C
  8
0
 10
165.49999926239241
 20
121.661008708179
 30
0.0
 11
165.49999926239241
 21
115.4999997466802
 31
0.0
  0
LINE
  5
EA0D
  8
0
 10
198.84201984852541
 20
122.6007001474499
 30
0.0
 11
192.25000038743011
 21
124.9999994412064
 31
0.0
  0
LINE
  5
EA0E
  8
0
 10
172.7499999850987
 20
124.9999994412064
 30
0.0
 11
166.15798052400339
 21
122.6007001474499
 31
0.0
  0
ARC
  5
EA0F
  8
0
 10
191.90000018626441
 20
114.5999995604157
 30
0.0
 40
0.4000000000000057
 50
90.0
 51
180.0
  0
ARC
  5
EA10
  8
0
 10
173.1000001862644
 20
114.5999995604157
 30
0.0
 40
0.4000000000000057
 50
0.0
 51
90.0
  0
LINE
  5
EA11
  8
0
 10
191.49999979883421
 20
112.4999992549419
 30
0.0
 11
191.49999979883421
 21
114.59999941289421
 31
0.0
  0
LINE
  5
EA12
  8
0
 10
173.50000057369459
 20
114.59999941289421
 30
0.0
 11
173.50000057369459
 21
110.4999993927777
 31
0.0
  0
LINE
  5
EA13
  8
0
 10
173.50000057369459
 20
110.4999993927777
 30
0.0
 11
174.49999980628479
 21
109.4999996945262
 31
0.0
  0
LINE
  5
EA15
  8
0
 10
171.24999973922951
 20
109.4999996945262
 30
0.0
 11
165.74999976903189
 21
109.4999996945262
 31
0.0
  0
LINE
  5
EA17
  8
0
 10
171.24999973922951
 20
112.4999992549419
 30
0.0
 11
165.74999976903189
 21
112.4999992549419
 31
0.0
  0
LINE
  5
EA1A
  8
0
 10
192.25000038743011
 20
112.4999992549419
 30
0.0
 11
186.7500004172324
 21
112.4999992549419
 31
0.0
  0
LINE
  5
EA1C
  8
0
 10
175.8000003919004
 20
105.39700811252
 30
0.0
 11
175.8000003919004
 21
101.3970080389455
 31
0.0
  0
LINE
  5
EA1E
  8
0
 10
175.49999997019751
 20
101.6970079949871
 30
0.0
 11
175.49999997019751
 21
105.09700792364779
 31
0.0
  0
LINE
  5
EA20
  8
0
 10
189.19999998062841
 20
101.3970080389455
 30
0.0
 11
189.19999998062841
 21
105.39700811252
 31
0.0
  0
LINE
  5
EA21
  8
0
 10
189.50000040233121
 20
105.09700792364779
 30
0.0
 11
189.50000040233121
 21
101.6970079949871
 31
0.0
  0
POLYLINE
  5
EA26
  8
0
 66
     1
 10
0.0
 20
0.0
 30
0.0
 70
   128
  0
VERTEX
  5
14096
  8
0
 10
186.49672724306569
 20
105.3904509031027
 30
0.0
  0
VERTEX
  5
14097
  8
0
 10
186.4982569403945
 20
105.3935189124942
 30
0.0
  0
VERTEX
  5
14098
  8
0
 10
186.43657777458421
 20
105.2669389032572
 30
0.0
  0
VERTEX
  5
14099
  8
0
 10
186.30482985638071
 20
104.97077064111831
 30
0.0
  0
VERTEX
  5
1409A
  8
0
 10
186.13226206973181
 20
104.48940306425089
 30
0.0
  0
VERTEX
  5
1409B
  8
0
 10
186.05262095108611
 20
104.18511576473711
 30
0.0
  0
VERTEX
  5
1409C
  8
0
 10
185.9925203770398
 20
103.8416399246827
 30
0.0
  0
VERTEX
  5
1409D
  8
0
 10
185.96630644053209
 20
103.5206147794425
 30
0.0
  0
VERTEX
  5
1409E
  8
0
 10
185.9706803970038
 20
103.18341842550321
 30
0.0
  0
VERTEX
  5
1409F
  8
0
 10
186.05034456588311
 20
102.6192260474246
 30
0.0
  0
VERTEX
  5
140A0
  8
0
 10
186.1958590615539
 20
102.1088414568268
 30
0.0
  0
VERTEX
  5
140A1
  8
0
 10
186.2842301651834
 20
101.8737235431373
 30
0.0
  0
VERTEX
  5
140A2
  8
0
 10
186.36850810609741
 20
101.6749879204482
 30
0.0
  0
VERTEX
  5
140A3
  8
0
 10
186.4370373822747
 20
101.5261094876379
 30
0.0
  0
VERTEX
  5
140A4
  8
0
 10
186.48377068340761
 20
101.4296680082381
 30
0.0
  0
VERTEX
  5
140A5
  8
0
 10
186.49976614862669
 20
101.3974757957086
 30
0.0
  0
VERTEX
  5
140A6
  8
0
 10
186.49845717474801
 20
101.4001045700908
 30
0.0
  0
SEQEND
  5
140A7
  8
0
  0
POLYLINE
  5
EA27
  8
0
 66
     1
 10
0.0
 20
0.0
 30
0.0
 70
   128
  0
VERTEX
  5
140A8
  8
0
 10
178.50327312946311
 20
101.4035650155321
 30
0.0
  0
VERTEX
  5
140A9
  8
0
 10
178.5017434321343
 20
101.400497122556
 30
0.0
  0
VERTEX
  5
140AA
  8
0
 10
178.56342259794459
 20
101.52707713179289
 30
0.0
  0
VERTEX
  5
140AB
  8
0
 10
178.6951705161481
 20
101.82324527751651
 30
0.0
  0
VERTEX
  5
140AC
  8
0
 10
178.86773830279691
 20
102.30461291259149
 30
0.0
  0
VERTEX
  5
140AD
  8
0
 10
178.94737942144261
 20
102.6089002412092
 30
0.0
  0
VERTEX
  5
140AE
  8
0
 10
179.00747999548901
 20
102.95237609581559
 30
0.0
  0
VERTEX
  5
140AF
  8
0
 10
179.03369393199671
 20
103.27340119739991
 30
0.0
  0
VERTEX
  5
140B0
  8
0
 10
179.029319975525
 20
103.610597594995
 30
0.0
  0
VERTEX
  5
140B1
  8
0
 10
178.94965580664561
 20
104.1747899585217
 30
0.0
  0
VERTEX
  5
140B2
  8
0
 10
178.80414131097481
 20
104.68517452001571
 30
0.0
  0
VERTEX
  5
140B3
  8
0
 10
178.71577020734529
 20
104.9202924919128
 30
0.0
  0
VERTEX
  5
140B4
  8
0
 10
178.63149226643131
 20
105.119028114602
 30
0.0
  0
VERTEX
  5
140B5
  8
0
 10
178.56296299025399
 20
105.2679065474123
 30
0.0
  0
VERTEX
  5
140B6
  8
0
 10
178.5162296891211
 20
105.3643480268121
 30
0.0
  0
VERTEX
  5
140B7
  8
0
 10
178.50023422390211
 20
105.3965403557569
 30
0.0
  0
VERTEX
  5
140B8
  8
0
 10
178.50154319778071
 20
105.3939114649594
 30
0.0
  0
SEQEND
  5
140B9
  8
0
  0
LINE
  5
EA28
  8
0
 10
178.4999999962746
 20
100.89700807340439
 30
0.0
 11
186.50000037625421
 21
100.89700807340439
 31
0.0
  0
LINE
  5
EA29
  8
0
 10
185.05662454292161
 20
98.397007896453147
 30
0.0
 11
179.94337582960711
 21
98.397007896453147
 31
0.0
  0
LINE
  5
EA38
  8
0
 10
199.00000009685741
 20
114.9999996647238
 30
0.0
 11
166.00000027567131
 21
114.9999996647238
 31
0.0
  0
LINE
  5
EA3A
  8
0
 10
192.25000038743011
 20
124.9999994412064
 30
0.0
 11
172.7499999850987
 21
124.9999994412064
 31
0.0
  0
LINE
  5
EA3B
  8
0
 10
193.6692577600478
 20
124.3744561448693
 30
0.0
 11
196.6384771093725
 21
123.37644156068561
 31
0.0
  0
LINE
  5
EA3C
  8
0
 10
193.58892746269689
 20
124.35736265033481
 30
0.0
 11
193.6692577600478
 21
124.3744561448693
 31
0.0
  0
LINE
  5
EA3D
  8
0
 10
197.02361252158869
 20
123.0976352468133
 30
0.0
 11
193.58892746269689
 21
124.35736265033481
 31
0.0
  0
LINE
  5
EA3E
  8
0
 10
197.10094023495901
 20
123.1101112440228
 30
0.0
 11
197.02361252158869
 21
123.0976352468133
 31
0.0
  0
LINE
  5
EA3F
  8
0
 10
194.38922785222519
 20
124.10782407969231
 30
0.0
 11
197.10094023495901
 21
123.1101112440228
 31
0.0
  0
LINE
  5
EA40
  8
0
 10
197.3554446175693
 20
123.1110071763396
 30
0.0
 11
194.38922785222519
 21
124.10782407969231
 31
0.0
  0
LINE
  5
EA41
  8
0
 10
197.43877749890081
 20
123.0975775048136
 30
0.0
 11
197.3554446175693
 21
123.1110071763396
 31
0.0
  0
LINE
  5
EA42
  8
0
 10
194.00409337133161
 20
124.3573347106576
 30
0.0
 11
197.43877749890081
 21
123.0975775048136
 31
0.0
  0
LINE
  5
EA43
  8
0
 10
193.9267656579612
 20
124.3739103898406
 30
0.0
 11
194.00409337133161
 21
124.3573347106576
 31
0.0
  0
LINE
  5
EA44
  8
0
 10
196.6384771093725
 20
123.37644156068561
 30
0.0
 11
193.9267656579612
 21
124.3739103898406
 31
0.0
  0
LINE
  5
EA45
  8
0
 10
173.50000057369459
 20
110.4999993927777
 30
0.0
 11
186.7500004172324
 21
110.4999993927777
 31
0.0
  0
LINE
  5
EA46
  8
0
 10
192.25000038743011
 20
109.4999996945262
 30
0.0
 11
174.49999980628479
 21
109.4999996945262
 31
0.0
  0
LINE
  5
EA5D
  8
0
 10
166.15798052400339
 20
122.6007001474499
 30
0.0
 11
198.8420198485253
 21
122.6007001474499
 31
0.0
  0
LINE
  5
EA60
  8
0
 10
235.62564447522141
 20
109.4999996945262
 30
0.0
 11
235.62564447522141
 21
112.4999992549419
 31
0.0
  0
LINE
  5
EA61
  8
0
 10
230.1256445050237
 20
112.4999992549419
 30
0.0
 11
230.1256445050237
 21
109.4999996945262
 31
0.0
  0
LINE
  5
EA62
  8
0
 10
234.3756447359917
 20
112.4999992549419
 30
0.0
 11
234.3756447359917
 21
114.9999996647238
 31
0.0
  0
LINE
  5
EA63
  8
0
 10
231.37564517557601
 20
114.9999996647238
 30
0.0
 11
231.37564517557601
 21
112.4999992549419
 31
0.0
  0
LINE
  5
EA64
  8
0
 10
259.87435624003388
 20
109.4999996945262
 30
0.0
 11
259.87435624003388
 21
112.4999992549419
 31
0.0
  0
LINE
  5
EA65
  8
0
 10
254.3743562698362
 20
112.4999992549419
 30
0.0
 11
254.3743562698362
 21
109.4999996945262
 31
0.0
  0
LINE
  5
EA66
  8
0
 10
258.62435556948162
 20
112.4999992549419
 30
0.0
 11
258.62435556948162
 21
114.9999996647238
 31
0.0
  0
LINE
  5
EA67
  8
0
 10
255.62435600906591
 20
114.9999996647238
 30
0.0
 11
255.62435600906591
 21
112.4999992549419
 31
0.0
  0
LINE
  5
EA6C
  8
0
 10
249.00000056251861
 20
100.89700807340439
 30
0.0
 11
249.00000056251861
 21
109.4999996945262
 31
0.0
  0
LINE
  5
EA6D
  8
0
 10
241.000000182539
 20
109.4999996945262
 30
0.0
 11
241.000000182539
 21
100.89700807340439
 31
0.0
  0
LINE
  5
EA6E
  8
0
 10
241.000000182539
 20
100.89700807340439
 30
0.0
 11
242.44337601587159
 21
98.397007896453147
 31
0.0
  0
LINE
  5
EA6F
  8
0
 10
247.5566247291861
 20
98.397007896453147
 30
0.0
 11
249.00000056251861
 21
100.89700807340439
 31
0.0
  0
LINE
  5
EA7E
  8
0
 10
227.99999944865681
 20
115.4999997466802
 30
0.0
 11
228.5000004619358
 21
114.9999996647238
 31
0.0
  0
LINE
  5
EA7F
  8
0
 10
261.50000028312189
 20
114.9999996647238
 30
0.0
 11
262.0000012964008
 21
115.4999997466802
 31
0.0
  0
ARC
  5
EA80
  8
0
 10
229.0000003725288
 20
121.661007823776
 30
0.0
 40
1.0
 50
110.0000000000006
 51
180.0
  0
ARC
  5
EA81
  8
0
 10
261.0000003725288
 20
121.661007823776
 30
0.0
 40
1.0
 50
0.0
 51
69.999999999999318
  0
LINE
  5
EA82
  8
0
 10
262.0000012964008
 20
115.4999997466802
 30
0.0
 11
262.0000012964008
 21
121.661008708179
 31
0.0
  0
LINE
  5
EA83
  8
0
 10
227.99999944865681
 20
121.661008708179
 30
0.0
 11
227.99999944865681
 21
115.4999997466802
 31
0.0
  0
LINE
  5
EA84
  8
0
 10
261.34202003478981
 20
122.6007001474499
 30
0.0
 11
254.75000057369451
 21
124.9999994412064
 31
0.0
  0
LINE
  5
EA87
  8
0
 10
235.2500001713631
 20
124.9999994412064
 30
0.0
 11
228.65798071026779
 21
122.6007001474499
 31
0.0
  0
ARC
  5
EA8A
  8
0
 10
254.40000037252881
 20
114.5999995604157
 30
0.0
 40
0.4000000000000057
 50
90.0
 51
180.0
  0
ARC
  5
EA8B
  8
0
 10
235.6000003725288
 20
114.5999995604157
 30
0.0
 40
0.4000000000000057
 50
0.0
 51
90.0
  0
LINE
  5
EA8C
  8
0
 10
236.00000075995899
 20
110.4999993927777
 30
0.0
 11
236.99999999254919
 21
109.4999996945262
 31
0.0
  0
LINE
  5
EA8D
  8
0
 10
253.00000075250841
 20
109.4999996945262
 30
0.0
 11
253.99999998509861
 21
110.4999993927777
 31
0.0
  0
LINE
  5
EA8E
  8
0
 10
253.99999998509861
 20
110.4999993927777
 30
0.0
 11
253.99999998509861
 21
114.59999941289421
 31
0.0
  0
LINE
  5
EA8F
  8
0
 10
236.00000075995899
 20
114.59999941289421
 30
0.0
 11
236.00000075995899
 21
110.4999993927777
 31
0.0
  0
LINE
  5
EA93
  8
0
 10
235.62564447522141
 20
109.4999996945262
 30
0.0
 11
230.1256445050237
 21
109.4999996945262
 31
0.0
  0
LINE
  5
EA95
  8
0
 10
235.62564447522141
 20
112.4999992549419
 30
0.0
 11
230.1256445050237
 21
112.4999992549419
 31
0.0
  0
LINE
  5
EA96
  8
0
 10
259.87435624003388
 20
109.4999996945262
 30
0.0
 11
254.3743562698362
 21
109.4999996945262
 31
0.0
  0
LINE
  5
EA97
  8
0
 10
259.87435624003388
 20
112.4999992549419
 30
0.0
 11
254.3743562698362
 21
112.4999992549419
 31
0.0
  0
CIRCLE
  5
EA98
  8
0
 10
245.0000003725288
 20
103.39700799852601
 30
0.0
 40
1.699999999999996
  0
CIRCLE
  5
EA99
  8
0
 10
245.0000003725288
 20
103.39700799852601
 30
0.0
 40
1.9999999999999969
  0
LINE
  5
EA9C
  8
0
 10
241.000000182539
 20
100.89700807340439
 30
0.0
 11
249.00000056251861
 21
100.89700807340439
 31
0.0
  0
LINE
  5
EA9D
  8
0
 10
247.5566247291861
 20
98.397007896453147
 30
0.0
 11
242.44337601587159
 21
98.397007896453147
 31
0.0
  0
LINE
  5
EAE1
  8
0
 10
261.50000028312189
 20
114.9999996647238
 30
0.0
 11
228.5000004619358
 21
114.9999996647238
 31
0.0
  0
POLYLINE
  5
EAE3
  8
0
 66
     1
 10
0.0
 20
0.0
 30
0.0
 70
   128
  0
VERTEX
  5
140BA
  8
0
 10
245.3769426199139
 20
123.72505608946079
 30
0.0
  0
VERTEX
  5
140BB
  8
0
 10
245.34963775542531
 20
123.88097997754809
 30
0.0
  0
VERTEX
  5
140BC
  8
0
 10
245.38315698620829
 20
123.9978162571788
 30
0.0
  0
VERTEX
  5
140BD
  8
0
 10
245.4800097318363
 20
124.1133579984307
 30
0.0
  0
VERTEX
  5
140BE
  8
0
 10
245.66598163684799
 20
124.2284489795565
 30
0.0
  0
SEQEND
  5
140BF
  8
0
  0
ARC
  5
EAE4
  8
0
 10
246.2192277816709
 20
124.2182528106666
 30
0.0
 40
0.9760570165333993
 50
210.35093646770599
 51
260.17168355800391
  0
ARC
  5
EAE5
  8
0
 10
247.08803272159199
 20
126.9698357497448
 30
0.0
 40
3.8549697037006299
 50
254.4194937621711
 51
270.74570623972971
  0
ARC
  5
EAE6
  8
0
 10
247.24783830797401
 20
125.70664109951829
 30
0.0
 40
2.5937666339634151
 50
267.57747527074298
 51
289.2134587266367
  0
POLYLINE
  5
EAE7
  8
0
 66
     1
 10
0.0
 20
0.0
 30
0.0
 70
   128
  0
VERTEX
  5
140C0
  8
0
 10
248.38970534503429
 20
123.72636739164589
 30
0.0
  0
VERTEX
  5
140C1
  8
0
 10
248.4177919384089
 20
123.5740067437291
 30
0.0
  0
VERTEX
  5
140C2
  8
0
 10
248.3827632665631
 20
123.4617022797465
 30
0.0
  0
VERTEX
  5
140C3
  8
0
 10
248.28304120339419
 20
123.3544753864407
 30
0.0
  0
VERTEX
  5
140C4
  8
0
 10
248.1014170031992
 20
123.2573496177792
 30
0.0
  0
SEQEND
  5
140C5
  8
0
  0
ARC
  5
EAE8
  8
0
 10
247.4801689737703
 20
123.2104627100931
 30
0.0
 40
1.045664406537884
 50
29.562653283898179
 51
77.034399504637065
  0
ARC
  5
EAE9
  8
0
 10
246.66108841471569
 20
121.0696960881161
 30
0.0
 40
3.3308294225971951
 50
71.557954659539945
 51
90.561545450140073
  0
ARC
  5
EAEA
  8
0
 10
246.54335244819941
 20
122.0966483753993
 30
0.0
 40
2.3052881287372098
 50
87.884646383266187
 51
112.37026571729029
  0
LINE
  5
EAEB
  8
0
 10
257.25605085492111
 20
123.795316927135
 30
0.0
 11
257.66145650297381
 21
123.80372118204831
 31
0.0
  0
LINE
  5
EAEC
  8
0
 10
257.63968497514702
 20
123.6503006890416
 30
0.0
 11
257.25605085492111
 21
123.795316927135
 31
0.0
  0
LINE
  5
EAED
  8
0
 10
258.04509062319971
 20
123.6584721133113
 30
0.0
 11
257.63968497514702
 21
123.6503006890416
 31
0.0
  0
LINE
  5
EAEE
  8
0
 10
259.12542015314079
 20
123.2495265081525
 30
0.0
 11
258.04509062319971
 21
123.6584721133113
 31
0.0
  0
LINE
  5
EAEF
  8
0
 10
258.6074027046559
 20
123.23042880743741
 30
0.0
 11
259.12542015314079
 21
123.2495265081525
 31
0.0
  0
LINE
  5
EAF0
  8
0
 10
258.99103589355917
 20
123.08564353734251
 30
0.0
 11
258.6074027046559
 21
123.23042880743741
 31
0.0
  0
LINE
  5
EAF1
  8
0
 10
259.64794334024168
 20
123.0946755036711
 30
0.0
 11
258.99103589355917
 21
123.08564353734251
 31
0.0
  0
LINE
  5
EAF2
  8
0
 10
256.3101055845616
 20
124.3552653118968
 30
0.0
 11
259.64794334024168
 21
123.0946755036711
 31
0.0
  0
LINE
  5
EAF3
  8
0
 10
256.17121651768662
 20
124.3676817044615
 30
0.0
 11
256.3101055845616
 21
124.3552653118968
 31
0.0
  0
LINE
  5
EAF4
  8
0
 10
257.66145650297381
 20
123.80372118204831
 30
0.0
 11
256.17121651768662
 21
124.3676817044615
 31
0.0
  0
LINE
  5
EAF5
  8
0
 10
254.75000057369451
 20
124.9999994412064
 30
0.0
 11
235.2500001713631
 21
124.9999994412064
 31
0.0
  0
LINE
  5
EAF6
  8
0
 10
257.99772914499022
 20
123.79135135561231
 30
0.0
 11
258.04819664819388
 21
123.7995540300665
 31
0.0
  0
LINE
  5
EAF7
  8
0
 10
258.38136326521612
 20
123.6519994214177
 30
0.0
 11
257.99772914499022
 21
123.79135135561231
 31
0.0
  0
LINE
  5
EAF8
  8
0
 10
258.4317804423477
 20
123.6599409218466
 30
0.0
 11
258.38136326521612
 21
123.6519994214177
 31
0.0
  0
LINE
  5
EAF9
  8
0
 10
259.50373549014307
 20
123.2275845482945
 30
0.0
 11
259.56831366041422
 21
123.2462765867318
 31
0.0
  0
LINE
  5
EAFA
  8
0
 10
259.8873686790464
 20
123.08842819184061
 30
0.0
 11
259.50373549014307
 21
123.2275845482945
 31
0.0
  0
LINE
  5
EAFB
  8
0
 10
259.97545218193108
 20
123.0980902573525
 30
0.0
 11
259.8873686790464
 21
123.08842819184061
 31
0.0
  0
LINE
  5
EAFE
  8
0
 10
242.39654911681981
 20
124.3744561448693
 30
0.0
 11
243.56922172475581
 21
123.37644156068561
 31
0.0
  0
LINE
  5
EAFF
  8
0
 10
241.89429686404739
 20
124.35736265033481
 30
0.0
 11
242.39654911681981
 21
124.3744561448693
 31
0.0
  0
LINE
  5
EB00
  8
0
 10
241.34399651549731
 20
123.0976352468133
 30
0.0
 11
241.89429686404739
 21
124.35736265033481
 31
0.0
  0
LINE
  5
EB01
  8
0
 10
241.8237263616171
 20
123.1101112440228
 30
0.0
 11
241.34399651549731
 21
123.0976352468133
 31
0.0
  0
LINE
  5
EB02
  8
0
 10
242.25841092877059
 20
124.10782407969231
 30
0.0
 11
241.8237263616171
 21
123.1101112440228
 31
0.0
  0
LINE
  5
EB03
  8
0
 10
243.4130655881014
 20
123.1110071763396
 30
0.0
 11
242.25841092877059
 21
124.10782407969231
 31
0.0
  0
LINE
  5
EB04
  8
0
 10
243.93258514348389
 20
123.0975775048136
 30
0.0
 11
243.4130655881014
 21
123.1110071763396
 31
0.0
  0
LINE
  5
EB05
  8
0
 10
244.48288543382631
 20
124.3573347106576
 30
0.0
 11
243.93258514348389
 21
123.0975775048136
 31
0.0
  0
LINE
  5
EB06
  8
0
 10
244.00315576232941
 20
124.3739103898406
 30
0.0
 11
244.48288543382631
 21
124.3573347106576
 31
0.0
  0
LINE
  5
EB07
  8
0
 10
243.56922172475581
 20
123.37644156068561
 30
0.0
 11
244.00315576232941
 21
124.3739103898406
 31
0.0
  0
POLYLINE
  5
EB08
  8
0
 66
     1
 10
0.0
 20
0.0
 30
0.0
 70
   128
  0
VERTEX
  5
140C6
  8
0
 10
248.45811704173661
 20
124.3630511686206
 30
0.0
  0
VERTEX
  5
140C7
  8
0
 10
250.68731725215881
 20
123.8579241558909
 30
0.0
  0
VERTEX
  5
140C8
  8
0
 10
252.90109336376159
 20
123.2711406424641
 30
0.0
  0
SEQEND
  5
140C9
  8
0
  0
LINE
  5
EB09
  8
0
 10
252.90109336376159
 20
123.2711406424641
 30
0.0
 11
252.0837390609083
 21
123.81709683686491
 31
0.0
  0
LINE
  5
EB0A
  8
0
 10
252.0837390609083
 20
123.81709683686491
 30
0.0
 11
255.90048849582649
 21
123.81709683686491
 31
0.0
  0
LINE
  5
EB0B
  8
0
 10
255.90048849582649
 20
123.81709683686491
 30
0.0
 11
257.15823683887697
 21
123.2711406424641
 31
0.0
  0
POLYLINE
  5
EB0C
  8
0
 66
     1
 10
0.0
 20
0.0
 30
0.0
 70
   128
  0
VERTEX
  5
140CA
  8
0
 10
257.15823683887697
 20
123.2711406424641
 30
0.0
  0
VERTEX
  5
140CB
  8
0
 10
256.56580206006743
 20
123.8572349771857
 30
0.0
  0
VERTEX
  5
140CC
  8
0
 10
255.9677448868749
 20
124.3630511686206
 30
0.0
  0
SEQEND
  5
140CD
  8
0
  0
LINE
  5
EB0D
  8
0
 10
255.9677448868749
 20
124.3630511686206
 30
0.0
 11
248.45811704173661
 21
124.3630511686206
 31
0.0
  0
ARC
  5
EB1E
  8
0
 10
246.5040387874933
 20
124.06608915845381
 30
0.0
 40
0.7217143160373424
 50
206.63716208226629
 51
258.15705948810268
  0
POLYLINE
  5
EB1F
  8
0
 66
     1
 10
0.0
 20
0.0
 30
0.0
 70
   128
  0
VERTEX
  5
140CE
  8
0
 10
246.0451107751575
 20
124.1417502984404
 30
0.0
  0
VERTEX
  5
140CF
  8
0
 10
245.86056338623141
 20
123.9900900050997
 30
0.0
  0
VERTEX
  5
140D0
  8
0
 10
245.8311096113172
 20
123.8687237724662
 30
0.0
  0
VERTEX
  5
140D1
  8
0
 10
245.85892460774599
 20
123.7425165250897
 30
0.0
  0
SEQEND
  5
140D2
  8
0
  0
ARC
  5
EB20
  8
0
 10
246.64281619302761
 20
122.6986494992491
 30
0.0
 40
1.561983253168199
 50
88.489155307625253
 51
112.49842398081179
  0
ARC
  5
EB21
  8
0
 10
246.69227912311209
 20
122.0092594731573
 30
0.0
 40
2.2508454869883798
 50
71.38605872881061
 51
90.210755282944405
  0
ARC
  5
EB22
  8
0
 10
247.2312633363924
 20
123.40971779166711
 30
0.0
 40
0.754306863070778
 50
26.259834211907378
 51
76.236325721264137
  0
POLYLINE
  5
EB23
  8
0
 66
     1
 10
0.0
 20
0.0
 30
0.0
 70
   128
  0
VERTEX
  5
140D3
  8
0
 10
247.72153727710219
 20
123.3602365478873
 30
0.0
  0
VERTEX
  5
140D4
  8
0
 10
247.90543669834699
 20
123.49888812750579
 30
0.0
  0
VERTEX
  5
140D5
  8
0
 10
247.93525857850881
 20
123.6014341935515
 30
0.0
  0
VERTEX
  5
140D6
  8
0
 10
247.9077233280984
 20
123.7434552982449
 30
0.0
  0
SEQEND
  5
140D7
  8
0
  0
ARC
  5
EB24
  8
0
 10
247.12783833183519
 20
124.9803194933702
 30
0.0
 40
1.7254411574596831
 50
268.49922978633458
 51
290.1259693302955
  0
ARC
  5
EB25
  8
0
 10
247.07064825097839
 20
125.7565540281084
 30
0.0
 40
2.5011126071671721
 50
253.39550990274921
 51
270.2749009779547
  0
LINE
  5
EB36
  8
0
 10
253.00000075250841
 20
109.4999996945262
 30
0.0
 11
236.99999999254919
 21
109.4999996945262
 31
0.0
  0
LINE
  5
EB37
  8
0
 10
236.00000075995899
 20
110.4999993927777
 30
0.0
 11
253.99999998509861
 21
110.4999993927777
 31
0.0
  0
LINE
  5
EB48
  8
0
 10
228.65798071026779
 20
122.6007001474499
 30
0.0
 11
261.34202003478981
 21
122.6007001474499
 31
0.0
  0
LINE
  5
EB4A
  8
0
 10
122.7499999850987
 20
109.4999996945262
 30
0.0
 11
122.7499999850987
 21
112.4999992549419
 31
0.0
  0
LINE
  5
EB4B
  8
0
 10
117.250000014901
 20
112.4999992549419
 30
0.0
 11
117.250000014901
 21
109.4999996945262
 31
0.0
  0
LINE
  5
EB4C
  8
0
 10
121.5000000130384
 20
112.4999992549419
 30
0.0
 11
121.5000000130384
 21
114.9999996647238
 31
0.0
  0
LINE
  5
EB4D
  8
0
 10
118.4999999869613
 20
114.9999996647238
 30
0.0
 11
118.4999999869613
 21
112.4999992549419
 31
0.0
  0
LINE
  5
EB4E
  8
0
 10
134.87435586750479
 20
109.4999996945262
 30
0.0
 11
134.87435586750479
 21
112.4999992549419
 31
0.0
  0
LINE
  5
EB4F
  8
0
 10
129.37435589730711
 20
112.4999992549419
 30
0.0
 11
129.37435589730711
 21
109.4999996945262
 31
0.0
  0
LINE
  5
EB50
  8
0
 10
133.62435519695259
 20
112.4999992549419
 30
0.0
 11
133.62435519695259
 21
114.9999996647238
 31
0.0
  0
LINE
  5
EB51
  8
0
 10
130.62435563653679
 20
114.9999996647238
 30
0.0
 11
130.62435563653679
 21
112.4999992549419
 31
0.0
  0
LINE
  5
EB52
  8
0
 10
110.62564410269241
 20
109.4999996945262
 30
0.0
 11
110.62564410269241
 21
112.4999992549419
 31
0.0
  0
LINE
  5
EB53
  8
0
 10
105.1256441324947
 20
112.4999992549419
 30
0.0
 11
105.1256441324947
 21
109.4999996945262
 31
0.0
  0
LINE
  5
EB54
  8
0
 10
109.3756443634627
 20
112.4999992549419
 30
0.0
 11
109.3756443634627
 21
114.9999996647238
 31
0.0
  0
LINE
  5
EB55
  8
0
 10
106.3756448030469
 20
114.9999996647238
 30
0.0
 11
106.3756448030469
 21
112.4999992549419
 31
0.0
  0
LINE
  5
EB5A
  8
0
 10
124.00000018998961
 20
100.89700807340439
 30
0.0
 11
124.00000018998961
 21
109.4999996945262
 31
0.0
  0
LINE
  5
EB5B
  8
0
 10
115.99999981001
 20
109.4999996945262
 30
0.0
 11
115.99999981001
 21
100.89700807340439
 31
0.0
  0
LINE
  5
EB5C
  8
0
 10
115.99999981001
 20
100.89700807340439
 30
0.0
 11
117.44337564334251
 21
98.397007896453147
 31
0.0
  0
LINE
  5
EB5D
  8
0
 10
122.5566243566571
 20
98.397007896453147
 30
0.0
 11
124.00000018998961
 21
100.89700807340439
 31
0.0
  0
LINE
  5
EB6C
  8
0
 10
102.99999907612781
 20
115.4999997466802
 30
0.0
 11
103.5000000894068
 21
114.9999996647238
 31
0.0
  0
LINE
  5
EB6D
  8
0
 10
136.49999991059281
 20
114.9999996647238
 30
0.0
 11
137.0000009238718
 21
115.4999997466802
 31
0.0
  0
LINE
  5
EB6E
  8
0
 10
137.0000009238718
 20
115.4999997466802
 30
0.0
 11
137.0000009238718
 21
121.661008708179
 31
0.0
  0
LINE
  5
EB6F
  8
0
 10
102.99999907612781
 20
121.661008708179
 30
0.0
 11
102.99999907612781
 21
115.4999997466802
 31
0.0
  0
ARC
  5
EB70
  8
0
 10
103.9999999999998
 20
121.661007823776
 30
0.0
 40
1.0000000000000031
 50
110.0000000000006
 51
180.0
  0
ARC
  5
EB71
  8
0
 10
135.9999999999998
 20
121.661007823776
 30
0.0
 40
1.0000000000000071
 50
0.0
 51
69.999999999999318
  0
LINE
  5
EB72
  8
0
 10
136.34201966226081
 20
122.6007001474499
 30
0.0
 11
129.75000020116551
 21
124.9999994412064
 31
0.0
  0
LINE
  5
EB75
  8
0
 10
110.2499997988341
 20
124.9999994412064
 30
0.0
 11
103.65797986246319
 21
122.60070044666899
 31
0.0
  0
ARC
  5
EB76
  8
0
 10
129.39999999999981
 20
114.5999995604157
 30
0.0
 40
0.4000000000000057
 50
90.0
 51
180.0
  0
ARC
  5
EB77
  8
0
 10
110.5999999999998
 20
114.5999995604157
 30
0.0
 40
0.4000000000000057
 50
0.0
 51
90.0
  0
LINE
  5
EB78
  8
0
 10
111.00000038743001
 20
110.4999993927777
 30
0.0
 11
111.9999996200202
 21
109.4999996945262
 31
0.0
  0
LINE
  5
EB79
  8
0
 10
128.00000037997941
 20
109.4999996945262
 30
0.0
 11
128.99999961256961
 21
110.4999993927777
 31
0.0
  0
LINE
  5
EB7A
  8
0
 10
128.99999961256961
 20
110.4999993927777
 30
0.0
 11
128.99999961256961
 21
114.59999941289421
 31
0.0
  0
LINE
  5
EB7B
  8
0
 10
111.00000038743001
 20
114.59999941289421
 30
0.0
 11
111.00000038743001
 21
110.4999993927777
 31
0.0
  0
LINE
  5
EB80
  8
0
 10
122.7499999850987
 20
112.4999992549419
 30
0.0
 11
117.250000014901
 21
112.4999992549419
 31
0.0
  0
LINE
  5
EB82
  8
0
 10
134.87435586750479
 20
109.4999996945262
 30
0.0
 11
129.37435589730711
 21
109.4999996945262
 31
0.0
  0
LINE
  5
EB83
  8
0
 10
134.87435586750479
 20
112.4999992549419
 30
0.0
 11
129.37435589730711
 21
112.4999992549419
 31
0.0
  0
LINE
  5
EB85
  8
0
 10
110.62564410269241
 20
109.4999996945262
 30
0.0
 11
105.1256441324947
 21
109.4999996945262
 31
0.0
  0
LINE
  5
EB87
  8
0
 10
110.62564410269241
 20
112.4999992549419
 30
0.0
 11
105.1256441324947
 21
112.4999992549419
 31
0.0
  0
CIRCLE
  5
EB88
  8
0
 10
119.9999999999998
 20
103.39700799852601
 30
0.0
 40
1.9999999999999929
  0
CIRCLE
  5
EB89
  8
0
 10
119.9999999999998
 20
103.39700799852601
 30
0.0
 40
1.6999999999999951
  0
LINE
  5
EB8C
  8
0
 10
115.99999981001
 20
100.89700807340439
 30
0.0
 11
124.00000018998961
 21
100.89700807340439
 31
0.0
  0
LINE
  5
EB8D
  8
0
 10
122.5566243566571
 20
98.397007896453147
 30
0.0
 11
117.44337564334251
 21
98.397007896453147
 31
0.0
  0
LINE
  5
EBD1
  8
0
 10
136.49999991059281
 20
114.9999996647238
 30
0.0
 11
103.5000000894068
 21
114.9999996647238
 31
0.0
  0
ARC
  5
EBD3
  8
0
 10
120.2604848088865
 20
88.213415231113572
 30
0.0
 40
37.955929923951068
 50
108.3988238254814
 51
110.67170834560361
  0
ARC
  5
EBD4
  8
0
 10
113.5095321129938
 20
105.2665018186879
 30
0.0
 40
19.619812372898881
 50
109.8062249785919
 51
113.5223895402867
  0
POLYLINE
  5
EBD5
  8
0
 66
     1
 10
0.0
 20
0.0
 30
0.0
 70
   128
  0
VERTEX
  5
140D8
  8
0
 10
105.51845923066119
 20
123.1145909056067
 30
0.0
  0
VERTEX
  5
140D9
  8
0
 10
105.4729808866976
 20
123.1227846816182
 30
0.0
  0
VERTEX
  5
140DA
  8
0
 10
105.5162166059015
 20
123.17201998084779
 30
0.0
  0
VERTEX
  5
140DB
  8
0
 10
105.679119825363
 20
123.2559898868203
 30
0.0
  0
SEQEND
  5
140DC
  8
0
  0
ARC
  5
EBD6
  8
0
 10
105.1046856685381
 20
126.69254963282761
 30
0.0
 40
3.6018047163065501
 50
276.59667544054071
 51
287.44340067809168
  0
ARC
  5
EBD7
  8
0
 10
101.38235543433611
 20
140.1511613041132
 30
0.0
 40
17.563970462431762
 50
285.86679038197701
 51
290.74627310502558
  0
ARC
  5
EBD8
  8
0
 10
104.2553225819606
 20
133.22389886776421
 30
0.0
 40
10.07088391674379
 50
289.42150807513991
 51
296.73416438892411
  0
POLYLINE
  5
EBD9
  8
0
 66
     1
 10
0.0
 20
0.0
 30
0.0
 70
   128
  0
VERTEX
  5
140DD
  8
0
 10
108.9471372589467
 20
124.4012838229537
 30
0.0
  0
VERTEX
  5
140DE
  8
0
 10
108.9918714761732
 20
124.39045999199151
 30
0.0
  0
VERTEX
  5
140DF
  8
0
 10
108.9485128223894
 20
124.3294024839997
 30
0.0
  0
VERTEX
  5
140E0
  8
0
 10
108.7857260182498
 20
124.2295591160655
 30
0.0
  0
SEQEND
  5
140E1
  8
0
  0
ARC
  5
EBDA
  8
0
 10
109.4027794595592
 20
121.2598556582244
 30
0.0
 40
3.1743000376670958
 50
98.252800830511006
 51
110.70526459496099
  0
LINE
  5
EBDB
  8
0
 10
129.75000020116551
 20
124.9999994412064
 30
0.0
 11
110.2499997988341
 21
124.9999994412064
 31
0.0
  0
LINE
  5
EBE4
  8
0
 10
128.00000037997941
 20
109.4999996945262
 30
0.0
 11
111.9999996200202
 21
109.4999996945262
 31
0.0
  0
LINE
  5
EBE5
  8
0
 10
111.00000038743001
 20
110.4999993927777
 30
0.0
 11
117.250000014901
 21
110.4999993927777
 31
0.0
  0
LINE
  5
EBE6
  8
0
 10
122.7499999850987
 20
110.4999993927777
 30
0.0
 11
128.99999961256961
 21
110.4999993927777
 31
0.0
  0
ARC
  5
EBF1
  8
0
 10
112.112399768133
 20
109.48272205902551
 30
0.0
 40
15.155560690919421
 50
109.7938352824852
 51
113.7059697904389
  0
ARC
  5
EBF2
  8
0
 10
116.6192668813669
 20
98.316889274528364
 30
0.0
 40
27.191756953193359
 50
108.2394470600031
 51
110.76194306125061
  0
ARC
  5
EBF3
  8
0
 10
108.8772394529815
 20
122.0990972973463
 30
0.0
 40
2.1831524687591339
 50
98.003709158186041
 51
110.6158761398561
  0
POLYLINE
  5
EBF4
  8
0
 66
     1
 10
0.0
 20
0.0
 30
0.0
 70
   128
  0
VERTEX
  5
140E2
  8
0
 10
108.445635885
 20
124.1428120061755
 30
0.0
  0
VERTEX
  5
140E3
  8
0
 10
108.5856565088032
 20
124.22885876148941
 30
0.0
  0
VERTEX
  5
140E4
  8
0
 10
108.60069643706061
 20
124.2524361237883
 30
0.0
  0
VERTEX
  5
140E5
  8
0
 10
108.5732633993028
 20
124.26098380237811
 30
0.0
  0
SEQEND
  5
140E6
  8
0
  0
ARC
  5
EBF5
  8
0
 10
104.31313727935451
 20
132.7203578264548
 30
0.0
 40
9.5211258275822193
 50
289.46215514399478
 51
295.72388365287497
  0
ARC
  5
EBF6
  8
0
 10
101.7330559347331
 20
138.82799888456771
 30
0.0
 40
16.144328310011719
 50
286.64071801050397
 51
290.87369182671478
  0
ARC
  5
EBF7
  8
0
 10
105.6234499024731
 20
125.5261454898727
 30
0.0
 40
2.2869389658592238
 50
276.77101515952643
 51
288.69006399020378
  0
POLYLINE
  5
EBF8
  8
0
 66
     1
 10
0.0
 20
0.0
 30
0.0
 70
   128
  0
VERTEX
  5
140E7
  8
0
 10
106.01920995861271
 20
123.35946727544069
 30
0.0
  0
VERTEX
  5
140E8
  8
0
 10
105.8793672174213
 20
123.28260149806739
 30
0.0
  0
VERTEX
  5
140E9
  8
0
 10
105.864996910095
 20
123.262214846909
 30
0.0
  0
VERTEX
  5
140EA
  8
0
 10
105.8930837363003
 20
123.2551572844386
 30
0.0
  0
SEQEND
  5
140EB
  8
0
  0
LINE
  5
EC0B
  8
0
 10
103.65798033773881
 20
122.6007001474499
 30
0.0
 11
136.34201966226081
 21
122.6007001474499
 31
0.0
  0
LINE
  5
EC0E
  8
0
 10
189.19999998062841
 20
47.99999990500509
 30
0.0
 11
189.50000040233121
 21
48.299999977461987
 31
0.0
  0
LINE
  5
EC0F
  8
0
 10
189.50000040233121
 20
51.700000022537999
 30
0.0
 11
189.19999998062841
 21
52.000000094994903
 31
0.0
  0
LINE
  5
EC10
  8
0
 10
175.8000003919004
 20
52.000000094994903
 30
0.0
 11
175.49999997019751
 21
51.700000022537999
 31
0.0
  0
LINE
  5
EC11
  8
0
 10
175.49999997019751
 20
48.299999977461987
 30
0.0
 11
175.8000003919004
 21
47.99999990500509
 31
0.0
  0
LINE
  5
EC12
  8
0
 10
175.8000003919004
 20
47.99999990500509
 30
0.0
 11
179.03589860536141
 21
47.99999990500509
 31
0.0
  0
LINE
  5
EC13
  8
0
 10
185.96410176716731
 20
47.99999990500509
 30
0.0
 11
189.19999998062841
 21
47.99999990500509
 31
0.0
  0
LINE
  5
EC14
  8
0
 10
189.19999998062841
 20
52.000000094994903
 30
0.0
 11
185.96410176716731
 21
52.000000094994903
 31
0.0
  0
LINE
  5
EC15
  8
0
 10
179.03589860536141
 20
52.000000094994903
 30
0.0
 11
175.8000003919004
 21
52.000000094994903
 31
0.0
  0
LINE
  5
EC16
  8
0
 10
169.221687979173
 20
48.750000092398587
 30
0.0
 11
169.94337593302191
 21
50.0
 31
0.0
  0
LINE
  5
EC17
  8
0
 10
169.22168770562371
 20
51.24999992196134
 30
0.0
 11
169.94337593302191
 21
50.0
 31
0.0
  0
LINE
  5
EC18
  8
0
 10
169.22168770562371
 20
51.24999992196134
 30
0.0
 11
167.7783124481254
 21
51.250000058374987
 31
0.0
  0
LINE
  5
EC19
  8
0
 10
167.7783124481254
 20
51.250000058374987
 30
0.0
 11
167.0566244942766
 21
50.000000150773602
 31
0.0
  0
LINE
  5
EC1A
  8
0
 10
167.77831272167469
 20
48.750000228812247
 30
0.0
 11
167.0566244942766
 21
50.000000150773602
 31
0.0
  0
LINE
  5
EC1B
  8
0
 10
167.77831272167469
 20
48.750000228812247
 30
0.0
 11
169.221687979173
 21
48.750000092398587
 31
0.0
  0
CIRCLE
  5
EC1C
  8
0
 10
168.50000018626429
 20
50.0
 30
0.0
 40
2.7500000000000071
  0
LINE
  5
EC1D
  8
0
 10
188.0566246830156
 20
62.124355776329161
 30
0.0
 11
188.7783124219504
 21
60.874355777989813
 31
0.0
  0
LINE
  5
EC1E
  8
0
 10
190.22168810127391
 20
60.87435591601993
 30
0.0
 11
188.7783124219504
 21
60.874355777989813
 31
0.0
  0
LINE
  5
EC1F
  8
0
 10
190.22168810127391
 20
60.87435591601993
 30
0.0
 11
190.94337573291759
 21
62.124355057965559
 31
0.0
  0
LINE
  5
EC20
  8
0
 10
190.94337573291759
 20
62.124355057965559
 30
0.0
 11
190.2216883027277
 21
63.374356050728721
 31
0.0
  0
LINE
  5
EC21
  8
0
 10
188.77831262340419
 20
63.374355912698611
 30
0.0
 11
190.2216883027277
 21
63.374356050728721
 31
0.0
  0
LINE
  5
EC22
  8
0
 10
188.77831262340419
 20
63.374355912698611
 30
0.0
 11
188.0566246830156
 21
62.124355776329161
 31
0.0
  0
CIRCLE
  5
EC23
  8
0
 10
189.50000018626429
 20
62.12435565298221
 30
0.0
 40
2.749999999999996
  0
LINE
  5
EC24
  8
0
 10
190.22168819968411
 20
39.125644394349152
 30
0.0
 11
188.77831252036071
 21
39.125644051559043
 31
0.0
  0
LINE
  5
EC25
  8
0
 10
188.05662460652579
 20
37.875644731846577
 30
0.0
 11
188.77831252036071
 21
39.125644051559043
 31
0.0
  0
LINE
  5
EC26
  8
0
 10
188.05662460652579
 20
37.875644731846577
 30
0.0
 11
188.77831267356169
 21
36.625643916850223
 31
0.0
  0
LINE
  5
EC27
  8
0
 10
188.77831267356169
 20
36.625643916850223
 30
0.0
 11
190.22168835288511
 21
36.625644259640339
 31
0.0
  0
LINE
  5
EC28
  8
0
 10
190.9433756564278
 20
37.87564442300296
 30
0.0
 11
190.22168835288511
 21
36.625644259640339
 31
0.0
  0
LINE
  5
EC29
  8
0
 10
190.9433756564278
 20
37.87564442300296
 30
0.0
 11
190.22168819968411
 21
39.125644394349152
 31
0.0
  0
CIRCLE
  5
EC2A
  8
0
 10
189.50000018626449
 20
37.87564434701784
 30
0.0
 40
2.75
  0
CIRCLE
  5
EC2B
  8
0
 10
184.00967409930789
 20
55.487018045464431
 30
0.0
 40
0.5
  0
LINE
  5
EC2C
  8
0
 10
180.2096740156411
 20
56.68701808899641
 30
0.0
 11
181.6096740821375
 21
56.68701808899641
 31
0.0
  0
LINE
  5
EC2D
  8
0
 10
181.6096740821375
 20
56.68701808899641
 30
0.0
 11
181.6096740821375
 21
53.899656236171722
 31
0.0
  0
LINE
  5
EC2E
  8
0
 10
182.80967411003061
 20
53.98799451068043
 30
0.0
 11
182.80967411003061
 21
56.68701808899641
 31
0.0
  0
LINE
  5
EC2F
  8
0
 10
182.80967411003061
 20
56.68701808899641
 30
0.0
 11
184.20967408921561
 21
56.68701808899641
 31
0.0
  0
ARC
  5
EC30
  8
0
 10
184.2096740993079
 20
55.687018045464413
 30
0.0
 40
1.0
 50
0.0
 51
90.0
  0
LINE
  5
EC31
  8
0
 10
185.20967413671301
 20
55.68701792508363
 30
0.0
 11
185.20967413671301
 21
53.95851070061326
 31
0.0
  0
ARC
  5
EC32
  8
0
 10
186.2096740993079
 20
53.958510901510117
 30
0.0
 40
1.0000000000000031
 50
180.0
 51
230.23807925223889
  0
ARC
  5
EC33
  8
0
 10
182.5000001862644
 20
49.5
 30
0.0
 40
4.8000000000000043
 50
31.3881664643508
 51
50.238079252238983
  0
ARC
  5
EC34
  8
0
 10
182.5000001862644
 20
49.5
 30
0.0
 40
4.800000000000006
 50
198.20995686428299
 51
341.79004313571699
  0
POLYLINE
  5
EC35
  8
0
 66
     1
 10
0.0
 20
0.0
 30
0.0
 70
   128
  0
VERTEX
  5
140EC
  8
0
 10
178.40243976563201
 20
52.000000094994903
 30
0.0
  0
VERTEX
  5
140ED
  8
0
 10
178.61451518721859
 20
52.318333834409707
 30
0.0
  0
VERTEX
  5
140EE
  8
0
 10
178.9493854902683
 20
52.730036387220018
 30
0.0
  0
SEQEND
  5
140EF
  8
0
  0
ARC
  5
EC36
  8
0
 10
178.2096740993079
 20
53.40296067973793
 30
0.0
 40
1.000000000000014
 50
317.7068365951194
 51
0.0
  0
LINE
  5
EC37
  8
0
 10
179.20967408455891
 20
53.402960719540708
 30
0.0
 11
179.20967408455891
 21
55.68701792508363
 31
0.0
  0
ARC
  5
EC38
  8
0
 10
180.2096740993079
 20
55.687018045464413
 30
0.0
 40
1.0
 50
90.0
 51
180.0
  0
CIRCLE
  5
EC39
  8
0
 10
180.40967409930789
 20
55.487018045464431
 30
0.0
 40
0.5
  0
LINE
  5
EC3A
  8
0
 10
189.50000040233121
 20
51.700000022537999
 30
0.0
 11
189.50000040233121
 21
48.299999977461987
 31
0.0
  0
LINE
  5
EC3B
  8
0
 10
189.19999998062841
 20
47.99999990500509
 30
0.0
 11
189.19999998062841
 21
52.000000094994903
 31
0.0
  0
LINE
  5
EC3C
  8
0
 10
175.8000003919004
 20
52.000000094994903
 30
0.0
 11
175.8000003919004
 21
47.99999990500509
 31
0.0
  0
LINE
  5
EC3D
  8
0
 10
175.49999997019751
 20
48.299999977461987
 30
0.0
 11
175.49999997019751
 21
51.700000022537999
 31
0.0
  0
CIRCLE
  5
EC3E
  8
0
 10
182.5000001862644
 20
50.0
 30
0.0
 40
2.5566243270259319
  0
CIRCLE
  5
EC3F
  8
0
 10
182.5000001862644
 20
50.0
 30
0.0
 40
4.0
  0
CIRCLE
  5
EC40
  8
0
 10
182.5000001862644
 20
50.0
 30
0.0
 40
1.75
  0
CIRCLE
  5
EC41
  8
0
 10
182.5000001862644
 20
50.0
 30
0.0
 40
7.9999999999999956
  0
CIRCLE
  5
EC42
  8
0
 10
182.5000001862644
 20
50.0
 30
0.0
 40
9.0
  0
CIRCLE
  5
EC43
  8
0
 10
182.5000001862644
 20
50.0
 30
0.0
 40
7.5
  0
CIRCLE
  5
EC49
  8
0
 10
182.5000001862644
 20
49.999999999999943
 30
0.0
 40
17.000000000000011
  0
CIRCLE
  5
EC4A
  8
0
 10
182.5000001862644
 20
50.0
 30
0.0
 40
1.3000000000000069
  0
CIRCLE
  5
EC4B
  8
0
 10
182.5000001862644
 20
50.0
 30
0.0
 40
1.4999999999999969
  0
LINE
  5
EC5D
  8
0
 10
182.93301299624571
 20
50.750000000000057
 30
0.0
 11
182.06698737628309
 21
50.75
 31
0.0
  0
LINE
  5
EC5E
  8
0
 10
182.9330127800676
 20
49.25
 30
0.0
 11
182.06698759246129
 21
49.25
 31
0.0
  0
LINE
  5
EC61
  8
0
 10
182.06698737628309
 20
50.75
 30
0.0
 11
181.63397478248001
 21
50.000000187215782
 31
0.0
  0
LINE
  5
EC62
  8
0
 10
183.36602559004879
 20
50.000000187215683
 30
0.0
 11
182.93301278006749
 21
49.25
 31
0.0
  0
LINE
  5
EC63
  8
0
 10
182.93301299624571
 20
50.75
 30
0.0
 11
183.36602559004891
 21
50.000000187215683
 31
0.0
  0
LINE
  5
EC64
  8
0
 10
181.63397478248001
 20
50.000000187215733
 30
0.0
 11
182.06698759246129
 21
49.25
 31
0.0
  0
LINE
  5
EC65
  8
0
 10
406.7500005587932
 20
50.433012809981278
 30
0.0
 11
406.7500005587932
 21
49.566987190018722
 31
0.0
  0
LINE
  5
EC66
  8
0
 10
408.2500005587932
 20
50.433012593803198
 30
0.0
 11
408.2500005587932
 21
49.566987406196851
 31
0.0
  0
LINE
  5
EC67
  8
0
 10
406.7500005587932
 20
49.566987190018722
 30
0.0
 11
407.50000037157753
 21
49.13397459621558
 31
0.0
  0
LINE
  5
EC68
  8
0
 10
407.50000037157758
 20
50.86602540378442
 30
0.0
 11
408.2500005587932
 21
50.433012593803141
 31
0.0
  0
LINE
  5
EC69
  8
0
 10
406.7500005587932
 20
50.433012809981328
 30
0.0
 11
407.50000037157758
 21
50.866025403784469
 31
0.0
  0
LINE
  5
EC6A
  8
0
 10
407.50000037157758
 20
49.13397459621558
 30
0.0
 11
408.2500005587932
 21
49.566987406196851
 31
0.0
  0
CIRCLE
  5
F041
  8
0
 10
182.5000001862644
 20
184.19157769531009
 30
0.0
 40
17.0
  0
LINE
  5
F085
  8
1
 10
182.5000001862644
 20
206.19157769531009
 30
0.0
 11
182.5000001862644
 21
162.19157769531009
 31
0.0
  0
LINE
  5
F086
  8
1
 10
204.5000001862644
 20
184.19157769531009
 30
0.0
 11
160.5000001862644
 21
184.19157769531009
 31
0.0
  0
CIRCLE
  5
F10E
  8
0
 10
407.50000055879332
 20
184.19157769531009
 30
0.0
 40
17.0
  0
LINE
  5
F152
  8
1
 10
407.50000055879332
 20
206.19157769531009
 30
0.0
 11
407.50000055879332
 21
162.19157769531009
 31
0.0
  0
LINE
  5
F153
  8
1
 10
429.50000055879332
 20
184.19157769531009
 30
0.0
 11
385.50000055879337
 21
184.19157769531009
 31
0.0
  0
LINE
  5
F19E
  8
1
 10
182.5000001862644
 20
72.0
 30
0.0
 11
182.5000001862644
 21
28.0
 31
0.0
  0
LINE
  5
F19F
  8
1
 10
204.5000001862644
 20
50.0
 30
0.0
 11
160.5000001862644
 21
50.0
 31
0.0
  0
LINE
  5
F1A0
  8
1
 10
407.50000055879332
 20
72.0
 30
0.0
 11
407.50000055879332
 21
28.0
 31
0.0
  0
LINE
  5
F1A1
  8
1
 10
429.50000055879332
 20
50.0
 30
0.0
 11
385.50000055879337
 21
50.0
 31
0.0
  0
CIRCLE
  5
F1A2
  8
1
 10
407.50000055879332
 20
50.0
 30
0.0
 40
14.0
  0
LINE
  5
F1A3
  8
1
 10
412.1250005587932
 20
58.010734985006081
 30
0.0
 11
416.8750005587932
 21
66.237976320958296
 31
0.0
  0
LINE
  5
F1A4
  8
1
 10
412.12500055879349
 20
41.989265014993919
 30
0.0
 11
416.87500055879337
 21
33.762023679041732
 31
0.0
  0
CIRCLE
  5
F1A7
  8
1
 10
182.5000001862644
 20
50.0
 30
0.0
 40
14.0
  0
LINE
  5
F1A8
  8
1
 10
187.12500018626429
 20
58.010734985006081
 30
0.0
 11
191.87500018626429
 21
66.237976320958296
 31
0.0
  0
LINE
  5
F1A9
  8
1
 10
187.12500018626449
 20
41.989265014993919
 30
0.0
 11
191.87500018626449
 21
33.762023679041732
 31
0.0
  0
LINE
  5
F1F6
  8
1
 10
119.9999999999998
 20
135.37000810283419
 30
0.0
 11
119.9999999999998
 21
93.397007896453147
 31
0.0
  0
LINE
  5
F1F7
  8
1
 10
132.12435588240601
 20
107.4999996945262
 30
0.0
 11
132.12435588240601
 21
116.9999996647238
 31
0.0
  0
LINE
  5
F1F8
  8
1
 10
107.8756441175935
 20
107.4999996945262
 30
0.0
 11
107.8756441175935
 21
116.9999996647238
 31
0.0
  0
LINE
  5
F1F9
  8
1
 10
123.9999999999998
 20
103.39700799852601
 30
0.0
 11
115.9999999999998
 21
103.39700799852601
 31
0.0
  0
LINE
  5
F266
  8
1
 10
245.0000003725288
 20
135.37000810283419
 30
0.0
 11
245.0000003725288
 21
93.397007896453147
 31
0.0
  0
LINE
  5
F267
  8
1
 10
257.12435625493509
 20
107.4999996945262
 30
0.0
 11
257.12435625493509
 21
116.9999996647238
 31
0.0
  0
LINE
  5
F268
  8
1
 10
232.87564449012251
 20
107.4999996945262
 30
0.0
 11
232.87564449012251
 21
116.9999996647238
 31
0.0
  0
LINE
  5
F269
  8
1
 10
249.0000003725288
 20
103.39700799852601
 30
0.0
 11
241.0000003725288
 21
103.39700799852601
 31
0.0
  0
LINE
  5
F314
  8
1
 10
407.50000055879332
 20
135.04086669534439
 30
0.0
 11
407.50000055879332
 21
93.067874927073703
 31
0.0
  0
LINE
  5
F31B
  8
1
 10
182.5000001862644
 20
135.37000810283419
 30
0.0
 11
182.5000001862644
 21
93.397007896453147
 31
0.0
  0
LINE
  5
F31C
  8
1
 10
191.50000040233121
 20
103.39700799852601
 30
0.0
 11
173.49999997019751
 21
103.39700799852601
 31
0.0
  0
LINE
  5
F31F
  8
1
 10
168.4999997541307
 20
107.4999996945262
 30
0.0
 11
168.4999997541307
 21
116.9999996647238
 31
0.0
  0
LINE
  5
F320
  8
1
 10
189.50000040233121
 20
107.4999996945261
 30
0.0
 11
189.50000040233121
 21
116.9999996647238
 31
0.0
  0
LINE
  5
F381
  8
1
 10
345.0000003725288
 20
135.04086669534439
 30
0.0
 11
345.0000003725288
 21
93.067874927073774
 31
0.0
  0
LINE
  5
F398
  8
1
 10
470.00000074505789
 20
135.04086669534439
 30
0.0
 11
470.00000074505789
 21
93.067874927073774
 31
0.0
  0
LINE
  5
F476
  8
0
 10
335.25000017136313
 20
124.9999994412064
 30
0.0
 11
328.65798023499229
 21
122.60070044666899
 31
0.0
  0
ARC
  5
F477
  8
0
 10
345.2604851814155
 20
88.213415231113572
 30
0.0
 40
37.955929923951068
 50
108.3988238254818
 51
110.6717083456043
  0
ARC
  5
F478
  8
0
 10
338.50953248552281
 20
105.2665018186879
 30
0.0
 40
19.619812372898881
 50
109.8062249785921
 51
113.52238954028719
  0
POLYLINE
  5
F479
  8
0
 66
     1
 10
0.0
 20
0.0
 30
0.0
 70
   128
  0
VERTEX
  5
140F0
  8
0
 10
330.51845960319019
 20
123.1145909056067
 30
0.0
  0
VERTEX
  5
140F1
  8
0
 10
330.47298125922657
 20
123.1227846816182
 30
0.0
  0
VERTEX
  5
140F2
  8
0
 10
330.51621697843052
 20
123.17201998084779
 30
0.0
  0
VERTEX
  5
140F3
  8
0
 10
330.67912019789202
 20
123.2559898868203
 30
0.0
  0
SEQEND
  5
140F4
  8
0
  0
ARC
  5
F47A
  8
0
 10
330.10468604106711
 20
126.69254963282761
 30
0.0
 40
3.6018047163065501
 50
276.59667544054048
 51
287.44340067809168
  0
ARC
  5
F47B
  8
0
 10
326.38235580686512
 20
140.1511613041132
 30
0.0
 40
17.563970462431762
 50
285.86679038197587
 51
290.74627310502672
  0
ARC
  5
F47C
  8
0
 10
329.2553229544896
 20
133.22389886776421
 30
0.0
 40
10.07088391674379
 50
289.42150807513991
 51
296.73416438892502
  0
POLYLINE
  5
F47D
  8
0
 66
     1
 10
0.0
 20
0.0
 30
0.0
 70
   128
  0
VERTEX
  5
140F5
  8
0
 10
333.9471376314757
 20
124.4012838229537
 30
0.0
  0
VERTEX
  5
140F6
  8
0
 10
333.9918718487022
 20
124.39045999199151
 30
0.0
  0
VERTEX
  5
140F7
  8
0
 10
333.94851319491841
 20
124.3294024839997
 30
0.0
  0
VERTEX
  5
140F8
  8
0
 10
333.78572639077879
 20
124.2295591160655
 30
0.0
  0
SEQEND
  5
140F9
  8
0
  0
ARC
  5
F47E
  8
0
 10
334.40277983208819
 20
121.2598556582244
 30
0.0
 40
3.1743000376670958
 50
98.252800830511006
 51
110.7052645949617
  0
ARC
  5
F47F
  8
0
 10
337.11240014066209
 20
109.48272205902551
 30
0.0
 40
15.155560690919421
 50
109.7938352824841
 51
113.70596979043761
  0
ARC
  5
F480
  8
0
 10
341.61926725389588
 20
98.316889274528364
 30
0.0
 40
27.191756953193359
 50
108.2394470600042
 51
110.761943061251
  0
ARC
  5
F481
  8
0
 10
333.87723982551051
 20
122.0990972973463
 30
0.0
 40
2.1831524687591339
 50
98.003709158186453
 51
110.61587613985471
  0
POLYLINE
  5
F482
  8
0
 66
     1
 10
0.0
 20
0.0
 30
0.0
 70
   128
  0
VERTEX
  5
140FA
  8
0
 10
333.44563625752897
 20
124.1428120061755
 30
0.0
  0
VERTEX
  5
140FB
  8
0
 10
333.58565688133223
 20
124.22885876148941
 30
0.0
  0
VERTEX
  5
140FC
  8
0
 10
333.60069680958969
 20
124.2524361237883
 30
0.0
  0
VERTEX
  5
140FD
  8
0
 10
333.57326377183182
 20
124.26098380237811
 30
0.0
  0
SEQEND
  5
140FE
  8
0
  0
ARC
  5
F483
  8
0
 10
329.31313765188349
 20
132.7203578264548
 30
0.0
 40
9.5211258275822193
 50
289.4621551439954
 51
295.72388365287452
  0
ARC
  5
F484
  8
0
 10
326.73305630726207
 20
138.82799888456771
 30
0.0
 40
16.144328310011719
 50
286.64071801050318
 51
290.87369182671381
  0
ARC
  5
F485
  8
0
 10
330.62345027500209
 20
125.5261454898727
 30
0.0
 40
2.2869389658592238
 50
276.77101515952779
 51
288.69006399020452
  0
POLYLINE
  5
F486
  8
0
 66
     1
 10
0.0
 20
0.0
 30
0.0
 70
   128
  0
VERTEX
  5
140FF
  8
0
 10
331.01921033114172
 20
123.35946727544069
 30
0.0
  0
VERTEX
  5
14100
  8
0
 10
330.87936758995039
 20
123.28260149806739
 30
0.0
  0
VERTEX
  5
14101
  8
0
 10
330.86499728262402
 20
123.262214846909
 30
0.0
  0
VERTEX
  5
14102
  8
0
 10
330.89308410882933
 20
123.2551572844386
 30
0.0
  0
SEQEND
  5
14103
  8
0
  0
LINE
  5
F487
  8
1
 10
357.12435625493498
 20
107.4999996945262
 30
0.0
 11
357.12435625493498
 21
116.9999996647238
 31
0.0
  0
LINE
  5
F488
  8
1
 10
332.87564449012251
 20
107.4999996945262
 30
0.0
 11
332.87564449012251
 21
116.9999996647238
 31
0.0
  0
LINE
  5
F4CC
  8
0
 10
423.84202022105433
 20
122.6007001474499
 30
0.0
 11
417.25000075995899
 21
124.9999994412064
 31
0.0
  0
LINE
  5
F4CD
  8
0
 10
418.66925813257672
 20
124.3744561448693
 30
0.0
 11
421.63847748190142
 21
123.37644156068561
 31
0.0
  0
LINE
  5
F4CE
  8
0
 10
418.58892783522577
 20
124.35736265033481
 30
0.0
 11
418.66925813257672
 21
124.3744561448693
 31
0.0
  0
LINE
  5
F4CF
  8
0
 10
422.0236128941176
 20
123.0976352468133
 30
0.0
 11
418.58892783522577
 21
124.35736265033481
 31
0.0
  0
LINE
  5
F4D0
  8
0
 10
422.10094060748793
 20
123.1101112440228
 30
0.0
 11
422.0236128941176
 21
123.0976352468133
 31
0.0
  0
LINE
  5
F4D1
  8
0
 10
419.38922822475411
 20
124.10782407969231
 30
0.0
 11
422.10094060748793
 21
123.1101112440228
 31
0.0
  0
LINE
  5
F4D2
  8
0
 10
422.35544499009831
 20
123.1110071763396
 30
0.0
 11
419.38922822475411
 21
124.10782407969231
 31
0.0
  0
LINE
  5
F4D3
  8
0
 10
422.43877787142969
 20
123.0975775048136
 30
0.0
 11
422.35544499009831
 21
123.1110071763396
 31
0.0
  0
LINE
  5
F4D4
  8
0
 10
419.00409374386049
 20
124.3573347106576
 30
0.0
 11
422.43877787142969
 21
123.0975775048136
 31
0.0
  0
LINE
  5
F4D5
  8
0
 10
418.92676603049023
 20
124.3739103898406
 30
0.0
 11
419.00409374386049
 21
124.3573347106576
 31
0.0
  0
LINE
  5
F4D6
  8
0
 10
421.63847748190142
 20
123.37644156068561
 30
0.0
 11
418.92676603049023
 21
124.3739103898406
 31
0.0
  0
LINE
  5
F4D7
  8
1
 10
354.0000005885957
 20
103.06787462169299
 30
0.0
 11
336.00000015646202
 21
103.06787462169299
 31
0.0
  0
LINE
  5
F4D8
  8
1
 10
479.00000096112473
 20
103.06787462169299
 30
0.0
 11
461.00000052899111
 21
103.06787462169299
 31
0.0
  0
LINE
  5
F4D9
  8
1
 10
411.50000055879332
 20
103.0678745604156
 30
0.0
 11
403.50000055879332
 21
103.0678745604156
 31
0.0
  0
LINE
  5
F4DA
  8
1
 10
393.5000001266597
 20
107.4999996945262
 30
0.0
 11
393.5000001266597
 21
116.9999996647238
 31
0.0
  0
LINE
  5
F4DB
  8
1
 10
414.50000077486021
 20
107.4999996945261
 30
0.0
 11
414.50000077486021
 21
116.9999996647238
 31
0.0
  0
LINE
  5
F51F
  8
1
 10
482.12435662746401
 20
107.4999996945262
 30
0.0
 11
482.12435662746401
 21
116.9999996647238
 31
0.0
  0
LINE
  5
F520
  8
1
 10
457.87564486265148
 20
107.4999996945262
 30
0.0
 11
457.87564486265148
 21
116.9999996647238
 31
0.0
  0
LINE
  5
F575
  8
1
 10
237.5
 20
-33.094764855300561
 30
0.0
 11
237.5
 21
-71.094764855300554
 31
0.0
  0
LINE
  5
F577
  8
1
 10
218.5
 20
-52.094764855300568
 30
0.0
 11
256.5
 21
-52.094764855300568
 31
0.0
  0
LINE
  5
F578
  8
0
 10
214.99999999999989
 20
-95.373270445642973
 30
0.0
 11
259.99999999999989
 21
-95.373270445642973
 31
0.0
  0
LINE
  5
F579
  8
0
 10
228.50000000000011
 20
-96.373270445642987
 30
0.0
 11
227.50000000000011
 21
-95.373270445642973
 31
0.0
  0
LINE
  5
F57A
  8
0
 10
221.7999999999999
 20
-95.873270445642987
 30
0.0
 11
221.30000000000001
 21
-95.373270445642973
 31
0.0
  0
LINE
  5
F57B
  8
0
 10
220.25
 20
-97.873270445643001
 30
0.0
 11
226.75
 21
-97.873270445643001
 31
0.0
  0
LINE
  5
F57D
  8
0
 10
228.50000000000011
 20
-100.873270445643
 30
0.0
 11
228.00000000000011
 21
-101.373270445643
 31
0.0
  0
LINE
  5
F57E
  8
0
 10
220.25
 20
-100.873270445643
 30
0.0
 11
219.75
 21
-101.373270445643
 31
0.0
  0
LINE
  5
F57F
  8
1
 10
237.5
 20
-90.373270445642973
 30
0.0
 11
237.5
 21
-106.373270445643
 31
0.0
  0
LINE
  5
F581
  8
1
 10
247.12499999999989
 20
-35.423775832450033
 30
0.0
 11
241.87500000000011
 21
-44.517042572186753
 31
0.0
  0
LINE
  5
F582
  8
1
 10
247.12499999999989
 20
-68.76575387815106
 30
0.0
 11
241.87499999999989
 21
-59.672487138414461
 31
0.0
  0
LINE
  5
F583
  8
0
 10
228.50000000000011
 20
-96.373270445642987
 30
0.0
 11
228.50000000000011
 21
-100.873270445643
 31
0.0
  0
LINE
  5
F584
  8
1
 10
223.5
 20
-93.373270445642987
 30
0.0
 11
223.5
 21
-103.373270445643
 31
0.0
  0
LINE
  5
F585
  8
0
 10
221.7999999999999
 20
-95.873270445642987
 30
0.0
 11
221.7999999999999
 21
-97.873270445643001
 31
0.0
  0
LINE
  5
F586
  8
0
 10
220.25
 20
-97.873270445643001
 30
0.0
 11
220.25
 21
-100.873270445643
 31
0.0
  0
LINE
  5
F587
  8
0
 10
225.2000000000001
 20
-95.873270445642987
 30
0.0
 11
225.7000000000001
 21
-95.373270445642973
 31
0.0
  0
LINE
  5
F588
  8
0
 10
226.75
 20
-100.873270445643
 30
0.0
 11
227.25
 21
-101.373270445643
 31
0.0
  0
LINE
  5
F589
  8
0
 10
225.2000000000001
 20
-95.873270445642987
 30
0.0
 11
225.2000000000001
 21
-97.873270445643001
 31
0.0
  0
LINE
  5
F58A
  8
0
 10
226.75
 20
-97.873270445643001
 30
0.0
 11
226.75
 21
-100.873270445643
 31
0.0
  0
LINE
  5
F58B
  8
0
 10
221.7999999999999
 20
-95.873270445642987
 30
0.0
 11
225.2000000000001
 21
-95.873270445642987
 31
0.0
  0
LINE
  5
F58C
  8
0
 10
220.25
 20
-100.873270445643
 30
0.0
 11
226.75
 21
-100.873270445643
 31
0.0
  0
LINE
  5
F58D
  8
0
 10
246.5
 20
-96.373270445643016
 30
0.0
 11
247.5
 21
-95.373270445643016
 31
0.0
  0
LINE
  5
F58E
  8
0
 10
246.49999999999989
 20
-100.873270445643
 30
0.0
 11
246.99999999999989
 21
-101.373270445643
 31
0.0
  0
LINE
  5
F58F
  8
0
 10
246.5
 20
-96.373270445643016
 30
0.0
 11
246.49999999999989
 21
-100.873270445643
 31
0.0
  0
LINE
  5
F590
  8
0
 10
228.50000000000011
 20
-96.373270445642987
 30
0.0
 11
246.5
 21
-96.373270445643215
 31
0.0
  0
LINE
  5
F591
  8
0
 10
246.49999999999989
 20
-100.873270445643
 30
0.0
 11
228.50000000000011
 21
-100.8732704456431
 31
0.0
  0
LINE
  5
F595
  8
0
 10
375.0
 20
-103.373270445643
 30
0.0
 11
410.0
 21
-103.373270445643
 31
0.0
  0
LINE
  5
F596
  8
0
 10
370.0
 20
-95.373270445642973
 30
0.0
 11
415.0
 21
-95.373270445642973
 31
0.0
  0
LINE
  5
F597
  8
0
 10
375.0
 20
-95.873270445642987
 30
0.0
 11
374.5
 21
-95.373270445642973
 31
0.0
  0
LINE
  5
F599
  8
0
 10
370.0
 20
-109.373270445643
 30
0.0
 11
415.0
 21
-109.373270445643
 31
0.0
  0
LINE
  5
F59B
  8
1
 10
392.5
 20
-90.373270445642973
 30
0.0
 11
392.5
 21
-114.373270445643
 31
0.0
  0
LINE
  5
F5A6
  8
0
 10
375.0
 20
-95.873270445642987
 30
0.0
 11
375.0
 21
-103.373270445643
 31
0.0
  0
LINE
  5
F5A7
  8
0
 10
410.0
 20
-95.873270445642987
 30
0.0
 11
410.5
 21
-95.373270445642973
 31
0.0
  0
LINE
  5
F5A8
  8
0
 10
410.0
 20
-95.873270445642987
 30
0.0
 11
410.0
 21
-103.373270445643
 31
0.0
  0
LINE
  5
F5A9
  8
0
 10
375.0
 20
-95.873270445642987
 30
0.0
 11
410.0
 21
-95.873270445642987
 31
0.0
  0
CIRCLE
  5
F6CB
  8
1
 10
237.5
 20
-52.094764855300561
 30
0.0
 40
14.0
  0
CIRCLE
  5
F6CD
  8
0
 10
237.5
 20
-52.094764855300568
 30
0.0
 40
9.0
  0
LINE
  5
F6CE
  8
0
 10
214.99999999999989
 20
-101.373270445643
 30
0.0
 11
259.99999999999989
 21
-101.373270445643
 31
0.0
  0
CIRCLE
  5
F6D0
  8
2
 10
223.5
 20
-52.094764855300561
 30
0.0
 40
3.25
  0
CIRCLE
  5
F6D1
  8
0
 10
223.5
 20
-52.094764855300561
 30
0.0
 40
1.7
  0
CIRCLE
  5
F6D3
  8
2
 10
244.5
 20
-39.970409202318407
 30
0.0
 40
3.25
  0
CIRCLE
  5
F6D4
  8
0
 10
244.5
 20
-39.970409202318407
 30
0.0
 40
1.7
  0
CIRCLE
  5
F6D5
  8
2
 10
244.49999999999989
 20
-64.219120508282771
 30
0.0
 40
3.25
  0
CIRCLE
  5
F6D6
  8
0
 10
244.49999999999989
 20
-64.219120508282771
 30
0.0
 40
1.7
  0
LINE
  5
F768
  8
0
 10
144.9999999999998
 20
-95.373270445642973
 30
0.0
 11
189.9999999999998
 21
-95.373270445642973
 31
0.0
  0
LINE
  5
F769
  8
0
 10
144.9999999999998
 20
-101.373270445643
 30
0.0
 11
163.49999981001019
 21
-101.373270445643
 31
0.0
  0
LINE
  5
F76A
  8
0
 10
158.5
 20
-96.373270445642987
 30
0.0
 11
157.5
 21
-95.373270445642973
 31
0.0
  0
LINE
  5
F76B
  8
0
 10
151.7999999999999
 20
-95.873270445642987
 30
0.0
 11
151.2999999999999
 21
-95.373270445642973
 31
0.0
  0
LINE
  5
F76C
  8
0
 10
150.24999999999989
 20
-97.873270445643001
 30
0.0
 11
156.74999999999989
 21
-97.873270445643001
 31
0.0
  0
LINE
  5
F76D
  8
0
 10
158.5
 20
-100.873270445643
 30
0.0
 11
158.0
 21
-101.373270445643
 31
0.0
  0
LINE
  5
F76E
  8
0
 10
150.24999999999989
 20
-100.873270445643
 30
0.0
 11
149.74999999999989
 21
-101.373270445643
 31
0.0
  0
LINE
  5
F772
  8
0
 10
151.7999999999999
 20
-95.873270445642987
 30
0.0
 11
151.7999999999999
 21
-97.873270445643001
 31
0.0
  0
LINE
  5
F773
  8
0
 10
150.24999999999989
 20
-97.873270445643001
 30
0.0
 11
150.24999999999989
 21
-100.873270445643
 31
0.0
  0
LINE
  5
F774
  8
0
 10
155.19999999999999
 20
-95.873270445642987
 30
0.0
 11
155.69999999999999
 21
-95.373270445642973
 31
0.0
  0
LINE
  5
F775
  8
0
 10
156.74999999999989
 20
-100.873270445643
 30
0.0
 11
157.24999999999989
 21
-101.373270445643
 31
0.0
  0
LINE
  5
F776
  8
0
 10
155.19999999999999
 20
-95.873270445642987
 30
0.0
 11
155.19999999999999
 21
-97.873270445643001
 31
0.0
  0
LINE
  5
F777
  8
0
 10
156.74999999999989
 20
-97.873270445643001
 30
0.0
 11
156.74999999999989
 21
-100.873270445643
 31
0.0
  0
LINE
  5
F778
  8
0
 10
151.7999999999999
 20
-95.873270445642987
 30
0.0
 11
152.00000025331971
 21
-95.873270445642973
 31
0.0
  0
LINE
  5
F779
  8
0
 10
150.24999999999989
 20
-100.873270445643
 30
0.0
 11
156.74999999999989
 21
-100.873270445643
 31
0.0
  0
LINE
  5
F77A
  8
0
 10
176.49999999999989
 20
-96.373270445643016
 30
0.0
 11
177.49999999999989
 21
-95.373270445643016
 31
0.0
  0
LINE
  5
F77B
  8
0
 10
176.4999999999998
 20
-100.873270445643
 30
0.0
 11
176.9999999999998
 21
-101.373270445643
 31
0.0
  0
LINE
  5
F77E
  8
0
 10
176.4999999999998
 20
-100.873270445643
 30
0.0
 11
158.5
 21
-100.8732704456431
 31
0.0
  0
LINE
  5
F7C2
  8
0
 10
156.24999955296511
 20
-100.87327041584059
 30
0.0
 11
156.24999955296511
 21
-97.873270855424934
 31
0.0
  0
LINE
  5
F7C3
  8
0
 10
150.7499995827674
 20
-97.873270855424934
 30
0.0
 11
150.7499995827674
 21
-100.87327041584059
 31
0.0
  0
LINE
  5
F7C4
  8
0
 10
154.9999998137354
 20
-97.873270855424934
 30
0.0
 11
154.9999998137354
 21
-95.373270445642973
 31
0.0
  0
LINE
  5
F7C5
  8
0
 10
152.00000025331971
 20
-95.373270445642973
 30
0.0
 11
152.00000025331971
 21
-97.873270855424934
 31
0.0
  0
LINE
  5
F7CA
  8
0
 10
160.80000020563591
 20
-104.9762619978469
 30
0.0
 11
160.49999978393311
 21
-105.27626218671909
 31
0.0
  0
LINE
  5
F7CB
  8
0
 10
160.49999978393311
 20
-108.6762621153798
 30
0.0
 11
160.80000020563591
 21
-108.9762620714213
 31
0.0
  0
LINE
  5
F7CC
  8
0
 10
160.80000020563591
 20
-108.9762620714213
 30
0.0
 11
163.49999981001011
 21
-108.9762620714213
 31
0.0
  0
LINE
  5
F7CD
  8
0
 10
171.50000018998969
 20
-108.9762620714213
 30
0.0
 11
174.19999979436389
 21
-108.9762620714213
 31
0.0
  0
LINE
  5
F7CE
  8
0
 10
174.19999979436389
 20
-104.9762619978469
 30
0.0
 11
171.50000018998969
 21
-104.9762619978469
 31
0.0
  0
LINE
  5
F7CF
  8
0
 10
163.49999981001011
 20
-104.9762619978469
 30
0.0
 11
160.80000020563591
 21
-104.9762619978469
 31
0.0
  0
LINE
  5
F7D0
  8
0
 10
174.19999979436389
 20
-108.9762620714213
 30
0.0
 11
174.50000021606681
 21
-108.6762621153798
 31
0.0
  0
LINE
  5
F7D1
  8
0
 10
174.50000021606681
 20
-105.27626218671909
 30
0.0
 11
174.19999979436389
 21
-104.9762619978469
 31
0.0
  0
LINE
  5
F7D6
  8
0
 10
171.50000018998969
 20
-104.9762619978469
 30
0.0
 11
171.50000018998981
 21
-100.873270445643
 31
0.0
  0
LINE
  5
F7D7
  8
0
 10
171.50000018998969
 20
-109.4762620369624
 30
0.0
 11
171.50000018998969
 21
-108.9762620714213
 31
0.0
  0
LINE
  5
F7D8
  8
0
 10
163.49999981001011
 20
-108.9762620714213
 30
0.0
 11
163.49999981001011
 21
-109.4762620369624
 31
0.0
  0
LINE
  5
F7D9
  8
0
 10
163.49999981001011
 20
-100.8732704456431
 30
0.0
 11
163.49999981001011
 21
-104.9762619978469
 31
0.0
  0
LINE
  5
F7DA
  8
0
 10
163.49999981001011
 20
-109.4762620369624
 30
0.0
 11
164.94337564334259
 21
-111.9762622139137
 31
0.0
  0
LINE
  5
F7DB
  8
0
 10
170.05662435665721
 20
-111.9762622139137
 30
0.0
 11
171.50000018998969
 21
-109.4762620369624
 31
0.0
  0
LINE
  5
F7ED
  8
0
 10
150.49999907612789
 20
-94.873270363686586
 30
0.0
 11
151.00000008940691
 21
-95.373270445642973
 31
0.0
  0
LINE
  5
F7EE
  8
0
 10
183.99999991059289
 20
-95.373270445642973
 30
0.0
 11
184.50000092387191
 21
-94.873270363686586
 31
0.0
  0
ARC
  5
F7EF
  8
0
 10
151.49999999999989
 20
-88.712262286590814
 30
0.0
 40
1.0
 50
110.0
 51
180.0
  0
ARC
  5
F7F0
  8
0
 10
183.49999999999989
 20
-88.712262286590814
 30
0.0
 40
1.0
 50
0.0
 51
69.999999999999972
  0
LINE
  5
F7F1
  8
0
 10
184.50000092387191
 20
-94.873270363686586
 30
0.0
 11
184.50000092387191
 21
-88.712261402187849
 31
0.0
  0
LINE
  5
F7F2
  8
0
 10
150.49999907612789
 20
-88.712261402187849
 30
0.0
 11
150.49999907612789
 21
-94.873270363686586
 31
0.0
  0
LINE
  5
F7F3
  8
0
 10
183.8420196622609
 20
-87.772569962916876
 30
0.0
 11
177.25000020116559
 21
-85.373270669160405
 31
0.0
  0
LINE
  5
F7F4
  8
0
 10
157.74999979883421
 20
-85.373270669160405
 30
0.0
 11
151.15798033773891
 21
-87.772569962916876
 31
0.0
  0
ARC
  5
F7F5
  8
0
 10
176.89999999999989
 20
-95.773270549951135
 30
0.0
 40
0.4000000000000057
 50
90.0
 51
180.0
  0
ARC
  5
F7F6
  8
0
 10
158.09999999999991
 20
-95.773270549951135
 30
0.0
 40
0.4000000000000057
 50
0.0
 51
90.0
  0
LINE
  5
F7F7
  8
0
 10
176.49999961256981
 20
-100.873270445643
 30
0.0
 11
176.4999996125697
 21
-95.773270697472597
 31
0.0
  0
LINE
  5
F7F8
  8
0
 10
158.50000038743011
 20
-95.773270697472597
 30
0.0
 11
158.50000038743011
 21
-100.8732704456431
 31
0.0
  0
LINE
  5
F7F9
  8
0
 10
158.50000038743011
 20
-99.873270717589193
 30
0.0
 11
159.4999996200203
 21
-100.87327041584059
 31
0.0
  0
LINE
  5
F7FD
  8
0
 10
160.80000020563591
 20
-104.9762619978469
 30
0.0
 11
160.80000020563591
 21
-108.9762620714213
 31
0.0
  0
LINE
  5
F7FF
  8
0
 10
160.49999978393311
 20
-108.6762621153798
 30
0.0
 11
160.49999978393311
 21
-105.27626218671899
 31
0.0
  0
LINE
  5
F801
  8
0
 10
174.19999979436389
 20
-108.9762620714213
 30
0.0
 11
174.19999979436389
 21
-104.97626199784681
 31
0.0
  0
LINE
  5
F802
  8
0
 10
174.50000021606681
 20
-105.27626218671909
 30
0.0
 11
174.50000021606681
 21
-108.6762621153798
 31
0.0
  0
POLYLINE
  5
F804
  8
0
 66
     1
 10
0.0
 20
0.0
 30
0.0
 70
   128
  0
VERTEX
  5
14104
  8
0
 10
171.49672705680121
 20
-104.9828192072641
 30
0.0
  0
VERTEX
  5
14105
  8
0
 10
171.49825675413001
 20
-104.9797511978727
 30
0.0
  0
VERTEX
  5
14106
  8
0
 10
171.43657758831969
 20
-105.1063312071096
 30
0.0
  0
VERTEX
  5
14107
  8
0
 10
171.30482967011619
 20
-105.4024994692486
 30
0.0
  0
VERTEX
  5
14108
  8
0
 10
171.13226188346741
 20
-105.8838670461159
 30
0.0
  0
VERTEX
  5
14109
  8
0
 10
171.05262076482171
 20
-106.1881543456297
 30
0.0
  0
VERTEX
  5
1410A
  8
0
 10
170.99252019077531
 20
-106.53163018568419
 30
0.0
  0
VERTEX
  5
1410B
  8
0
 10
170.96630625426761
 20
-106.85265533092431
 30
0.0
  0
VERTEX
  5
1410C
  8
0
 10
170.97068021073929
 20
-107.1898516848637
 30
0.0
  0
VERTEX
  5
1410D
  8
0
 10
171.05034437961871
 20
-107.7540440629422
 30
0.0
  0
VERTEX
  5
1410E
  8
0
 10
171.1958588752895
 20
-108.26442865354009
 30
0.0
  0
VERTEX
  5
1410F
  8
0
 10
171.28422997891889
 20
-108.4995465672295
 30
0.0
  0
VERTEX
  5
14110
  8
0
 10
171.36850791983301
 20
-108.6982821899187
 30
0.0
  0
VERTEX
  5
14111
  8
0
 10
171.43703719601029
 20
-108.84716062272901
 30
0.0
  0
VERTEX
  5
14112
  8
0
 10
171.48377049714321
 20
-108.94360210212881
 30
0.0
  0
VERTEX
  5
14113
  8
0
 10
171.4997659623622
 20
-108.9757943146582
 30
0.0
  0
VERTEX
  5
14114
  8
0
 10
171.49845698848361
 20
-108.9731655402761
 30
0.0
  0
SEQEND
  5
14115
  8
0
  0
POLYLINE
  5
F805
  8
0
 66
     1
 10
0.0
 20
0.0
 30
0.0
 70
   128
  0
VERTEX
  5
14116
  8
0
 10
163.5032729431986
 20
-108.96970509483479
 30
0.0
  0
VERTEX
  5
14117
  8
0
 10
163.50174324586979
 20
-108.9727729878109
 30
0.0
  0
VERTEX
  5
14118
  8
0
 10
163.56342241168011
 20
-108.8461929785739
 30
0.0
  0
VERTEX
  5
14119
  8
0
 10
163.69517032988361
 20
-108.5500248328503
 30
0.0
  0
VERTEX
  5
1411A
  8
0
 10
163.86773811653251
 20
-108.06865719777529
 30
0.0
  0
VERTEX
  5
1411B
  8
0
 10
163.94737923517809
 20
-107.7643698691576
 30
0.0
  0
VERTEX
  5
1411C
  8
0
 10
164.00747980922449
 20
-107.42089401455129
 30
0.0
  0
VERTEX
  5
1411D
  8
0
 10
164.03369374573219
 20
-107.0998689129669
 30
0.0
  0
VERTEX
  5
1411E
  8
0
 10
164.02931978926051
 20
-106.7626725153718
 30
0.0
  0
VERTEX
  5
1411F
  8
0
 10
163.94965562038121
 20
-106.1984801518451
 30
0.0
  0
VERTEX
  5
14120
  8
0
 10
163.80414112471041
 20
-105.6880955903511
 30
0.0
  0
VERTEX
  5
14121
  8
0
 10
163.71577002108091
 20
-105.452977618454
 30
0.0
  0
VERTEX
  5
14122
  8
0
 10
163.63149208016691
 20
-105.2542419957649
 30
0.0
  0
VERTEX
  5
14123
  8
0
 10
163.56296280398959
 20
-105.10536356295459
 30
0.0
  0
VERTEX
  5
14124
  8
0
 10
163.51622950285659
 20
-105.00892208355479
 30
0.0
  0
VERTEX
  5
14125
  8
0
 10
163.5002340376376
 20
-104.97672975461001
 30
0.0
  0
VERTEX
  5
14126
  8
0
 10
163.50154301151619
 20
-104.9793586454075
 30
0.0
  0
SEQEND
  5
14127
  8
0
  0
LINE
  5
F806
  8
0
 10
163.49999981001011
 20
-109.4762620369624
 30
0.0
 11
171.50000018998969
 21
-109.4762620369624
 31
0.0
  0
LINE
  5
F807
  8
0
 10
170.05662435665721
 20
-111.9762622139137
 30
0.0
 11
164.94337564334259
 21
-111.9762622139137
 31
0.0
  0
LINE
  5
F80C
  8
0
 10
177.25000020116559
 20
-85.373270669160405
 30
0.0
 11
157.74999979883421
 21
-85.373270669160405
 31
0.0
  0
LINE
  5
F817
  8
0
 10
158.50000038743011
 20
-99.873270717589193
 30
0.0
 11
176.4999996125697
 21
-99.873270717589193
 31
0.0
  0
LINE
  5
F81B
  8
0
 10
151.15798033773891
 20
-87.772569962916876
 30
0.0
 11
183.84201966226081
 21
-87.772569962916876
 31
0.0
  0
LINE
  5
F81C
  8
1
 10
167.49999999999989
 20
-75.003270445642983
 30
0.0
 11
167.49999999999989
 21
-116.9762622139137
 31
0.0
  0
LINE
  5
F81D
  8
1
 10
176.5000002160667
 20
-106.9762621118408
 30
0.0
 11
158.49999978393311
 21
-106.9762621118408
 31
0.0
  0
LINE
  5
F81E
  8
1
 10
153.49999956786621
 20
-103.373270445643
 30
0.0
 11
153.49999956786621
 21
-93.373270445642987
 31
0.0
  0
LINE
  5
F820
  8
0
 10
176.4999996125697
 20
-99.873270717589193
 30
0.0
 11
175.5000003799795
 21
-100.87327041584059
 31
0.0
  0
LINE
  5
F864
  8
0
 10
311.24999955296522
 20
-108.87327041584069
 30
0.0
 11
311.24999955296522
 21
-105.87327085542501
 31
0.0
  0
LINE
  5
F865
  8
0
 10
305.74999958276749
 20
-105.87327085542501
 30
0.0
 11
305.74999958276749
 21
-108.87327041584069
 31
0.0
  0
LINE
  5
F866
  8
0
 10
309.99999981373549
 20
-105.87327085542501
 30
0.0
 11
309.99999981373549
 21
-103.3732704456431
 31
0.0
  0
LINE
  5
F867
  8
0
 10
307.00000025331968
 20
-103.3732704456431
 30
0.0
 11
307.00000025331968
 21
-105.87327085542501
 31
0.0
  0
LINE
  5
F868
  8
0
 10
315.80000020563602
 20
-112.976261997847
 30
0.0
 11
315.49999978393322
 21
-113.27626218671919
 31
0.0
  0
LINE
  5
F869
  8
0
 10
315.49999978393322
 20
-116.6762621153799
 30
0.0
 11
315.80000020563602
 21
-116.9762620714214
 31
0.0
  0
LINE
  5
F86A
  8
0
 10
315.80000020563602
 20
-116.9762620714214
 30
0.0
 11
318.49999981001019
 21
-116.9762620714214
 31
0.0
  0
LINE
  5
F86B
  8
0
 10
326.50000018998981
 20
-116.9762620714214
 30
0.0
 11
329.19999979436398
 21
-116.9762620714214
 31
0.0
  0
LINE
  5
F86C
  8
0
 10
329.19999979436398
 20
-112.976261997847
 30
0.0
 11
326.50000018998981
 21
-112.976261997847
 31
0.0
  0
LINE
  5
F86D
  8
0
 10
318.49999981001019
 20
-112.976261997847
 30
0.0
 11
315.80000020563602
 21
-112.976261997847
 31
0.0
  0
LINE
  5
F86E
  8
0
 10
329.19999979436398
 20
-116.9762620714214
 30
0.0
 11
329.50000021606678
 21
-116.6762621153799
 31
0.0
  0
LINE
  5
F86F
  8
0
 10
329.50000021606678
 20
-113.27626218671919
 30
0.0
 11
329.19999979436398
 21
-112.976261997847
 31
0.0
  0
LINE
  5
F874
  8
0
 10
326.50000018998981
 20
-112.976261997847
 30
0.0
 11
326.50000018998981
 21
-108.8732704456431
 31
0.0
  0
LINE
  5
F875
  8
0
 10
326.50000018998981
 20
-117.4762620369625
 30
0.0
 11
326.50000018998981
 21
-116.9762620714214
 31
0.0
  0
LINE
  5
F876
  8
0
 10
318.49999981001019
 20
-116.9762620714214
 30
0.0
 11
318.49999981001019
 21
-117.4762620369625
 31
0.0
  0
LINE
  5
F877
  8
0
 10
318.49999981001019
 20
-108.8732704456432
 30
0.0
 11
318.49999981001019
 21
-112.976261997847
 31
0.0
  0
LINE
  5
F878
  8
0
 10
318.49999981001019
 20
-117.4762620369625
 30
0.0
 11
319.94337564334268
 21
-119.9762622139138
 31
0.0
  0
LINE
  5
F879
  8
0
 10
325.05662435665732
 20
-119.9762622139138
 30
0.0
 11
326.50000018998981
 21
-117.4762620369625
 31
0.0
  0
LINE
  5
F88B
  8
0
 10
305.49999907612801
 20
-102.8732703636867
 30
0.0
 11
306.00000008940702
 21
-103.3732704456431
 31
0.0
  0
LINE
  5
F88C
  8
0
 10
338.99999991059298
 20
-103.3732704456431
 30
0.0
 11
339.50000092387199
 21
-102.8732703636867
 31
0.0
  0
ARC
  5
F88D
  8
0
 10
306.5
 20
-96.712262286590899
 30
0.0
 40
1.0
 50
110.0
 51
180.0
  0
ARC
  5
F88E
  8
0
 10
338.5
 20
-96.712262286590899
 30
0.0
 40
1.0
 50
0.0
 51
69.999999999999972
  0
LINE
  5
F88F
  8
0
 10
339.50000092387199
 20
-102.8732703636867
 30
0.0
 11
339.50000092387199
 21
-96.712261402187977
 31
0.0
  0
LINE
  5
F890
  8
0
 10
305.49999907612801
 20
-96.712261402187977
 30
0.0
 11
305.49999907612801
 21
-102.8732703636867
 31
0.0
  0
LINE
  5
F891
  8
0
 10
338.84201966226101
 20
-95.772569962917004
 30
0.0
 11
332.25000020116568
 21
-93.373270669160505
 31
0.0
  0
LINE
  5
F892
  8
0
 10
312.74999979883432
 20
-93.373270669160505
 30
0.0
 11
306.15798033773899
 21
-95.772569962917004
 31
0.0
  0
ARC
  5
F893
  8
0
 10
331.89999999999998
 20
-103.77327054995121
 30
0.0
 40
0.4000000000000057
 50
90.0
 51
180.0
  0
ARC
  5
F894
  8
0
 10
313.10000000000002
 20
-103.77327054995121
 30
0.0
 40
0.4000000000000057
 50
0.0
 51
90.0
  0
LINE
  5
F895
  8
0
 10
331.49999961256981
 20
-108.8732704456431
 30
0.0
 11
331.49999961256981
 21
-103.7732706974727
 31
0.0
  0
LINE
  5
F896
  8
0
 10
313.50000038743019
 20
-103.7732706974727
 30
0.0
 11
313.5000003874303
 21
-108.8732704456432
 31
0.0
  0
LINE
  5
F897
  8
0
 10
313.50000038743019
 20
-107.87327071758919
 30
0.0
 11
314.49999962002039
 21
-108.87327041584069
 31
0.0
  0
LINE
  5
F89A
  8
0
 10
315.80000020563602
 20
-112.976261997847
 30
0.0
 11
315.80000020563602
 21
-116.9762620714214
 31
0.0
  0
LINE
  5
F89C
  8
0
 10
315.49999978393322
 20
-116.6762621153799
 30
0.0
 11
315.49999978393311
 21
-113.27626218671919
 31
0.0
  0
LINE
  5
F89E
  8
0
 10
329.19999979436398
 20
-116.9762620714214
 30
0.0
 11
329.19999979436398
 21
-112.9762619978469
 31
0.0
  0
LINE
  5
F89F
  8
0
 10
329.50000021606678
 20
-113.27626218671919
 30
0.0
 11
329.50000021606678
 21
-116.6762621153799
 31
0.0
  0
POLYLINE
  5
F8A1
  8
0
 66
     1
 10
0.0
 20
0.0
 30
0.0
 70
   128
  0
VERTEX
  5
14128
  8
0
 10
326.49672705680132
 20
-112.9828192072642
 30
0.0
  0
VERTEX
  5
14129
  8
0
 10
326.49825675413013
 20
-112.9797511978728
 30
0.0
  0
VERTEX
  5
1412A
  8
0
 10
326.43657758831978
 20
-113.1063312071097
 30
0.0
  0
VERTEX
  5
1412B
  8
0
 10
326.30482967011631
 20
-113.4024994692486
 30
0.0
  0
VERTEX
  5
1412C
  8
0
 10
326.13226188346738
 20
-113.88386704611599
 30
0.0
  0
VERTEX
  5
1412D
  8
0
 10
326.05262076482182
 20
-114.1881543456298
 30
0.0
  0
VERTEX
  5
1412E
  8
0
 10
325.99252019077539
 20
-114.53163018568431
 30
0.0
  0
VERTEX
  5
1412F
  8
0
 10
325.96630625426769
 20
-114.85265533092441
 30
0.0
  0
VERTEX
  5
14130
  8
0
 10
325.97068021073937
 20
-115.1898516848637
 30
0.0
  0
VERTEX
  5
14131
  8
0
 10
326.05034437961882
 20
-115.7540440629423
 30
0.0
  0
VERTEX
  5
14132
  8
0
 10
326.19585887528962
 20
-116.26442865354019
 30
0.0
  0
VERTEX
  5
14133
  8
0
 10
326.28422997891897
 20
-116.4995465672296
 30
0.0
  0
VERTEX
  5
14134
  8
0
 10
326.36850791983312
 20
-116.6982821899188
 30
0.0
  0
VERTEX
  5
14135
  8
0
 10
326.43703719601041
 20
-116.84716062272911
 30
0.0
  0
VERTEX
  5
14136
  8
0
 10
326.48377049714333
 20
-116.94360210212891
 30
0.0
  0
VERTEX
  5
14137
  8
0
 10
326.49976596236229
 20
-116.9757943146583
 30
0.0
  0
VERTEX
  5
14138
  8
0
 10
326.49845698848372
 20
-116.9731655402762
 30
0.0
  0
SEQEND
  5
14139
  8
0
  0
POLYLINE
  5
F8A2
  8
0
 66
     1
 10
0.0
 20
0.0
 30
0.0
 70
   128
  0
VERTEX
  5
1413A
  8
0
 10
318.50327294319868
 20
-116.96970509483489
 30
0.0
  0
VERTEX
  5
1413B
  8
0
 10
318.50174324586987
 20
-116.972772987811
 30
0.0
  0
VERTEX
  5
1413C
  8
0
 10
318.56342241168022
 20
-116.846192978574
 30
0.0
  0
VERTEX
  5
1413D
  8
0
 10
318.69517032988369
 20
-116.5500248328504
 30
0.0
  0
VERTEX
  5
1413E
  8
0
 10
318.86773811653262
 20
-116.06865719777539
 30
0.0
  0
VERTEX
  5
1413F
  8
0
 10
318.94737923517818
 20
-115.7643698691577
 30
0.0
  0
VERTEX
  5
14140
  8
0
 10
319.00747980922461
 20
-115.42089401455139
 30
0.0
  0
VERTEX
  5
14141
  8
0
 10
319.03369374573231
 20
-115.099868912967
 30
0.0
  0
VERTEX
  5
14142
  8
0
 10
319.02931978926063
 20
-114.7626725153719
 30
0.0
  0
VERTEX
  5
14143
  8
0
 10
318.94965562038118
 20
-114.1984801518452
 30
0.0
  0
VERTEX
  5
14144
  8
0
 10
318.80414112471038
 20
-113.6880955903512
 30
0.0
  0
VERTEX
  5
14145
  8
0
 10
318.71577002108103
 20
-113.4529776184541
 30
0.0
  0
VERTEX
  5
14146
  8
0
 10
318.63149208016688
 20
-113.254241995765
 30
0.0
  0
VERTEX
  5
14147
  8
0
 10
318.56296280398971
 20
-113.10536356295469
 30
0.0
  0
VERTEX
  5
14148
  8
0
 10
318.51622950285667
 20
-113.00892208355491
 30
0.0
  0
VERTEX
  5
14149
  8
0
 10
318.50023403763771
 20
-112.9767297546101
 30
0.0
  0
VERTEX
  5
1414A
  8
0
 10
318.50154301151628
 20
-112.9793586454076
 30
0.0
  0
SEQEND
  5
1414B
  8
0
  0
LINE
  5
F8A3
  8
0
 10
318.49999981001019
 20
-117.4762620369625
 30
0.0
 11
326.50000018998981
 21
-117.4762620369625
 31
0.0
  0
LINE
  5
F8A4
  8
0
 10
325.05662435665732
 20
-119.9762622139138
 30
0.0
 11
319.94337564334268
 21
-119.9762622139138
 31
0.0
  0
LINE
  5
F8A9
  8
0
 10
332.25000020116568
 20
-93.373270669160505
 30
0.0
 11
312.74999979883432
 21
-93.373270669160505
 31
0.0
  0
LINE
  5
F8B4
  8
0
 10
313.50000038743019
 20
-107.87327071758919
 30
0.0
 11
331.49999961256981
 21
-107.87327071758919
 31
0.0
  0
LINE
  5
F8B8
  8
0
 10
306.15798033773899
 20
-95.772569962917004
 30
0.0
 11
338.8420196622609
 21
-95.772569962917004
 31
0.0
  0
LINE
  5
F8B9
  8
1
 10
322.5
 20
-83.003270445643068
 30
0.0
 11
322.5
 21
-124.9762622139138
 31
0.0
  0
LINE
  5
F8BA
  8
1
 10
331.50000021606678
 20
-114.9762621118409
 30
0.0
 11
313.49999978393322
 21
-114.9762621118409
 31
0.0
  0
LINE
  5
F8BB
  8
1
 10
308.49999956786633
 20
-111.373270445643
 30
0.0
 11
308.49999956786633
 21
-101.3732704456431
 31
0.0
  0
LINE
  5
F8BC
  8
0
 10
331.49999961256981
 20
-107.87327071758919
 30
0.0
 11
330.50000037997961
 21
-108.87327041584069
 31
0.0
  0
LINE
  5
F8BD
  8
0
 10
171.50000018998969
 20
-101.373270445643
 30
0.0
 11
189.9999999999998
 21
-101.373270445643
 31
0.0
  0
LINE
  5
F8BE
  8
0
 10
154.9999998137354
 20
-95.873270445642973
 30
0.0
 11
155.19999999999999
 21
-95.873270445642987
 31
0.0
  0
LINE
  5
F903
  8
1
 10
392.5
 20
-29.59476485530055
 30
0.0
 11
392.5
 21
-74.594764855300554
 31
0.0
  0
LINE
  5
F905
  8
1
 10
370.0
 20
-52.094764855300539
 30
0.0
 11
415.0
 21
-52.094764855300539
 31
0.0
  0
LINE
  5
F906
  8
1
 10
402.12499999999989
 20
-35.423775832450012
 30
0.0
 11
396.87500000000011
 21
-44.517042572186732
 31
0.0
  0
LINE
  5
F907
  8
1
 10
402.12499999999989
 20
-68.765753878151031
 30
0.0
 11
396.87499999999989
 21
-59.672487138414432
 31
0.0
  0
CIRCLE
  5
F908
  8
1
 10
392.5
 20
-52.094764855300532
 30
0.0
 40
14.0
  0
CIRCLE
  5
F909
  8
0
 10
392.5
 20
-52.094764855300539
 30
0.0
 40
9.0
  0
CIRCLE
  5
F90A
  8
2
 10
378.5
 20
-52.094764855300532
 30
0.0
 40
3.25
  0
CIRCLE
  5
F90B
  8
0
 10
378.5
 20
-52.094764855300532
 30
0.0
 40
1.7
  0
CIRCLE
  5
F90C
  8
2
 10
399.5
 20
-39.970409202318393
 30
0.0
 40
3.25
  0
CIRCLE
  5
F90D
  8
0
 10
399.5
 20
-39.970409202318393
 30
0.0
 40
1.7
  0
CIRCLE
  5
F90E
  8
2
 10
399.49999999999989
 20
-64.219120508282742
 30
0.0
 40
3.25
  0
CIRCLE
  5
F90F
  8
0
 10
399.49999999999989
 20
-64.219120508282742
 30
0.0
 40
1.7
  0
CIRCLE
  5
F910
  8
0
 10
392.5
 20
-52.094764855300539
 30
0.0
 40
17.5
  0
LINE
  5
F957
  8
0
 10
383.50000000000011
 20
-104.373270445643
 30
0.0
 11
382.50000000000011
 21
-103.373270445643
 31
0.0
  0
LINE
  5
F958
  8
0
 10
376.80000000000001
 20
-103.873270445643
 30
0.0
 11
376.2999999999999
 21
-103.373270445643
 31
0.0
  0
LINE
  5
F959
  8
0
 10
375.25
 20
-105.873270445643
 30
0.0
 11
381.75
 21
-105.873270445643
 31
0.0
  0
LINE
  5
F95A
  8
0
 10
383.50000000000011
 20
-108.873270445643
 30
0.0
 11
383.00000000000011
 21
-109.373270445643
 31
0.0
  0
LINE
  5
F95B
  8
0
 10
375.25
 20
-108.873270445643
 30
0.0
 11
374.75
 21
-109.373270445643
 31
0.0
  0
LINE
  5
F95C
  8
0
 10
383.50000000000011
 20
-104.373270445643
 30
0.0
 11
383.50000000000011
 21
-108.873270445643
 31
0.0
  0
LINE
  5
F95D
  8
1
 10
378.5
 20
-101.373270445643
 30
0.0
 11
378.5
 21
-111.373270445643
 31
0.0
  0
LINE
  5
F95E
  8
0
 10
376.80000000000001
 20
-103.873270445643
 30
0.0
 11
376.80000000000001
 21
-105.873270445643
 31
0.0
  0
LINE
  5
F95F
  8
0
 10
375.25
 20
-105.873270445643
 30
0.0
 11
375.25
 21
-108.873270445643
 31
0.0
  0
LINE
  5
F960
  8
0
 10
380.2000000000001
 20
-103.873270445643
 30
0.0
 11
380.69999999999999
 21
-103.373270445643
 31
0.0
  0
LINE
  5
F961
  8
0
 10
381.75
 20
-108.873270445643
 30
0.0
 11
382.25
 21
-109.373270445643
 31
0.0
  0
LINE
  5
F962
  8
0
 10
380.2000000000001
 20
-103.873270445643
 30
0.0
 11
380.2000000000001
 21
-105.873270445643
 31
0.0
  0
LINE
  5
F963
  8
0
 10
381.75
 20
-105.873270445643
 30
0.0
 11
381.75
 21
-108.873270445643
 31
0.0
  0
LINE
  5
F964
  8
0
 10
376.80000000000001
 20
-103.873270445643
 30
0.0
 11
380.2000000000001
 21
-103.873270445643
 31
0.0
  0
LINE
  5
F965
  8
0
 10
375.25
 20
-108.873270445643
 30
0.0
 11
381.75
 21
-108.873270445643
 31
0.0
  0
LINE
  5
F966
  8
0
 10
401.49999999999989
 20
-104.373270445643
 30
0.0
 11
402.5
 21
-103.373270445643
 31
0.0
  0
LINE
  5
F967
  8
0
 10
401.49999999999977
 20
-108.873270445643
 30
0.0
 11
401.99999999999977
 21
-109.373270445643
 31
0.0
  0
LINE
  5
F968
  8
0
 10
401.49999999999989
 20
-104.373270445643
 30
0.0
 11
401.49999999999977
 21
-108.873270445643
 31
0.0
  0
LINE
  5
F969
  8
0
 10
383.50000000000011
 20
-104.373270445643
 30
0.0
 11
401.49999999999989
 21
-104.3732704456432
 31
0.0
  0
LINE
  5
F96A
  8
0
 10
401.49999999999977
 20
-108.873270445643
 30
0.0
 11
383.50000000000011
 21
-108.8732704456431
 31
0.0
  0
LINE
  5
F9FB
  8
0
 10
305.0
 20
-103.3732704456431
 30
0.0
 11
340.0
 21
-103.3732704456431
 31
0.0
  0
LINE
  5
F9FC
  8
0
 10
300.0
 20
-95.373270445643072
 30
0.0
 11
307.25504655016402
 21
-95.373270445643072
 31
0.0
  0
LINE
  5
F9FD
  8
0
 10
305.0
 20
-95.873270445643072
 30
0.0
 11
304.5
 21
-95.373270445643072
 31
0.0
  0
LINE
  5
F9FE
  8
0
 10
300.0
 20
-109.373270445643
 30
0.0
 11
318.49999981001019
 21
-109.3732704456431
 31
0.0
  0
LINE
  5
FA00
  8
0
 10
305.0
 20
-95.873270445643072
 30
0.0
 11
305.0
 21
-103.3732704456431
 31
0.0
  0
LINE
  5
FA01
  8
0
 10
340.0
 20
-95.873270445643072
 30
0.0
 11
340.5
 21
-95.373270445643072
 31
0.0
  0
LINE
  5
FA02
  8
0
 10
340.0
 20
-95.873270445643072
 30
0.0
 11
340.0
 21
-103.3732704456431
 31
0.0
  0
LINE
  5
FA03
  8
0
 10
305.0
 20
-95.873270445643072
 30
0.0
 11
305.95585600175781
 21
-95.873270445643072
 31
0.0
  0
LINE
  5
FA04
  8
0
 10
313.50000000000011
 20
-104.3732704456431
 30
0.0
 11
312.50000000000011
 21
-103.3732704456431
 31
0.0
  0
LINE
  5
FA05
  8
0
 10
306.80000000000001
 20
-103.8732704456431
 30
0.0
 11
306.30000000000001
 21
-103.3732704456431
 31
0.0
  0
LINE
  5
FA06
  8
0
 10
305.25
 20
-105.8732704456431
 30
0.0
 11
311.75
 21
-105.8732704456431
 31
0.0
  0
LINE
  5
FA07
  8
0
 10
313.50000000000011
 20
-108.8732704456431
 30
0.0
 11
313.00000000000011
 21
-109.3732704456431
 31
0.0
  0
LINE
  5
FA08
  8
0
 10
305.25
 20
-108.8732704456431
 30
0.0
 11
304.75
 21
-109.3732704456431
 31
0.0
  0
LINE
  5
FA0B
  8
0
 10
306.80000000000001
 20
-103.8732704456431
 30
0.0
 11
306.80000000000001
 21
-105.8732704456431
 31
0.0
  0
LINE
  5
FA0C
  8
0
 10
305.25
 20
-105.8732704456431
 30
0.0
 11
305.25
 21
-108.8732704456431
 31
0.0
  0
LINE
  5
FA0D
  8
0
 10
310.19999999999999
 20
-103.8732704456431
 30
0.0
 11
310.7000000000001
 21
-103.3732704456431
 31
0.0
  0
LINE
  5
FA0E
  8
0
 10
311.75
 20
-108.8732704456431
 30
0.0
 11
312.25
 21
-109.3732704456431
 31
0.0
  0
LINE
  5
FA0F
  8
0
 10
310.19999999999999
 20
-103.8732704456431
 30
0.0
 11
310.19999999999999
 21
-105.8732704456431
 31
0.0
  0
LINE
  5
FA10
  8
0
 10
311.75
 20
-105.8732704456431
 30
0.0
 11
311.75
 21
-108.8732704456431
 31
0.0
  0
LINE
  5
FA11
  8
0
 10
306.80000000000001
 20
-103.8732704456431
 30
0.0
 11
307.00000025331968
 21
-103.8732704456431
 31
0.0
  0
LINE
  5
FA12
  8
0
 10
305.25
 20
-108.8732704456431
 30
0.0
 11
311.75
 21
-108.8732704456431
 31
0.0
  0
LINE
  5
FA13
  8
0
 10
331.5
 20
-104.3732704456431
 30
0.0
 11
332.5
 21
-103.3732704456431
 31
0.0
  0
LINE
  5
FA14
  8
0
 10
331.49999999999989
 20
-108.8732704456431
 30
0.0
 11
331.99999999999989
 21
-109.3732704456431
 31
0.0
  0
LINE
  5
FA17
  8
0
 10
331.49999999999989
 20
-108.8732704456431
 30
0.0
 11
313.50000000000011
 21
-108.8732704456432
 31
0.0
  0
LINE
  5
FA18
  8
0
 10
339.04414399824208
 20
-95.873270445643072
 30
0.0
 11
340.0
 21
-95.873270445643072
 31
0.0
  0
LINE
  5
FA19
  8
0
 10
337.74495344983598
 20
-95.373270445643072
 30
0.0
 11
345.0
 21
-95.373270445643072
 31
0.0
  0
LINE
  5
FA1A
  8
0
 10
326.50000018998981
 20
-109.3732704456431
 30
0.0
 11
345.0
 21
-109.373270445643
 31
0.0
  0
LINE
  5
FA1B
  8
0
 10
309.9999998137356
 20
-103.8732704456431
 30
0.0
 11
310.19999999999999
 21
-103.8732704456431
 31
0.0
  0
LINE
  5
FB34
  8
3
 10
109.10514411759431
 20
113.9999997206032
 30
0.0
 11
109.10514411759431
 21
114.9999996647238
 31
0.0
  0
LINE
  5
FB35
  8
3
 10
109.10514411759431
 20
113.9999997206032
 30
0.0
 11
109.3756441175935
 21
113.5314799771571
 31
0.0
  0
LINE
  5
FB36
  8
3
 10
106.6461441175928
 20
113.9999997206032
 30
0.0
 11
106.3756441175935
 21
113.5314799771571
 31
0.0
  0
LINE
  5
FB37
  8
3
 10
106.6461441175928
 20
113.9999997206032
 30
0.0
 11
106.6461441175928
 21
114.9999996647238
 31
0.0
  0
LINE
  5
FB38
  8
0
 10
106.3756441175935
 20
113.9999997206032
 30
0.0
 11
109.3756441175935
 21
113.9999997206032
 31
0.0
  0
LINE
  5
FB39
  8
3
 10
121.2295000000006
 20
113.9999997206032
 30
0.0
 11
121.2295000000006
 21
114.9999996647238
 31
0.0
  0
LINE
  5
FB3A
  8
3
 10
121.2295000000006
 20
113.9999997206032
 30
0.0
 11
121.4999999999998
 21
113.5314799771571
 31
0.0
  0
LINE
  5
FB3B
  8
3
 10
118.7704999999991
 20
113.9999997206032
 30
0.0
 11
118.4999999999998
 21
113.5314799771571
 31
0.0
  0
LINE
  5
FB3C
  8
3
 10
118.7704999999991
 20
113.9999997206032
 30
0.0
 11
118.7704999999991
 21
114.9999996647238
 31
0.0
  0
LINE
  5
FB3D
  8
0
 10
118.4999999999998
 20
113.9999997206032
 30
0.0
 11
121.4999999999998
 21
113.9999997206032
 31
0.0
  0
LINE
  5
FB3E
  8
3
 10
133.35385588240669
 20
113.9999997206032
 30
0.0
 11
133.35385588240669
 21
114.9999996647238
 31
0.0
  0
LINE
  5
FB3F
  8
3
 10
133.35385588240669
 20
113.9999997206032
 30
0.0
 11
133.62435588240601
 21
113.5314799771571
 31
0.0
  0
LINE
  5
FB40
  8
3
 10
130.89485588240521
 20
113.9999997206032
 30
0.0
 11
130.62435588240601
 21
113.5314799771571
 31
0.0
  0
LINE
  5
FB41
  8
3
 10
130.8948558824053
 20
113.9999997206032
 30
0.0
 11
130.89485588240521
 21
114.9999996647238
 31
0.0
  0
LINE
  5
FB42
  8
0
 10
130.62435588240601
 20
113.9999997206032
 30
0.0
 11
133.62435588240589
 21
113.9999997206032
 31
0.0
  0
LINE
  5
FB43
  8
3
 10
169.72949975413141
 20
113.9999997206032
 30
0.0
 11
169.72949975413141
 21
114.9999996647238
 31
0.0
  0
LINE
  5
FB44
  8
3
 10
169.72949975413141
 20
113.9999997206032
 30
0.0
 11
169.9999997541307
 21
113.5314799771571
 31
0.0
  0
LINE
  5
FB45
  8
3
 10
167.27049975412999
 20
113.9999997206032
 30
0.0
 11
166.9999997541307
 21
113.5314799771571
 31
0.0
  0
LINE
  5
FB46
  8
3
 10
167.27049975412999
 20
113.9999997206032
 30
0.0
 11
167.27049975412999
 21
114.9999996647238
 31
0.0
  0
LINE
  5
FB47
  8
0
 10
166.9999997541307
 20
113.9999997206032
 30
0.0
 11
169.9999997541307
 21
113.9999997206032
 31
0.0
  0
LINE
  5
FB48
  8
3
 10
190.72950040233189
 20
113.9999997206032
 30
0.0
 11
190.72950040233189
 21
114.9999996647238
 31
0.0
  0
LINE
  5
FB49
  8
3
 10
190.72950040233201
 20
113.9999997206032
 30
0.0
 11
191.00000040233121
 21
113.5314799771571
 31
0.0
  0
LINE
  5
FB4A
  8
3
 10
188.2705004023305
 20
113.9999997206032
 30
0.0
 11
188.00000040233121
 21
113.5314799771571
 31
0.0
  0
LINE
  5
FB4B
  8
3
 10
188.2705004023305
 20
113.9999997206032
 30
0.0
 11
188.2705004023305
 21
114.9999996647238
 31
0.0
  0
LINE
  5
FB4C
  8
0
 10
188.00000040233121
 20
113.9999997206032
 30
0.0
 11
191.00000040233121
 21
113.9999997206032
 31
0.0
  0
LINE
  5
FB4D
  8
3
 10
234.10514449012331
 20
113.9999997206032
 30
0.0
 11
234.10514449012331
 21
114.9999996647238
 31
0.0
  0
LINE
  5
FB4E
  8
3
 10
234.10514449012331
 20
113.9999997206032
 30
0.0
 11
234.3756444901226
 21
113.5314799771571
 31
0.0
  0
LINE
  5
FB4F
  8
3
 10
231.6461444901218
 20
113.9999997206032
 30
0.0
 11
231.3756444901226
 21
113.5314799771571
 31
0.0
  0
LINE
  5
FB50
  8
3
 10
231.64614449012191
 20
113.9999997206032
 30
0.0
 11
231.6461444901218
 21
114.9999996647238
 31
0.0
  0
LINE
  5
FB51
  8
0
 10
231.3756444901226
 20
113.9999997206032
 30
0.0
 11
234.3756444901226
 21
113.9999997206032
 31
0.0
  0
LINE
  5
FB52
  8
3
 10
258.35385625493581
 20
113.9999997206032
 30
0.0
 11
258.35385625493581
 21
114.9999996647238
 31
0.0
  0
LINE
  5
FB53
  8
3
 10
258.35385625493581
 20
113.9999997206032
 30
0.0
 11
258.62435625493509
 21
113.5314799771571
 31
0.0
  0
LINE
  5
FB54
  8
3
 10
255.8948562549343
 20
113.9999997206032
 30
0.0
 11
255.62435625493509
 21
113.5314799771571
 31
0.0
  0
LINE
  5
FB55
  8
3
 10
255.8948562549343
 20
113.9999997206032
 30
0.0
 11
255.8948562549343
 21
114.9999996647238
 31
0.0
  0
LINE
  5
FB56
  8
0
 10
255.62435625493509
 20
113.9999997206032
 30
0.0
 11
258.62435625493498
 21
113.9999997206032
 31
0.0
  0
LINE
  5
FB57
  8
3
 10
334.10514449012328
 20
113.9999997206032
 30
0.0
 11
334.10514449012328
 21
114.9999996647238
 31
0.0
  0
LINE
  5
FB58
  8
3
 10
334.10514449012328
 20
113.9999997206032
 30
0.0
 11
334.37564449012251
 21
113.5314799771571
 31
0.0
  0
LINE
  5
FB59
  8
3
 10
331.6461444901218
 20
113.9999997206032
 30
0.0
 11
331.37564449012251
 21
113.5314799771571
 31
0.0
  0
LINE
  5
FB5A
  8
3
 10
331.6461444901218
 20
113.9999997206032
 30
0.0
 11
331.6461444901218
 21
114.9999996647238
 31
0.0
  0
LINE
  5
FB5B
  8
0
 10
331.37564449012262
 20
113.9999997206032
 30
0.0
 11
334.37564449012251
 21
113.9999997206032
 31
0.0
  0
LINE
  5
FB5C
  8
3
 10
346.22950037252963
 20
113.9999997206032
 30
0.0
 11
346.22950037252963
 21
114.9999996647238
 31
0.0
  0
LINE
  5
FB5D
  8
3
 10
346.22950037252963
 20
113.9999997206032
 30
0.0
 11
346.5000003725288
 21
113.5314799771571
 31
0.0
  0
LINE
  5
FB5E
  8
3
 10
343.77050037252809
 20
113.9999997206032
 30
0.0
 11
343.5000003725288
 21
113.5314799771571
 31
0.0
  0
LINE
  5
FB5F
  8
3
 10
343.77050037252809
 20
113.9999997206032
 30
0.0
 11
343.77050037252809
 21
114.9999996647238
 31
0.0
  0
LINE
  5
FB60
  8
0
 10
343.50000037252892
 20
113.9999997206032
 30
0.0
 11
346.5000003725288
 21
113.9999997206032
 31
0.0
  0
LINE
  5
FB61
  8
3
 10
358.35385625493581
 20
113.9999997206032
 30
0.0
 11
358.35385625493581
 21
114.9999996647238
 31
0.0
  0
LINE
  5
FB62
  8
3
 10
358.35385625493581
 20
113.9999997206032
 30
0.0
 11
358.62435625493498
 21
113.5314799771571
 31
0.0
  0
LINE
  5
FB63
  8
3
 10
355.89485625493421
 20
113.9999997206032
 30
0.0
 11
355.62435625493498
 21
113.5314799771571
 31
0.0
  0
LINE
  5
FB64
  8
3
 10
355.89485625493433
 20
113.9999997206032
 30
0.0
 11
355.89485625493421
 21
114.9999996647238
 31
0.0
  0
LINE
  5
FB65
  8
0
 10
355.62435625493498
 20
113.9999997206032
 30
0.0
 11
358.62435625493492
 21
113.9999997206032
 31
0.0
  0
LINE
  5
FB66
  8
3
 10
394.72950012666041
 20
113.9999997206032
 30
0.0
 11
394.72950012666041
 21
114.9999996647238
 31
0.0
  0
LINE
  5
FB67
  8
3
 10
394.72950012666053
 20
113.9999997206032
 30
0.0
 11
395.0000001266597
 21
113.5314799771571
 31
0.0
  0
LINE
  5
FB68
  8
3
 10
392.27050012665899
 20
113.9999997206032
 30
0.0
 11
392.0000001266597
 21
113.5314799771571
 31
0.0
  0
LINE
  5
FB69
  8
3
 10
392.27050012665899
 20
113.9999997206032
 30
0.0
 11
392.27050012665899
 21
114.9999996647238
 31
0.0
  0
LINE
  5
FB6A
  8
0
 10
392.0000001266597
 20
113.9999997206032
 30
0.0
 11
395.00000012665959
 21
113.9999997206032
 31
0.0
  0
LINE
  5
FB6B
  8
3
 10
415.72950077486092
 20
113.9999997206032
 30
0.0
 11
415.72950077486092
 21
114.9999996647238
 31
0.0
  0
LINE
  5
FB6C
  8
3
 10
415.72950077486098
 20
113.9999997206032
 30
0.0
 11
416.0000007748601
 21
113.5314799771571
 31
0.0
  0
LINE
  5
FB6D
  8
3
 10
413.27050077485939
 20
113.9999997206032
 30
0.0
 11
413.00000077486021
 21
113.5314799771571
 31
0.0
  0
LINE
  5
FB6E
  8
3
 10
413.2705007748595
 20
113.9999997206032
 30
0.0
 11
413.27050077485939
 21
114.9999996647238
 31
0.0
  0
LINE
  5
FB6F
  8
0
 10
413.00000077486021
 20
113.9999997206032
 30
0.0
 11
416.0000007748601
 21
113.9999997206032
 31
0.0
  0
LINE
  5
FB70
  8
3
 10
459.1051448626522
 20
113.9999997206032
 30
0.0
 11
459.1051448626522
 21
114.9999996647238
 31
0.0
  0
LINE
  5
FB71
  8
3
 10
459.1051448626522
 20
113.9999997206032
 30
0.0
 11
459.3756448626516
 21
113.5314799771571
 31
0.0
  0
LINE
  5
FB72
  8
3
 10
456.64614486265077
 20
113.9999997206032
 30
0.0
 11
456.3756448626516
 21
113.5314799771571
 31
0.0
  0
LINE
  5
FB73
  8
3
 10
456.64614486265077
 20
113.9999997206032
 30
0.0
 11
456.64614486265077
 21
114.9999996647238
 31
0.0
  0
LINE
  5
FB74
  8
0
 10
456.3756448626516
 20
113.9999997206032
 30
0.0
 11
459.37564486265148
 21
113.9999997206032
 31
0.0
  0
LINE
  5
FB75
  8
3
 10
483.35385662746472
 20
113.9999997206032
 30
0.0
 11
483.35385662746472
 21
114.9999996647238
 31
0.0
  0
LINE
  5
FB76
  8
3
 10
483.35385662746472
 20
113.9999997206032
 30
0.0
 11
483.62435662746412
 21
113.5314799771571
 31
0.0
  0
LINE
  5
FB77
  8
3
 10
480.8948566274633
 20
113.9999997206032
 30
0.0
 11
480.62435662746401
 21
113.5314799771571
 31
0.0
  0
LINE
  5
FB78
  8
3
 10
480.8948566274633
 20
113.9999997206032
 30
0.0
 11
480.8948566274633
 21
114.9999996647238
 31
0.0
  0
LINE
  5
FB79
  8
0
 10
480.62435662746401
 20
113.9999997206032
 30
0.0
 11
483.62435662746401
 21
113.9999997206032
 31
0.0
  0
LINE
  5
FB7A
  8
3
 10
154.72950000000071
 20
-96.373269979981714
 30
0.0
 11
154.72950000000071
 21
-95.373270035861083
 31
0.0
  0
LINE
  5
FB7B
  8
3
 10
154.72950000000071
 20
-96.373269979981714
 30
0.0
 11
155.0
 21
-96.841789723427809
 31
0.0
  0
LINE
  5
FB7C
  8
3
 10
152.2704999999992
 20
-96.373269979981714
 30
0.0
 11
152.0
 21
-96.841789723427809
 31
0.0
  0
LINE
  5
FB7D
  8
3
 10
152.2704999999992
 20
-96.373269979981714
 30
0.0
 11
152.2704999999992
 21
-95.373270035861083
 31
0.0
  0
LINE
  5
FB7E
  8
0
 10
152.0
 20
-96.373269979981714
 30
0.0
 11
154.99999999999989
 21
-96.373269979981714
 31
0.0
  0
LINE
  5
FB7F
  8
3
 10
309.72950000000083
 20
-104.3732699799818
 30
0.0
 11
309.72950000000083
 21
-103.3732700358611
 31
0.0
  0
LINE
  5
FB80
  8
3
 10
309.72950000000083
 20
-104.3732699799818
 30
0.0
 11
310.0
 21
-104.84178972342789
 31
0.0
  0
LINE
  5
FB81
  8
3
 10
307.27049999999929
 20
-104.3732699799818
 30
0.0
 11
307.00000000000011
 21
-104.84178972342789
 31
0.0
  0
LINE
  5
FB82
  8
3
 10
307.27049999999929
 20
-104.3732699799818
 30
0.0
 11
307.27049999999929
 21
-103.3732700358611
 31
0.0
  0
LINE
  5
FB83
  8
0
 10
307.00000000000011
 20
-104.3732699799818
 30
0.0
 11
310.0
 21
-104.3732699799818
 31
0.0
  0
POLYLINE
  5
11282
  8
0
 66
     1
 10
0.0
 20
0.0
 30
0.0
 70
   128
  0
VERTEX
  5
1414C
  8
0
 10
179.41380020231
 20
170.70485893636939
 30
0.0
  0
VERTEX
  5
1414D
  8
0
 10
179.80514963157469
 20
173.57495948672289
 30
0.0
  0
VERTEX
  5
1414E
  8
0
 10
179.98817710205901
 20
176.48124564439061
 30
0.0
  0
SEQEND
  5
1414F
  8
0
  0
POLYLINE
  5
11283
  8
0
 66
     1
 10
0.0
 20
0.0
 30
0.0
 70
   128
  0
VERTEX
  5
14150
  8
0
 10
179.98817710205901
 20
191.90190974622959
 30
0.0
  0
VERTEX
  5
14151
  8
0
 10
179.8066634964197
 20
194.7929706424475
 30
0.0
  0
VERTEX
  5
14152
  8
0
 10
179.41380020231
 20
197.67829645425081
 30
0.0
  0
SEQEND
  5
14153
  8
0
  0
POLYLINE
  5
11284
  8
0
 66
     1
 10
0.0
 20
0.0
 30
0.0
 70
   128
  0
VERTEX
  5
14154
  8
0
 10
185.58620017021889
 20
197.67829645425081
 30
0.0
  0
VERTEX
  5
14155
  8
0
 10
185.19485074095419
 20
194.80819590389731
 30
0.0
  0
VERTEX
  5
14156
  8
0
 10
185.01182327046979
 20
191.90190974622959
 30
0.0
  0
SEQEND
  5
14157
  8
0
  0
POLYLINE
  5
11285
  8
0
 66
     1
 10
0.0
 20
0.0
 30
0.0
 70
   128
  0
VERTEX
  5
14158
  8
0
 10
185.01182327046979
 20
176.48124564439061
 30
0.0
  0
VERTEX
  5
14159
  8
0
 10
185.19333687610921
 20
173.5901847481727
 30
0.0
  0
VERTEX
  5
1415A
  8
0
 10
185.58620017021889
 20
170.70485893636939
 30
0.0
  0
SEQEND
  5
1415B
  8
0
  0
ARC
  5
11286
  8
0
 10
182.36989105202511
 20
170.19236884929441
 30
0.0
 40
3.0001865277211368
 50
170.16453541474351
 51
269.46241595093329
  0
ARC
  5
11287
  8
0
 10
182.63010932050381
 20
198.19078654132591
 30
0.0
 40
3.0001865277211648
 50
350.16453541474351
 51
89.462415950933263
  0
ARC
  5
11288
  8
0
 10
182.3698893171252
 20
198.1907879874814
 30
0.0
 40
3.0001850653520958
 50
90.537551177543008
 51
189.83549745677689
  0
ARC
  5
11289
  8
0
 10
182.63011105540369
 20
170.1923674031388
 30
0.0
 40
3.0001850653520958
 50
270.53755117754309
 51
9.8354974567793416
  0
ARC
  5
1128D
  8
0
 10
179.49483542562211
 20
176.77747132782571
 30
0.0
 40
0.4999991783136254
 50
358.89307522174067
 51
62.942438698721951
  0
ARC
  5
1128E
  8
0
 10
185.50516494690669
 20
191.6056840627945
 30
0.0
 40
0.4999991783136037
 50
178.89307522174059
 51
242.94243869872909
  0
ARC
  5
1128F
  8
0
 10
179.49483496468051
 20
191.60568433885649
 30
0.0
 40
0.4999996338363089
 50
297.05759395015951
 51
1.1068921293782319
  0
ARC
  5
11290
  8
0
 10
185.50516540784841
 20
176.77747105176371
 30
0.0
 40
0.4999996338363089
 50
117.0575939501539
 51
181.1068921293782
  0
LINE
  5
11291
  8
0
 10
179.68265742994839
 20
191.14230303093791
 30
0.0
 11
179.72227775491771
 21
191.16040980443361
 31
0.0
  0
LINE
  5
11293
  8
0
 10
179.72227775491771
 20
177.22274558618659
 30
0.0
 11
179.68265742994839
 21
177.24085235968229
 31
0.0
  0
LINE
  5
11294
  8
0
 10
185.2777226176112
 20
191.16040980443361
 30
0.0
 11
185.3173429425805
 21
191.14230303093791
 31
0.0
  0
ARC
  5
11295
  8
0
 10
182.5000001862644
 20
184.19157769531009
 30
0.0
 40
7.499999999999992
 50
112.0642270007187
 51
247.93577299928131
  0
ARC
  5
11296
  8
0
 10
182.5000001862644
 20
184.19157769531009
 30
0.0
 40
7.4999999999999956
 50
292.0642270007188
 51
67.935772999286655
  0
LINE
  5
11297
  8
0
 10
179.9947412963956
 20
191.6153431870043
 30
0.0
 11
179.98817710205901
 21
191.90190974622959
 31
0.0
  0
LINE
  5
11298
  8
0
 10
179.98817710205901
 20
176.48124564439061
 30
0.0
 11
179.9947412963956
 21
176.7678122036159
 31
0.0
  0
LINE
  5
11299
  8
0
 10
185.00525907613331
 20
176.7678122036159
 30
0.0
 11
185.01182327046979
 21
176.48124564439061
 31
0.0
  0
LINE
  5
1129A
  8
0
 10
185.01182327046979
 20
191.90190974622959
 30
0.0
 11
185.00525907613331
 21
191.6153431870043
 31
0.0
  0
POLYLINE
  5
113F2
  8
0
 66
     1
 10
0.0
 20
0.0
 30
0.0
 70
   128
  0
VERTEX
  5
1415C
  8
0
 10
394.01328179985268
 20
187.27777767926449
 30
0.0
  0
VERTEX
  5
1415D
  8
0
 10
396.8833823502062
 20
186.8864282499998
 30
0.0
  0
VERTEX
  5
1415E
  8
0
 10
399.7896685078739
 20
186.7034007795155
 30
0.0
  0
SEQEND
  5
1415F
  8
0
  0
POLYLINE
  5
113F3
  8
0
 66
     1
 10
0.0
 20
0.0
 30
0.0
 70
   128
  0
VERTEX
  5
14160
  8
0
 10
415.21033260971302
 20
186.7034007795155
 30
0.0
  0
VERTEX
  5
14161
  8
0
 10
418.10139350593079
 20
186.88491438515479
 30
0.0
  0
VERTEX
  5
14162
  8
0
 10
420.98671931773413
 20
187.27777767926449
 30
0.0
  0
SEQEND
  5
14163
  8
0
  0
POLYLINE
  5
113F4
  8
0
 66
     1
 10
0.0
 20
0.0
 30
0.0
 70
   128
  0
VERTEX
  5
14164
  8
0
 10
420.98671931773413
 20
181.10537771135569
 30
0.0
  0
VERTEX
  5
14165
  8
0
 10
418.1166187673806
 20
181.49672714062029
 30
0.0
  0
VERTEX
  5
14166
  8
0
 10
415.21033260971302
 20
181.6797546111047
 30
0.0
  0
SEQEND
  5
14167
  8
0
  0
POLYLINE
  5
113F5
  8
0
 66
     1
 10
0.0
 20
0.0
 30
0.0
 70
   128
  0
VERTEX
  5
14168
  8
0
 10
399.7896685078739
 20
181.6797546111047
 30
0.0
  0
VERTEX
  5
14169
  8
0
 10
396.89860761165602
 20
181.49824100546539
 30
0.0
  0
VERTEX
  5
1416A
  8
0
 10
394.01328179985268
 20
181.10537771135569
 30
0.0
  0
SEQEND
  5
1416B
  8
0
  0
ARC
  5
113F6
  8
0
 10
393.5007917127777
 20
184.32168682954941
 30
0.0
 40
3.0001865277211368
 50
80.164535414743924
 51
179.46241595093321
  0
ARC
  5
113F7
  8
0
 10
421.49920940480899
 20
184.0614685610708
 30
0.0
 40
3.0001865277211648
 50
260.16453541474311
 51
359.46241595093329
  0
ARC
  5
113F8
  8
0
 10
421.49921085096469
 20
184.32168856444929
 30
0.0
 40
3.0001850653520958
 50
0.5375511775430039
 51
99.835497456774846
  0
ARC
  5
113F9
  8
0
 10
393.50079026662212
 20
184.06146682617091
 30
0.0
 40
3.0001850653520958
 50
180.53755117754289
 51
279.83549745677982
  0
ARC
  5
113FD
  8
0
 10
400.08589419130902
 20
187.1967424559524
 30
0.0
 40
0.4999991783136254
 50
268.89307522174062
 51
332.94243869872219
  0
ARC
  5
113FE
  8
0
 10
414.91410692627773
 20
181.1864129346678
 30
0.0
 40
0.4999991783136037
 50
88.893075221740659
 51
152.9424386987294
  0
ARC
  5
113FF
  8
0
 10
414.91410720233978
 20
187.1967429168941
 30
0.0
 40
0.4999996338363089
 50
207.05759395016071
 51
271.10689212937831
  0
ARC
  5
11400
  8
0
 10
400.08589391524703
 20
181.18641247372611
 30
0.0
 40
0.4999996338363089
 50
27.057593950153521
 51
91.106892129378195
  0
LINE
  5
11401
  8
0
 10
414.45072589442123
 20
187.0089204516261
 30
0.0
 11
414.4688326679169
 21
186.96930012665689
 31
0.0
  0
LINE
  5
11402
  8
0
 10
400.54927522316552
 20
181.37423493899399
 30
0.0
 11
400.53116844966991
 21
181.41385526396331
 31
0.0
  0
LINE
  5
11403
  8
0
 10
400.53116844966991
 20
186.96930012665689
 30
0.0
 11
400.54927522316552
 21
187.0089204516261
 31
0.0
  0
LINE
  5
11404
  8
0
 10
414.4688326679169
 20
181.41385526396331
 30
0.0
 11
414.45072589442123
 21
181.37423493899399
 31
0.0
  0
ARC
  5
11405
  8
0
 10
407.50000055879332
 20
184.19157769531009
 30
0.0
 40
7.499999999999992
 50
22.06422700071964
 51
157.93577299928029
  0
ARC
  5
11406
  8
0
 10
407.50000055879332
 20
184.19157769531009
 30
0.0
 40
7.4999999999999956
 50
202.06422700071971
 51
337.93577299928751
  0
LINE
  5
11407
  8
0
 10
414.92376605048759
 20
186.69683658517889
 30
0.0
 11
415.21033260971302
 21
186.7034007795155
 31
0.0
  0
LINE
  5
11408
  8
0
 10
399.7896685078739
 20
186.7034007795155
 30
0.0
 11
400.07623506709911
 21
186.69683658517889
 31
0.0
  0
LINE
  5
11409
  8
0
 10
400.07623506709911
 20
181.6863188054412
 30
0.0
 11
399.7896685078739
 21
181.6797546111047
 31
0.0
  0
LINE
  5
1140A
  8
0
 10
415.21033260971302
 20
181.6797546111047
 30
0.0
 11
414.92376605048759
 21
181.6863188054412
 31
0.0
  0
LINE
  5
11440
  8
0
 10
185.27772261761109
 20
177.22274558618659
 30
0.0
 11
185.31734294258041
 21
177.24085235968229
 31
0.0
  0
LINE
  5
126F7
  8
0
 10
415.00000039115531
 20
124.9999994412064
 30
0.0
 11
415.00000039115531
 21
125.16787406057119
 31
0.0
  0
LINE
  5
126F8
  8
0
 10
400.00000072643132
 20
125.16787406057119
 30
0.0
 11
400.00000072643132
 21
124.9999994412064
 31
0.0
  0
LINE
  5
126F9
  8
0
 10
415.00000039115531
 20
125.16787406057119
 30
0.0
 11
414.50000077486021
 21
125.6678750738501
 31
0.0
  0
LINE
  5
126FA
  8
0
 10
400.50000034272642
 20
125.6678750738501
 30
0.0
 11
400.00000072643132
 21
125.16787406057119
 31
0.0
  0
ARC
  5
126FB
  8
0
 10
407.5000005587932
 20
73.567874560415575
 30
0.0
 40
56.500000000000021
 50
94.822326350222767
 51
97.185227316643733
  0
ARC
  5
126FC
  8
0
 10
407.5000005587932
 20
73.567874560415575
 30
0.0
 40
56.500000000000021
 50
82.814772683349702
 51
85.177673649777233
  0
ARC
  5
126FD
  8
0
 10
413.10000055879328
 20
125.0678745604156
 30
0.0
 40
1.000000000000014
 50
90.0
 51
143.13010235415189
  0
ARC
  5
126FE
  8
0
 10
401.90000055879318
 20
125.0678745604156
 30
0.0
 40
1.000000000000002
 50
36.869897645848077
 51
90.0
  0
ARC
  5
12700
  8
0
 10
415.19226253573743
 20
134.58491403037061
 30
0.0
 40
5.0000000000000009
 50
262.81477268335618
 51
268.15993020362282
  0
ARC
  5
12701
  8
0
 10
399.80773858184898
 20
134.58491403037061
 30
0.0
 40
5.0
 50
271.84006979637718
 51
277.1852273166437
  0
ARC
  5
12702
  8
0
 10
424.00000055879332
 20
129.54086672908821
 30
0.0
 40
0.5000000000000142
 50
0.0
 51
90.0
  0
LINE
  5
12703
  8
0
 10
424.00000046938641
 20
130.04086669534439
 30
0.0
 11
423.97300701587551
 21
130.04017565399371
 31
0.0
  0
ARC
  5
12704
  8
0
 10
424.00000055879332
 20
126.5678745604156
 30
0.0
 40
0.5
 50
270.0
 51
0.0
  0
LINE
  5
12705
  8
0
 10
424.50000148266531
 20
126.56787540763609
 30
0.0
 11
424.50000148266531
 21
129.54086754471061
 31
0.0
  0
ARC
  5
12706
  8
0
 10
391.0000005587932
 20
129.54086672908821
 30
0.0
 40
0.5000000000000142
 50
90.0
 51
180.0
  0
ARC
  5
12707
  8
0
 10
391.0000005587932
 20
129.54086672908821
 30
0.0
 40
0.5000000000000142
 50
86.987212495813637
 51
90.0
  0
LINE
  5
12708
  8
0
 10
391.00071590393748
 20
130.04086669534439
 30
0.0
 11
391.00000064820023
 21
130.04086669534439
 31
0.0
  0
ARC
  5
12709
  8
0
 10
391.0000005587932
 20
126.5678745604156
 30
0.0
 40
0.5
 50
180.0
 51
270.0
  0
LINE
  5
1270A
  8
0
 10
390.49999963492132
 20
129.54086754471061
 30
0.0
 11
390.49999963492132
 21
126.56787540763609
 31
0.0
  0
LINE
  5
1271C
  8
0
 10
400.50000034272642
 20
125.6678750738501
 30
0.0
 11
414.50000077486021
 21
125.6678750738501
 31
0.0
  0
LINE
  5
1271E
  8
0
 10
402.75026381015749
 20
129.86787538975469
 30
0.0
 11
412.24973730742909
 21
129.86787538975469
 31
0.0
  0
POLYLINE
  5
1271F
  8
0
 66
     1
 10
0.0
 20
0.0
 30
0.0
 70
   128
  0
VERTEX
  5
1416C
  8
0
 10
393.9536482840773
 20
129.89900391548869
 30
0.0
  0
VERTEX
  5
1416D
  8
0
 10
396.85951441526379
 20
129.74492404609919
 30
0.0
  0
VERTEX
  5
1416E
  8
0
 10
399.80185812339158
 20
129.5918257907033
 30
0.0
  0
SEQEND
  5
1416F
  8
0
  0
POLYLINE
  5
12720
  8
0
 66
     1
 10
0.0
 20
0.0
 30
0.0
 70
   128
  0
VERTEX
  5
14170
  8
0
 10
415.198142994195
 20
129.5918257907033
 30
0.0
  0
VERTEX
  5
14171
  8
0
 10
418.1252130120991
 20
129.74411938339469
 30
0.0
  0
VERTEX
  5
14172
  8
0
 10
421.04635283350922
 20
129.89900391548869
 30
0.0
  0
SEQEND
  5
14173
  8
0
  0
LINE
  5
12721
  8
0
 10
423.9992852136491
 20
126.0678743943572
 30
0.0
 11
391.00071590393748
 21
126.0678743943572
 31
0.0
  0
ARC
  5
12722
  8
0
 10
435.28908842734671
 20
-134.96239829254949
 30
0.0
 40
265.24407231228412
 50
92.445146256206769
 51
93.078075593077486
  0
ARC
  5
12726
  8
0
 10
378.57336593398787
 20
-158.54506439186119
 30
0.0
 40
288.85382744021871
 50
86.947791193296865
 51
87.528986957417416
  0
ARC
  5
1272C
  8
0
 10
397.20612631014961
 20
200.84045245995841
 30
0.0
 40
71.312950735931125
 50
272.29930828861518
 51
272.98378007891301
  0
LINE
  5
1272D
  8
0
 10
415.03171375508612
 20
129.58749228620781
 30
0.0
 11
415.198142994195
 21
129.5918257907033
 31
0.0
  0
LINE
  5
1272E
  8
0
 10
399.80185812339158
 20
129.5918257907033
 30
0.0
 11
400.06718261167379
 21
129.5849172398448
 31
0.0
  0
LINE
  5
1272F
  8
0
 10
424.00000046938641
 20
126.0678743943572
 30
0.0
 11
423.9992852136491
 21
126.0678743943572
 31
0.0
  0
LINE
  5
12730
  8
0
 10
391.00071590393748
 20
126.0678743943572
 30
0.0
 11
391.00000064820023
 21
126.0678743943572
 31
0.0
  0
LINE
  5
12748
  8
0
 10
414.45072589442111
 20
126.56787540763609
 30
0.0
 11
414.45072589442111
 21
129.1286529973149
 31
0.0
  0
LINE
  5
1274A
  8
0
 10
400.54927522316552
 20
129.1286529973149
 30
0.0
 11
400.54927522316552
 21
126.56787540763609
 31
0.0
  0
ARC
  5
1274B
  8
0
 10
413.96830981980952
 20
126.55023739840099
 30
0.0
 40
0.482738405778335
 50
272.25973748513519
 51
2.0939052353673309
  0
ARC
  5
1274C
  8
0
 10
401.031691297777
 20
126.55023739840099
 30
0.0
 40
0.4827384057783481
 50
177.9060947646326
 51
267.74026251486481
  0
LINE
  5
1274D
  8
0
 10
400.9547344222662
 20
129.62473127990961
 30
0.0
 11
414.04526669532038
 21
129.62473127990961
 31
0.0
  0
ARC
  5
1274E
  8
0
 10
413.96251472629888
 20
129.14335975496979
 30
0.0
 40
0.4884326293357716
 50
358.27455728783332
 51
80.245697760064076
  0
ARC
  5
1274F
  8
0
 10
401.03748639128759
 20
129.14335975496979
 30
0.0
 40
0.4884326293357645
 50
99.754302239935939
 51
181.72544271217001
  0
LINE
  5
12750
  8
0
 10
414.04526669532038
 20
129.62473127990961
 30
0.0
 11
414.08180387690641
 21
129.62417993694541
 31
0.0
  0
LINE
  5
12751
  8
0
 10
400.91819724068017
 20
129.62417993694541
 30
0.0
 11
400.9547344222662
 21
129.62473127990961
 31
0.0
  0
LINE
  5
12753
  8
0
 10
414.56687532365299
 20
129.62417993694541
 30
0.0
 11
414.08180387690641
 21
129.62417993694541
 31
0.0
  0
LINE
  5
1276F
  8
0
 10
391.02699410170288
 20
130.04017565399411
 30
0.0
 11
391.02628070861073
 21
130.04017565399411
 31
0.0
  0
LINE
  5
1278C
  8
0
 10
127.49999983236179
 20
124.9999994412064
 30
0.0
 11
127.49999983236179
 21
125.49700702995059
 31
0.0
  0
LINE
  5
1278D
  8
0
 10
112.50000016763779
 20
125.49700702995059
 30
0.0
 11
112.50000016763779
 21
124.9999994412064
 31
0.0
  0
LINE
  5
1278E
  8
0
 10
127.49999983236179
 20
125.49700702995059
 30
0.0
 11
127.0000002160667
 21
125.9970080432296
 31
0.0
  0
LINE
  5
1278F
  8
0
 10
112.99999978393291
 20
125.9970080432296
 30
0.0
 11
112.50000016763779
 21
125.49700702995059
 31
0.0
  0
ARC
  5
12790
  8
0
 10
119.9999999999998
 20
73.897007529795019
 30
0.0
 40
56.500000000000021
 50
94.822326350222738
 51
97.185227316643733
  0
ARC
  5
12791
  8
0
 10
119.9999999999998
 20
73.897007529795019
 30
0.0
 40
56.500000000000021
 50
82.814772683349702
 51
85.177673649777233
  0
ARC
  5
12792
  8
0
 10
125.5999999999998
 20
125.397007529795
 30
0.0
 40
1.000000000000014
 50
90.0
 51
143.1301023541528
  0
ARC
  5
12793
  8
0
 10
114.39999999999969
 20
125.397007529795
 30
0.0
 40
1.000000000000002
 50
36.869897645847168
 51
90.0
  0
ARC
  5
12794
  8
0
 10
127.692261976944
 20
134.9140469997501
 30
0.0
 40
5.0000000000000009
 50
262.81477268335618
 51
268.15993020362203
  0
ARC
  5
12795
  8
0
 10
112.30773802305551
 20
134.9140469997501
 30
0.0
 40
5.0
 50
271.84006979637797
 51
277.1852273166437
  0
ARC
  5
12796
  8
0
 10
136.49999999999989
 20
129.86999969846761
 30
0.0
 40
0.5000000000000142
 50
0.0
 51
90.0
  0
LINE
  5
12797
  8
0
 10
136.49999991059289
 20
130.36999966472391
 30
0.0
 11
136.47300645708199
 21
130.36930862337309
 31
0.0
  0
ARC
  5
12798
  8
0
 10
136.49999999999989
 20
126.897007529795
 30
0.0
 40
0.5
 50
270.0
 51
0.0
  0
LINE
  5
12799
  8
0
 10
137.00000092387191
 20
126.8970083770156
 30
0.0
 11
137.00000092387191
 21
129.87000051409009
 31
0.0
  0
ARC
  5
1279A
  8
0
 10
103.4999999999998
 20
129.86999969846761
 30
0.0
 40
0.5000000000000142
 50
90.0
 51
180.0
  0
ARC
  5
1279B
  8
0
 10
103.4999999999998
 20
129.86999969846761
 30
0.0
 40
0.5000000000000142
 50
86.987212495813637
 51
90.0
  0
LINE
  5
1279C
  8
0
 10
103.500715345144
 20
130.36999966472391
 30
0.0
 11
103.5000000894067
 21
130.36999966472391
 31
0.0
  0
ARC
  5
1279D
  8
0
 10
103.4999999999998
 20
126.897007529795
 30
0.0
 40
0.5
 50
180.0
 51
270.0
  0
LINE
  5
1279E
  8
0
 10
102.99999907612781
 20
129.87000051409009
 30
0.0
 11
102.99999907612781
 21
126.8970083770156
 31
0.0
  0
LINE
  5
1279F
  8
0
 10
112.99999978393291
 20
125.9970080432296
 30
0.0
 11
127.0000002160667
 21
125.9970080432296
 31
0.0
  0
LINE
  5
127A0
  8
0
 10
115.250263251364
 20
130.1970083591342
 30
0.0
 11
124.7497367486356
 21
130.1970083591342
 31
0.0
  0
POLYLINE
  5
127A1
  8
0
 66
     1
 10
0.0
 20
0.0
 30
0.0
 70
   128
  0
VERTEX
  5
14174
  8
0
 10
106.4536477252839
 20
130.22813688486809
 30
0.0
  0
VERTEX
  5
14175
  8
0
 10
109.3595138564704
 20
130.07405701547859
 30
0.0
  0
VERTEX
  5
14176
  8
0
 10
112.30185756459809
 20
129.9209587600827
 30
0.0
  0
SEQEND
  5
14177
  8
0
  0
POLYLINE
  5
127A2
  8
0
 66
     1
 10
0.0
 20
0.0
 30
0.0
 70
   128
  0
VERTEX
  5
14178
  8
0
 10
127.69814243540161
 20
129.9209587600827
 30
0.0
  0
VERTEX
  5
14179
  8
0
 10
130.62521245330561
 20
130.07325235277409
 30
0.0
  0
VERTEX
  5
1417A
  8
0
 10
133.54635227471579
 20
130.22813688486809
 30
0.0
  0
SEQEND
  5
1417B
  8
0
  0
LINE
  5
127A3
  8
0
 10
136.49928465485559
 20
126.39700736373661
 30
0.0
 11
103.500715345144
 21
126.39700736373661
 31
0.0
  0
ARC
  5
127A4
  8
0
 10
147.7890878685532
 20
-134.63326532317001
 30
0.0
 40
265.24407231228412
 50
92.445146256206755
 51
93.078075593077443
  0
ARC
  5
127A5
  8
0
 10
91.073365375194399
 20
-158.21593142248179
 30
0.0
 40
288.85382744021871
 50
86.947791193296865
 51
87.528986957417416
  0
ARC
  5
127A6
  8
0
 10
109.7061257513561
 20
201.16958542933779
 30
0.0
 40
71.312950735931125
 50
272.29930828861518
 51
272.98378007891301
  0
LINE
  5
127A7
  8
0
 10
127.5317131962927
 20
129.91662525558721
 30
0.0
 11
127.69814243540161
 21
129.9209587600827
 31
0.0
  0
LINE
  5
127A8
  8
0
 10
112.30185756459809
 20
129.9209587600827
 30
0.0
 11
112.5671820528803
 21
129.9140502092242
 31
0.0
  0
LINE
  5
127A9
  8
0
 10
136.49999991059289
 20
126.39700736373661
 30
0.0
 11
136.49928465485559
 21
126.39700736373661
 31
0.0
  0
LINE
  5
127AA
  8
0
 10
103.500715345144
 20
126.39700736373661
 30
0.0
 11
103.5000000894067
 21
126.39700736373661
 31
0.0
  0
LINE
  5
127AB
  8
0
 10
126.95072533562769
 20
126.8970083770156
 30
0.0
 11
126.95072533562769
 21
129.4577859666943
 31
0.0
  0
LINE
  5
127AC
  8
0
 10
113.04927466437201
 20
129.4577859666943
 30
0.0
 11
113.04927466437201
 21
126.8970083770156
 31
0.0
  0
ARC
  5
127AD
  8
0
 10
126.4683092610161
 20
126.8793703677805
 30
0.0
 40
0.482738405778335
 50
272.25973748513519
 51
2.093905235367286
  0
ARC
  5
127AE
  8
0
 10
113.5316907389836
 20
126.8793703677805
 30
0.0
 40
0.4827384057783481
 50
177.90609476463271
 51
267.74026251486481
  0
LINE
  5
127AF
  8
0
 10
113.4547338634727
 20
129.95386424928901
 30
0.0
 11
126.54526613652691
 21
129.95386424928901
 31
0.0
  0
ARC
  5
127B0
  8
0
 10
126.4625141675054
 20
129.47249272434919
 30
0.0
 40
0.4884326293357716
 50
358.27455728783337
 51
80.245697760064076
  0
ARC
  5
127B1
  8
0
 10
113.5374858324941
 20
129.47249272434919
 30
0.0
 40
0.4884326293357645
 50
99.754302239935939
 51
181.72544271216981
  0
LINE
  5
127B2
  8
0
 10
126.54526613652691
 20
129.95386424928901
 30
0.0
 11
126.581803318113
 21
129.9533129063249
 31
0.0
  0
LINE
  5
127B3
  8
0
 10
113.4181966818867
 20
129.9533129063249
 30
0.0
 11
113.4547338634727
 21
129.95386424928901
 31
0.0
  0
LINE
  5
127B4
  8
0
 10
127.06687476485961
 20
129.9533129063249
 30
0.0
 11
126.581803318113
 21
129.9533129063249
 31
0.0
  0
LINE
  5
127B5
  8
0
 10
103.52699354290939
 20
130.36930862337351
 30
0.0
 11
103.5262801498172
 21
130.36930862337351
 31
0.0
  0
LINE
  5
127B6
  8
0
 10
252.5000002048908
 20
124.9999994412064
 30
0.0
 11
252.5000002048908
 21
125.49700702995059
 31
0.0
  0
LINE
  5
127B7
  8
0
 10
237.50000054016681
 20
125.49700702995059
 30
0.0
 11
237.50000054016681
 21
124.9999994412064
 31
0.0
  0
LINE
  5
127B8
  8
0
 10
252.5000002048908
 20
125.49700702995059
 30
0.0
 11
252.0000005885957
 21
125.9970080432296
 31
0.0
  0
LINE
  5
127B9
  8
0
 10
238.00000015646191
 20
125.9970080432296
 30
0.0
 11
237.50000054016681
 21
125.49700702995059
 31
0.0
  0
ARC
  5
127BA
  8
0
 10
245.00000037252869
 20
73.897007529795019
 30
0.0
 40
56.500000000000021
 50
94.822326350222738
 51
97.185227316643733
  0
ARC
  5
127BB
  8
0
 10
245.00000037252869
 20
73.897007529795019
 30
0.0
 40
56.500000000000021
 50
82.814772683349702
 51
85.177673649777233
  0
ARC
  5
127BC
  8
0
 10
250.6000003725288
 20
125.397007529795
 30
0.0
 40
1.000000000000014
 50
90.0
 51
143.13010235415231
  0
ARC
  5
127BD
  8
0
 10
239.40000037252869
 20
125.397007529795
 30
0.0
 40
1.000000000000002
 50
36.869897645847651
 51
90.0
  0
ARC
  5
127BE
  8
0
 10
252.692262349473
 20
134.9140469997501
 30
0.0
 40
5.0000000000000009
 50
262.81477268335618
 51
268.15993020362112
  0
ARC
  5
127BF
  8
0
 10
237.30773839558449
 20
134.9140469997501
 30
0.0
 40
5.0
 50
271.84006979637718
 51
277.1852273166437
  0
ARC
  5
127C0
  8
0
 10
261.50000037252892
 20
129.86999969846761
 30
0.0
 40
0.5000000000000142
 50
0.0
 51
90.0
  0
LINE
  5
127C1
  8
0
 10
261.50000028312189
 20
130.36999966472391
 30
0.0
 11
261.47300682961099
 21
130.36930862337309
 31
0.0
  0
ARC
  5
127C2
  8
0
 10
261.50000037252892
 20
126.897007529795
 30
0.0
 40
0.5
 50
270.0
 51
0.0
  0
LINE
  5
127C3
  8
0
 10
262.00000129640091
 20
126.8970083770156
 30
0.0
 11
262.00000129640091
 21
129.87000051409009
 31
0.0
  0
ARC
  5
127C4
  8
0
 10
228.50000037252869
 20
129.86999969846761
 30
0.0
 40
0.5000000000000142
 50
90.0
 51
180.0
  0
ARC
  5
127C5
  8
0
 10
228.50000037252869
 20
129.86999969846761
 30
0.0
 40
0.5000000000000142
 50
86.987212495813637
 51
90.0
  0
LINE
  5
127C6
  8
0
 10
228.50071571767299
 20
130.36999966472391
 30
0.0
 11
228.50000046193571
 21
130.36999966472391
 31
0.0
  0
ARC
  5
127C7
  8
0
 10
228.50000037252869
 20
126.897007529795
 30
0.0
 40
0.5
 50
180.0
 51
270.0
  0
LINE
  5
127C8
  8
0
 10
227.99999944865669
 20
129.87000051409009
 30
0.0
 11
227.99999944865669
 21
126.8970083770156
 31
0.0
  0
LINE
  5
127C9
  8
0
 10
238.00000015646191
 20
125.9970080432296
 30
0.0
 11
252.0000005885957
 21
125.9970080432296
 31
0.0
  0
LINE
  5
127CA
  8
0
 10
240.25026362389301
 20
130.1970083591342
 30
0.0
 11
249.7497371211646
 21
130.1970083591342
 31
0.0
  0
POLYLINE
  5
127CB
  8
0
 66
     1
 10
0.0
 20
0.0
 30
0.0
 70
   128
  0
VERTEX
  5
1417C
  8
0
 10
231.45364809781279
 20
130.22813688486809
 30
0.0
  0
VERTEX
  5
1417D
  8
0
 10
234.3595142289993
 20
130.07405701547859
 30
0.0
  0
VERTEX
  5
1417E
  8
0
 10
237.3018579371271
 20
129.9209587600827
 30
0.0
  0
SEQEND
  5
1417F
  8
0
  0
POLYLINE
  5
127CC
  8
0
 66
     1
 10
0.0
 20
0.0
 30
0.0
 70
   128
  0
VERTEX
  5
14180
  8
0
 10
252.69814280793051
 20
129.9209587600827
 30
0.0
  0
VERTEX
  5
14181
  8
0
 10
255.62521282583461
 20
130.07325235277409
 30
0.0
  0
VERTEX
  5
14182
  8
0
 10
258.54635264724482
 20
130.22813688486809
 30
0.0
  0
SEQEND
  5
14183
  8
0
  0
LINE
  5
127CD
  8
0
 10
261.49928502738459
 20
126.39700736373661
 30
0.0
 11
228.50071571767299
 21
126.39700736373661
 31
0.0
  0
ARC
  5
127CE
  8
0
 10
272.7890882410822
 20
-134.63326532317001
 30
0.0
 40
265.24407231228412
 50
92.445146256206755
 51
93.078075593077443
  0
ARC
  5
127CF
  8
0
 10
216.07336574772339
 20
-158.21593142248179
 30
0.0
 40
288.85382744021871
 50
86.947791193296865
 51
87.528986957417416
  0
ARC
  5
127D0
  8
0
 10
234.7061261238851
 20
201.16958542933779
 30
0.0
 40
71.312950735931125
 50
272.29930828861518
 51
272.98378007891301
  0
LINE
  5
127D1
  8
0
 10
252.53171356882169
 20
129.91662525558721
 30
0.0
 11
252.69814280793051
 21
129.9209587600827
 31
0.0
  0
LINE
  5
127D2
  8
0
 10
237.3018579371271
 20
129.9209587600827
 30
0.0
 11
237.5671824254093
 21
129.9140502092242
 31
0.0
  0
LINE
  5
127D3
  8
0
 10
261.50000028312189
 20
126.39700736373661
 30
0.0
 11
261.49928502738459
 21
126.39700736373661
 31
0.0
  0
LINE
  5
127D4
  8
0
 10
228.50071571767299
 20
126.39700736373661
 30
0.0
 11
228.50000046193571
 21
126.39700736373661
 31
0.0
  0
LINE
  5
127D5
  8
0
 10
251.95072570815671
 20
126.8970083770156
 30
0.0
 11
251.95072570815671
 21
129.4577859666943
 31
0.0
  0
LINE
  5
127D6
  8
0
 10
238.04927503690089
 20
129.4577859666943
 30
0.0
 11
238.04927503690089
 21
126.8970083770156
 31
0.0
  0
ARC
  5
127D7
  8
0
 10
251.468309633545
 20
126.8793703677805
 30
0.0
 40
0.482738405778335
 50
272.25973748513519
 51
2.093905235367286
  0
ARC
  5
127D8
  8
0
 10
238.5316911115126
 20
126.8793703677805
 30
0.0
 40
0.4827384057783481
 50
177.90609476463271
 51
267.74026251486481
  0
LINE
  5
127D9
  8
0
 10
238.45473423600171
 20
129.95386424928901
 30
0.0
 11
251.54526650905589
 21
129.95386424928901
 31
0.0
  0
ARC
  5
127DA
  8
0
 10
251.46251454003439
 20
129.47249272434919
 30
0.0
 40
0.4884326293357716
 50
358.27455728783337
 51
80.245697760064076
  0
ARC
  5
127DB
  8
0
 10
238.5374862050231
 20
129.47249272434919
 30
0.0
 40
0.4884326293357645
 50
99.754302239935939
 51
181.72544271216989
  0
LINE
  5
127DC
  8
0
 10
251.54526650905589
 20
129.95386424928901
 30
0.0
 11
251.581803690642
 21
129.9533129063249
 31
0.0
  0
LINE
  5
127DD
  8
0
 10
238.4181970544156
 20
129.9533129063249
 30
0.0
 11
238.45473423600171
 21
129.95386424928901
 31
0.0
  0
LINE
  5
127DE
  8
0
 10
252.06687513738851
 20
129.9533129063249
 30
0.0
 11
251.581803690642
 21
129.9533129063249
 31
0.0
  0
LINE
  5
127DF
  8
0
 10
228.5269939154384
 20
130.36930862337351
 30
0.0
 11
228.52628052234621
 21
130.36930862337351
 31
0.0
  0
LINE
  5
12887
  8
0
 10
190.00000001862639
 20
125.4970088925958
 30
0.0
 11
189.5000004023313
 21
125.9970080432296
 31
0.0
  0
LINE
  5
12888
  8
0
 10
175.49999997019751
 20
125.9970080432296
 30
0.0
 11
175.00000035390241
 21
125.4970088925958
 31
0.0
  0
LINE
  5
12889
  8
0
 10
190.00000001862639
 20
124.9999994412064
 30
0.0
 11
190.00000001862639
 21
125.4970088925958
 31
0.0
  0
LINE
  5
1288A
  8
0
 10
175.00000035390241
 20
125.4970088925958
 30
0.0
 11
175.00000035390241
 21
124.9999994412064
 31
0.0
  0
LINE
  5
1288B
  8
0
 10
182.65360382967609
 20
130.36999966472391
 30
0.0
 11
182.3463965428526
 21
130.36999966472391
 31
0.0
  0
LINE
  5
1288C
  8
0
 10
185.6303306575864
 20
126.8970083770156
 30
0.0
 11
185.6303306575864
 21
129.7512345340848
 31
0.0
  0
ARC
  5
1288D
  8
0
 10
185.0308798638917
 20
129.69536606049741
 30
0.0
 40
0.6020486196330923
 50
5.3245530703003263
 51
94.040151905793564
  0
POLYLINE
  5
1288E
  8
0
 66
     1
 10
0.0
 20
0.0
 30
0.0
 70
   128
  0
VERTEX
  5
14184
  8
0
 10
180.09690319187919
 20
130.30491511791939
 30
0.0
  0
VERTEX
  5
14185
  8
0
 10
179.96758765541
 20
130.2915245619416
 30
0.0
  0
VERTEX
  5
14186
  8
0
 10
179.80312051251511
 20
130.26278580993409
 30
0.0
  0
VERTEX
  5
14187
  8
0
 10
179.73053206689639
 20
130.24158332020039
 30
0.0
  0
VERTEX
  5
14188
  8
0
 10
179.65631543658651
 20
130.21011206775901
 30
0.0
  0
VERTEX
  5
14189
  8
0
 10
179.56962560303489
 20
130.15544715791941
 30
0.0
  0
VERTEX
  5
1418A
  8
0
 10
179.48128220625199
 20
130.06856593757871
 30
0.0
  0
VERTEX
  5
1418B
  8
0
 10
179.40875173546351
 20
129.94588281482461
 30
0.0
  0
VERTEX
  5
1418C
  8
0
 10
179.37204132787861
 20
129.79758832126851
 30
0.0
  0
VERTEX
  5
1418D
  8
0
 10
179.3696697149424
 20
129.7512811002135
 30
0.0
  0
SEQEND
  5
1418E
  8
0
  0
LINE
  5
1288F
  8
0
 10
179.3696697149424
 20
129.7512811002135
 30
0.0
 11
179.3696697149424
 21
126.8970083770156
 31
0.0
  0
ARC
  5
12890
  8
0
 10
185.13033055451291
 20
126.89700799852611
 30
0.0
 40
0.5
 50
270.0
 51
0.0
  0
ARC
  5
12891
  8
0
 10
179.86966981801569
 20
126.89700799852611
 30
0.0
 40
0.5
 50
180.0
 51
270.0
  0
ARC
  5
12892
  8
0
 10
182.50000018626429
 20
73.897007998526078
 30
0.0
 40
56.500000000000021
 50
94.822326350222738
 51
97.180755781458245
  0
ARC
  5
12893
  8
0
 10
182.50000018626429
 20
73.897007998526078
 30
0.0
 40
56.500000000000021
 50
82.819244218541726
 51
85.177673649777233
  0
ARC
  5
12894
  8
0
 10
175.5000001862644
 20
129.45778553088249
 30
0.0
 40
0.5000000000000071
 50
97.180755781464825
 51
180.0
  0
ARC
  5
12895
  8
0
 10
175.50000018626429
 20
126.89700799852611
 30
0.0
 40
0.5
 50
180.0
 51
270.0
  0
LINE
  5
12896
  8
0
 10
175.00000035390241
 20
129.4577859666943
 30
0.0
 11
175.00000035390241
 21
126.8970083770156
 31
0.0
  0
ARC
  5
12897
  8
0
 10
189.5000001862644
 20
126.89700799852611
 30
0.0
 40
0.5
 50
270.0
 51
0.0
  0
LINE
  5
12898
  8
0
 10
190.00000001862639
 20
126.8970083770156
 30
0.0
 11
190.00000001862639
 21
129.4577859666943
 31
0.0
  0
ARC
  5
12899
  8
0
 10
189.5000001862644
 20
129.45778553088249
 30
0.0
 40
0.5
 50
0.0
 51
82.819244218535147
  0
ARC
  5
1289A
  8
0
 10
188.10000018626431
 20
125.39700799852611
 30
0.0
 40
1.0000000000000051
 50
90.0
 51
143.13010235415851
  0
ARC
  5
1289B
  8
0
 10
176.90000018626429
 20
125.39700799852611
 30
0.0
 40
1.0
 50
36.869897645847132
 51
90.0
  0
LINE
  5
1289C
  8
0
 10
175.49999997019751
 20
125.9970080432296
 30
0.0
 11
189.5000004023313
 21
125.9970080432296
 31
0.0
  0
ARC
  5
1289D
  8
0
 10
183.029780404852
 20
105.3945844794019
 30
0.0
 40
24.97824798689696
 50
85.502505575421637
 51
90.862916604502075
  0
ARC
  5
1289E
  8
0
 10
182.0790753490152
 20
100.70257454085549
 30
0.0
 40
29.668629461116119
 50
89.483744827163164
 51
93.830805809564154
  0
LINE
  5
1289F
  8
0
 10
185.36377255624251
 20
130.1970083591342
 30
0.0
 11
187.2497369349002
 21
130.1970083591342
 31
0.0
  0
LINE
  5
128A0
  8
0
 10
177.7502634376286
 20
130.1970083591342
 30
0.0
 11
179.6194744110106
 21
130.1970083591342
 31
0.0
  0
LINE
  5
128A1
  8
0
 10
189.5000001862644
 20
126.39700799852611
 30
0.0
 11
175.49999997019751
 21
126.39700736373661
 31
0.0
  0
LINE
  5
128A2
  8
0
 10
185.57460886513559
 20
129.95386424928901
 30
0.0
 11
189.56250006332979
 21
129.95386424928901
 31
0.0
  0
LINE
  5
128A3
  8
0
 10
175.4375003091989
 20
129.95386424928901
 30
0.0
 11
179.40141850151099
 21
129.95386424928901
 31
0.0
  0
LINE
  5
128A9
  8
0
 10
352.5000002048908
 20
125.1678759232163
 30
0.0
 11
352.0000005885957
 21
125.6678750738501
 31
0.0
  0
LINE
  5
128AA
  8
0
 10
338.00000015646202
 20
125.6678750738501
 30
0.0
 11
337.50000054016692
 21
125.1678759232163
 31
0.0
  0
LINE
  5
128AB
  8
0
 10
352.5000002048908
 20
124.9999994412064
 30
0.0
 11
352.5000002048908
 21
125.1678759232163
 31
0.0
  0
LINE
  5
128AC
  8
0
 10
337.50000054016692
 20
125.1678759232163
 30
0.0
 11
337.50000054016692
 21
124.9999994412064
 31
0.0
  0
LINE
  5
128AD
  8
0
 10
345.15360401594057
 20
130.04086669534439
 30
0.0
 11
344.84639672911698
 21
130.04086669534439
 31
0.0
  0
LINE
  5
128AE
  8
0
 10
348.1303308438508
 20
126.56787540763619
 30
0.0
 11
348.1303308438508
 21
129.42210156470529
 31
0.0
  0
ARC
  5
128AF
  8
0
 10
347.53088005015621
 20
129.366233091118
 30
0.0
 40
0.6020486196330923
 50
5.3245530703003423
 51
94.040151905793564
  0
POLYLINE
  5
128B0
  8
0
 66
     1
 10
0.0
 20
0.0
 30
0.0
 70
   128
  0
VERTEX
  5
1418F
  8
0
 10
342.59690337814368
 20
129.97578214853999
 30
0.0
  0
VERTEX
  5
14190
  8
0
 10
342.46758784167451
 20
129.9623915925622
 30
0.0
  0
VERTEX
  5
14191
  8
0
 10
342.30312069877959
 20
129.93365284055471
 30
0.0
  0
VERTEX
  5
14192
  8
0
 10
342.2305322531609
 20
129.91245035082099
 30
0.0
  0
VERTEX
  5
14193
  8
0
 10
342.15631562285103
 20
129.88097909837961
 30
0.0
  0
VERTEX
  5
14194
  8
0
 10
342.06962578929938
 20
129.82631418854001
 30
0.0
  0
VERTEX
  5
14195
  8
0
 10
341.9812823925165
 20
129.7394329681992
 30
0.0
  0
VERTEX
  5
14196
  8
0
 10
341.90875192172803
 20
129.6167498454451
 30
0.0
  0
VERTEX
  5
14197
  8
0
 10
341.87204151414312
 20
129.46845535188911
 30
0.0
  0
VERTEX
  5
14198
  8
0
 10
341.86966990120692
 20
129.4221481308341
 30
0.0
  0
SEQEND
  5
14199
  8
0
  0
LINE
  5
128B1
  8
0
 10
341.86966990120692
 20
129.4221481308341
 30
0.0
 11
341.86966990120692
 21
126.56787540763619
 31
0.0
  0
ARC
  5
128B2
  8
0
 10
347.63033074077742
 20
126.56787502914661
 30
0.0
 40
0.5
 50
270.0
 51
0.0
  0
ARC
  5
128B3
  8
0
 10
342.36967000428018
 20
126.56787502914661
 30
0.0
 40
0.5
 50
180.0
 51
270.0
  0
ARC
  5
128B4
  8
0
 10
345.0000003725288
 20
73.567875029146663
 30
0.0
 40
56.500000000000021
 50
94.822326350222767
 51
97.180755781458274
  0
ARC
  5
128B5
  8
0
 10
345.0000003725288
 20
73.567875029146663
 30
0.0
 40
56.500000000000021
 50
82.819244218541726
 51
85.177673649777233
  0
ARC
  5
128B6
  8
0
 10
338.00000037252892
 20
129.12865256150309
 30
0.0
 40
0.5000000000000071
 50
97.180755781464853
 51
180.0
  0
ARC
  5
128B7
  8
0
 10
338.0000003725288
 20
126.56787502914661
 30
0.0
 40
0.5
 50
180.0
 51
270.0
  0
LINE
  5
128B8
  8
0
 10
337.50000054016692
 20
129.1286529973149
 30
0.0
 11
337.50000054016692
 21
126.56787540763619
 31
0.0
  0
ARC
  5
128B9
  8
0
 10
352.00000037252892
 20
126.56787502914661
 30
0.0
 40
0.5
 50
270.0
 51
0.0
  0
LINE
  5
128BA
  8
0
 10
352.5000002048908
 20
126.56787540763619
 30
0.0
 11
352.5000002048908
 21
129.1286529973149
 31
0.0
  0
ARC
  5
128BB
  8
0
 10
352.00000037252892
 20
129.12865256150309
 30
0.0
 40
0.5
 50
0.0
 51
82.819244218535147
  0
ARC
  5
128BC
  8
0
 10
350.60000037252883
 20
125.06787502914661
 30
0.0
 40
1.0000000000000051
 50
90.0
 51
143.13010235415899
  0
ARC
  5
128BD
  8
0
 10
339.40000037252878
 20
125.06787502914661
 30
0.0
 40
1.0
 50
36.869897645847651
 51
90.0
  0
LINE
  5
128BE
  8
0
 10
338.00000015646202
 20
125.6678750738501
 30
0.0
 11
352.0000005885957
 21
125.6678750738501
 31
0.0
  0
ARC
  5
128BF
  8
0
 10
345.52978059111638
 20
105.0654515100224
 30
0.0
 40
24.978247986897031
 50
85.502505575420727
 51
90.862916604501976
  0
ARC
  5
128C0
  8
0
 10
344.57907553528003
 20
100.3734415714553
 30
0.0
 40
29.66862946113692
 50
89.483744827164074
 51
93.830805809561966
  0
LINE
  5
128C1
  8
0
 10
347.86377274250702
 20
129.86787538975469
 30
0.0
 11
349.74973712116469
 21
129.86787538975469
 31
0.0
  0
LINE
  5
128C2
  8
0
 10
340.25026362389309
 20
129.86787538975469
 30
0.0
 11
342.11947459727497
 21
129.86787538975469
 31
0.0
  0
LINE
  5
128C3
  8
0
 10
352.00000037252892
 20
126.06787502914661
 30
0.0
 11
338.00000015646202
 21
126.0678743943572
 31
0.0
  0
LINE
  5
128C4
  8
0
 10
348.07460905139999
 20
129.62473127990961
 30
0.0
 11
352.06250024959428
 21
129.62473127990961
 31
0.0
  0
LINE
  5
128C5
  8
0
 10
337.93750049546338
 20
129.62473127990961
 30
0.0
 11
341.9014186877755
 21
129.62473127990961
 31
0.0
  0
LINE
  5
128C6
  8
0
 10
477.50000057741988
 20
125.1678759232163
 30
0.0
 11
477.00000096112478
 21
125.6678750738501
 31
0.0
  0
LINE
  5
128C7
  8
0
 10
463.000000528991
 20
125.6678750738501
 30
0.0
 11
462.5000009126959
 21
125.1678759232163
 31
0.0
  0
LINE
  5
128C8
  8
0
 10
477.50000057741988
 20
124.9999994412064
 30
0.0
 11
477.50000057741988
 21
125.1678759232163
 31
0.0
  0
LINE
  5
128C9
  8
0
 10
462.5000009126959
 20
125.1678759232163
 30
0.0
 11
462.5000009126959
 21
124.9999994412064
 31
0.0
  0
LINE
  5
128CA
  8
0
 10
470.1536043884696
 20
130.04086669534439
 30
0.0
 11
469.84639710164612
 21
130.04086669534439
 31
0.0
  0
LINE
  5
128CB
  8
0
 10
473.13033121637989
 20
126.56787540763619
 30
0.0
 11
473.13033121637989
 21
129.42210156470529
 31
0.0
  0
ARC
  5
128CC
  8
0
 10
472.5308804226853
 20
129.366233091118
 30
0.0
 40
0.6020486196330923
 50
5.3245530703003423
 51
94.040151905793564
  0
POLYLINE
  5
128CD
  8
0
 66
     1
 10
0.0
 20
0.0
 30
0.0
 70
   128
  0
VERTEX
  5
1419A
  8
0
 10
467.59690375067271
 20
129.97578214853999
 30
0.0
  0
VERTEX
  5
1419B
  8
0
 10
467.46758821420349
 20
129.9623915925622
 30
0.0
  0
VERTEX
  5
1419C
  8
0
 10
467.30312107130862
 20
129.93365284055471
 30
0.0
  0
VERTEX
  5
1419D
  8
0
 10
467.23053262568988
 20
129.91245035082099
 30
0.0
  0
VERTEX
  5
1419E
  8
0
 10
467.15631599538011
 20
129.88097909837961
 30
0.0
  0
VERTEX
  5
1419F
  8
0
 10
467.06962616182841
 20
129.82631418854001
 30
0.0
  0
VERTEX
  5
141A0
  8
0
 10
466.98128276504559
 20
129.7394329681992
 30
0.0
  0
VERTEX
  5
141A1
  8
0
 10
466.90875229425711
 20
129.6167498454451
 30
0.0
  0
VERTEX
  5
141A2
  8
0
 10
466.87204188667221
 20
129.46845535188911
 30
0.0
  0
VERTEX
  5
141A3
  8
0
 10
466.86967027373589
 20
129.4221481308341
 30
0.0
  0
SEQEND
  5
141A4
  8
0
  0
LINE
  5
128CE
  8
0
 10
466.86967027373589
 20
129.4221481308341
 30
0.0
 11
466.86967027373589
 21
126.56787540763619
 31
0.0
  0
ARC
  5
128CF
  8
0
 10
472.6303311133064
 20
126.56787502914661
 30
0.0
 40
0.5
 50
270.0
 51
0.0
  0
ARC
  5
128D0
  8
0
 10
467.36967037680932
 20
126.56787502914661
 30
0.0
 40
0.5
 50
180.0
 51
270.0
  0
ARC
  5
128D1
  8
0
 10
470.00000074505778
 20
73.567875029146663
 30
0.0
 40
56.500000000000021
 50
94.822326350222767
 51
97.180755781458274
  0
ARC
  5
128D2
  8
0
 10
470.00000074505778
 20
73.567875029146663
 30
0.0
 40
56.500000000000021
 50
82.819244218541726
 51
85.177673649777233
  0
ARC
  5
128D3
  8
0
 10
463.000000745058
 20
129.12865256150309
 30
0.0
 40
0.5000000000000071
 50
97.180755781464853
 51
180.0
  0
ARC
  5
128D4
  8
0
 10
463.00000074505778
 20
126.56787502914661
 30
0.0
 40
0.5
 50
180.0
 51
270.0
  0
LINE
  5
128D5
  8
0
 10
462.5000009126959
 20
129.1286529973149
 30
0.0
 11
462.5000009126959
 21
126.56787540763619
 31
0.0
  0
ARC
  5
128D6
  8
0
 10
477.000000745058
 20
126.56787502914661
 30
0.0
 40
0.5
 50
270.0
 51
0.0
  0
LINE
  5
128D7
  8
0
 10
477.50000057741988
 20
126.56787540763619
 30
0.0
 11
477.50000057741988
 21
129.1286529973149
 31
0.0
  0
ARC
  5
128D8
  8
0
 10
477.000000745058
 20
129.12865256150309
 30
0.0
 40
0.5
 50
0.0
 51
82.819244218535147
  0
ARC
  5
128D9
  8
0
 10
475.60000074505791
 20
125.06787502914661
 30
0.0
 40
1.0000000000000051
 50
90.0
 51
143.13010235415931
  0
ARC
  5
128DA
  8
0
 10
464.40000074505781
 20
125.06787502914661
 30
0.0
 40
1.0
 50
36.869897645847892
 51
90.0
  0
LINE
  5
128DB
  8
0
 10
463.000000528991
 20
125.6678750738501
 30
0.0
 11
477.00000096112478
 21
125.6678750738501
 31
0.0
  0
ARC
  5
128DC
  8
0
 10
470.52978096364541
 20
105.0654515100215
 30
0.0
 40
24.97824798689793
 50
85.502505575420614
 51
90.862916604501706
  0
ARC
  5
128DD
  8
0
 10
469.57907590780877
 20
100.3734415714612
 30
0.0
 40
29.668629461131012
 50
89.483744827163505
 51
93.830805809562307
  0
LINE
  5
128DE
  8
0
 10
472.863773115036
 20
129.86787538975469
 30
0.0
 11
474.74973749369371
 21
129.86787538975469
 31
0.0
  0
LINE
  5
128DF
  8
0
 10
465.25026399642212
 20
129.86787538975469
 30
0.0
 11
467.11947496980412
 21
129.86787538975469
 31
0.0
  0
LINE
  5
128E0
  8
0
 10
477.000000745058
 20
126.06787502914661
 30
0.0
 11
463.000000528991
 21
126.0678743943572
 31
0.0
  0
LINE
  5
128E1
  8
0
 10
473.07460942392902
 20
129.62473127990961
 30
0.0
 11
477.06250062212342
 21
129.62473127990961
 31
0.0
  0
LINE
  5
128E2
  8
0
 10
462.93750086799241
 20
129.62473127990961
 30
0.0
 11
466.90141906030459
 21
129.62473127990961
 31
0.0
  0
LINE
  5
1292D
  8
0
 10
174.99999983236191
 20
-84.876261217771088
 30
0.0
 11
174.50000021606681
 21
-84.376262067137276
 31
0.0
  0
LINE
  5
1292E
  8
0
 10
160.49999978393299
 20
-84.376262067137276
 30
0.0
 11
160.00000016763789
 21
-84.876261217771088
 31
0.0
  0
LINE
  5
1292F
  8
0
 10
174.99999983236191
 20
-85.373270669160405
 30
0.0
 11
174.99999983236191
 21
-84.876261217771088
 31
0.0
  0
LINE
  5
12930
  8
0
 10
160.00000016763789
 20
-84.876261217771088
 30
0.0
 11
160.00000016763789
 21
-85.373270669160405
 31
0.0
  0
LINE
  5
12931
  8
0
 10
167.6536036434116
 20
-80.003270445642997
 30
0.0
 11
167.34639635658809
 21
-80.003270445642997
 31
0.0
  0
LINE
  5
12932
  8
0
 10
170.63033047132191
 20
-83.476261733351265
 30
0.0
 11
170.63033047132191
 21
-80.622035576282059
 31
0.0
  0
ARC
  5
12933
  8
0
 10
170.0308796776273
 20
-80.677904049869454
 30
0.0
 40
0.6020486196330923
 50
5.3245530702995776
 51
94.040151905793564
  0
POLYLINE
  5
12934
  8
0
 66
     1
 10
0.0
 20
0.0
 30
0.0
 70
   128
  0
VERTEX
  5
141A5
  8
0
 10
165.09690300561471
 20
-80.068354992447425
 30
0.0
  0
VERTEX
  5
141A6
  8
0
 10
164.96758746914551
 20
-80.081745548425246
 30
0.0
  0
VERTEX
  5
141A7
  8
0
 10
164.80312032625071
 20
-80.110484300432717
 30
0.0
  0
VERTEX
  5
141A8
  8
0
 10
164.7305318806319
 20
-80.131686790166427
 30
0.0
  0
VERTEX
  5
141A9
  8
0
 10
164.65631525032211
 20
-80.163158042607819
 30
0.0
  0
VERTEX
  5
141AA
  8
0
 10
164.56962541677041
 20
-80.217822952447449
 30
0.0
  0
VERTEX
  5
141AB
  8
0
 10
164.48128201998759
 20
-80.304704172788178
 30
0.0
  0
VERTEX
  5
141AC
  8
0
 10
164.40875154919911
 20
-80.427387295542275
 30
0.0
  0
VERTEX
  5
141AD
  8
0
 10
164.3720411416142
 20
-80.575681789098297
 30
0.0
  0
VERTEX
  5
141AE
  8
0
 10
164.36966952867789
 20
-80.621989010153328
 30
0.0
  0
SEQEND
  5
141AF
  8
0
  0
LINE
  5
12935
  8
0
 10
164.36966952867789
 20
-80.621989010153328
 30
0.0
 11
164.36966952867789
 21
-83.476261733351265
 31
0.0
  0
ARC
  5
12936
  8
0
 10
170.13033036824839
 20
-83.476262111840782
 30
0.0
 40
0.5
 50
270.0
 51
0.0
  0
ARC
  5
12937
  8
0
 10
164.86966963175129
 20
-83.476262111840782
 30
0.0
 40
0.5
 50
180.0
 51
270.0
  0
ARC
  5
12938
  8
0
 10
167.49999999999989
 20
-136.47626211184081
 30
0.0
 40
56.500000000000021
 50
94.822326350222767
 51
97.180755781458302
  0
ARC
  5
12939
  8
0
 10
167.49999999999989
 20
-136.47626211184081
 30
0.0
 40
56.500000000000021
 50
82.819244218541712
 51
85.177673649777233
  0
ARC
  5
1293A
  8
0
 10
160.5
 20
-80.915484579484342
 30
0.0
 40
0.5000000000000071
 50
97.180755781464853
 51
180.0
  0
ARC
  5
1293B
  8
0
 10
160.49999999999989
 20
-83.476262111840782
 30
0.0
 40
0.5
 50
180.0
 51
270.0
  0
LINE
  5
1293C
  8
0
 10
160.00000016763789
 20
-80.915484143672515
 30
0.0
 11
160.00000016763789
 21
-83.476261733351265
 31
0.0
  0
ARC
  5
1293D
  8
0
 10
174.5
 20
-83.476262111840782
 30
0.0
 40
0.5
 50
270.0
 51
0.0
  0
LINE
  5
1293E
  8
0
 10
174.99999983236191
 20
-83.476261733351265
 30
0.0
 11
174.99999983236191
 21
-80.915484143672515
 31
0.0
  0
ARC
  5
1293F
  8
0
 10
174.5
 20
-80.915484579484342
 30
0.0
 40
0.5
 50
0.0
 51
82.819244218535147
  0
ARC
  5
12940
  8
0
 10
173.09999999999991
 20
-84.976262111840782
 30
0.0
 40
1.0000000000000051
 50
90.0
 51
143.1301023541584
  0
ARC
  5
12941
  8
0
 10
161.89999999999981
 20
-84.976262111840782
 30
0.0
 40
1.0
 50
36.86989764584753
 51
90.0
  0
LINE
  5
12942
  8
0
 10
160.49999978393299
 20
-84.376262067137276
 30
0.0
 11
174.50000021606681
 21
-84.376262067137276
 31
0.0
  0
ARC
  5
12943
  8
0
 10
168.0297802185876
 20
-104.9786856309579
 30
0.0
 40
24.97824798688994
 50
85.502505575420557
 51
90.862916604502502
  0
ARC
  5
12944
  8
0
 10
167.0790751627508
 20
-109.670695569511
 30
0.0
 40
29.668629461115859
 50
89.483744827163136
 51
93.830805809564126
  0
LINE
  5
12945
  8
0
 10
170.36377236997799
 20
-80.176261751232659
 30
0.0
 11
172.24973674863571
 21
-80.176261751232659
 31
0.0
  0
LINE
  5
12946
  8
0
 10
162.75026325136409
 20
-80.176261751232659
 30
0.0
 11
164.61947422474611
 21
-80.176261751232659
 31
0.0
  0
LINE
  5
12947
  8
0
 10
174.5
 20
-83.976262111840782
 30
0.0
 11
160.49999978393299
 21
-83.976262746630226
 31
0.0
  0
LINE
  5
12948
  8
0
 10
170.5746086788711
 20
-80.419405861077834
 30
0.0
 11
174.56249987706539
 21
-80.419405861077834
 31
0.0
  0
LINE
  5
12949
  8
0
 10
160.43750012293441
 20
-80.419405861077834
 30
0.0
 11
164.40141831524659
 21
-80.419405861077834
 31
0.0
  0
LINE
  5
1294D
  8
0
 10
329.99999983236199
 20
-92.876261217771187
 30
0.0
 11
329.50000021606689
 21
-92.376262067137375
 31
0.0
  0
LINE
  5
1294E
  8
0
 10
315.49999978393311
 20
-92.376262067137375
 30
0.0
 11
315.00000016763801
 21
-92.876261217771187
 31
0.0
  0
LINE
  5
1294F
  8
0
 10
329.99999983236199
 20
-93.373270669160505
 30
0.0
 11
329.99999983236199
 21
-92.876261217771187
 31
0.0
  0
LINE
  5
12950
  8
0
 10
315.00000016763801
 20
-92.876261217771187
 30
0.0
 11
315.00000016763801
 21
-93.373270669160505
 31
0.0
  0
LINE
  5
12951
  8
0
 10
322.65360364341171
 20
-88.003270445643082
 30
0.0
 11
322.34639635658817
 21
-88.003270445643082
 31
0.0
  0
LINE
  5
12952
  8
0
 10
325.630330471322
 20
-91.476261733351365
 30
0.0
 11
325.630330471322
 21
-88.622035576282158
 31
0.0
  0
ARC
  5
12953
  8
0
 10
325.03087967762741
 20
-88.677904049869554
 30
0.0
 40
0.6020486196330923
 50
5.3245530702996042
 51
94.040151905793564
  0
POLYLINE
  5
12954
  8
0
 66
     1
 10
0.0
 20
0.0
 30
0.0
 70
   128
  0
VERTEX
  5
141B0
  8
0
 10
320.09690300561482
 20
-88.06835499244751
 30
0.0
  0
VERTEX
  5
141B1
  8
0
 10
319.9675874691456
 20
-88.081745548425332
 30
0.0
  0
VERTEX
  5
141B2
  8
0
 10
319.80312032625079
 20
-88.110484300432816
 30
0.0
  0
VERTEX
  5
141B3
  8
0
 10
319.73053188063199
 20
-88.131686790166512
 30
0.0
  0
VERTEX
  5
141B4
  8
0
 10
319.65631525032222
 20
-88.163158042607918
 30
0.0
  0
VERTEX
  5
141B5
  8
0
 10
319.56962541677052
 20
-88.217822952447548
 30
0.0
  0
VERTEX
  5
141B6
  8
0
 10
319.4812820199877
 20
-88.304704172788277
 30
0.0
  0
VERTEX
  5
141B7
  8
0
 10
319.40875154919922
 20
-88.427387295542374
 30
0.0
  0
VERTEX
  5
141B8
  8
0
 10
319.37204114161432
 20
-88.575681789098397
 30
0.0
  0
VERTEX
  5
141B9
  8
0
 10
319.369669528678
 20
-88.621989010153428
 30
0.0
  0
SEQEND
  5
141BA
  8
0
  0
LINE
  5
12955
  8
0
 10
319.369669528678
 20
-88.621989010153428
 30
0.0
 11
319.369669528678
 21
-91.476261733351365
 31
0.0
  0
ARC
  5
12956
  8
0
 10
325.13033036824851
 20
-91.476262111840867
 30
0.0
 40
0.5
 50
270.0
 51
0.0
  0
ARC
  5
12957
  8
0
 10
319.86966963175138
 20
-91.476262111840867
 30
0.0
 40
0.5
 50
180.0
 51
270.0
  0
ARC
  5
12958
  8
0
 10
322.5
 20
-144.4762621118409
 30
0.0
 40
56.500000000000021
 50
94.822326350222767
 51
97.180755781458302
  0
ARC
  5
12959
  8
0
 10
322.5
 20
-144.4762621118409
 30
0.0
 40
56.500000000000021
 50
82.819244218541712
 51
85.177673649777233
  0
ARC
  5
1295A
  8
0
 10
315.50000000000011
 20
-88.915484579484428
 30
0.0
 40
0.5000000000000071
 50
97.180755781464853
 51
180.0
  0
ARC
  5
1295B
  8
0
 10
315.49999999999989
 20
-91.476262111840867
 30
0.0
 40
0.5
 50
180.0
 51
270.0
  0
LINE
  5
1295C
  8
0
 10
315.00000016763801
 20
-88.9154841436726
 30
0.0
 11
315.00000016763801
 21
-91.476261733351365
 31
0.0
  0
ARC
  5
1295D
  8
0
 10
329.50000000000011
 20
-91.476262111840867
 30
0.0
 40
0.5
 50
270.0
 51
0.0
  0
LINE
  5
1295E
  8
0
 10
329.99999983236199
 20
-91.476261733351365
 30
0.0
 11
329.99999983236199
 21
-88.9154841436726
 31
0.0
  0
ARC
  5
1295F
  8
0
 10
329.50000000000011
 20
-88.915484579484428
 30
0.0
 40
0.5
 50
0.0
 51
82.819244218535147
  0
ARC
  5
12960
  8
0
 10
328.10000000000002
 20
-92.976262111840882
 30
0.0
 40
1.0000000000000051
 50
90.0
 51
143.1301023541584
  0
ARC
  5
12961
  8
0
 10
316.89999999999992
 20
-92.976262111840882
 30
0.0
 40
1.0
 50
36.869897645847502
 51
90.0
  0
LINE
  5
12962
  8
0
 10
315.49999978393311
 20
-92.376262067137375
 30
0.0
 11
329.50000021606689
 21
-92.376262067137375
 31
0.0
  0
ARC
  5
12963
  8
0
 10
323.02978021858729
 20
-112.9786856309736
 30
0.0
 40
24.978247986905501
 50
85.502505575422404
 51
90.862916604501066
  0
ARC
  5
12964
  8
0
 10
322.079075162751
 20
-117.6706955695207
 30
0.0
 40
29.668629461125409
 50
89.483744827163633
 51
93.830805809563216
  0
LINE
  5
12965
  8
0
 10
325.36377236997811
 20
-88.176261751232758
 30
0.0
 11
327.24973674863583
 21
-88.176261751232758
 31
0.0
  0
LINE
  5
12966
  8
0
 10
317.75026325136417
 20
-88.176261751232758
 30
0.0
 11
319.61947422474623
 21
-88.176261751232758
 31
0.0
  0
LINE
  5
12967
  8
0
 10
329.50000000000011
 20
-91.976262111840882
 30
0.0
 11
315.49999978393311
 21
-91.976262746630326
 31
0.0
  0
LINE
  5
12968
  8
0
 10
325.57460867887119
 20
-88.419405861077919
 30
0.0
 11
329.56249987706548
 21
-88.419405861077919
 31
0.0
  0
LINE
  5
12969
  8
0
 10
315.43750012293452
 20
-88.419405861077919
 30
0.0
 11
319.4014183152467
 21
-88.419405861077919
 31
0.0
  0
ARC
  5
129F6
  8
0
 10
420.66717533458092
 20
185.79881643171331
 30
0.0
 40
1.818229507434886
 50
56.62229724613389
 51
101.3827273778703
  0
ARC
  5
129F7
  8
0
 10
420.47639702709608
 20
185.76236161676579
 30
0.0
 40
1.826669530307816
 50
95.279216989034722
 51
136.09492552564541
  0
LINE
  5
129F8
  8
0
 10
422.10094060748793
 20
181.0153036843985
 30
0.0
 11
422.0236128941176
 21
180.53557383827859
 31
0.0
  0
LINE
  5
129F9
  8
0
 10
421.74908484346088
 20
181.07170578347819
 30
0.0
 11
422.10094060748793
 21
181.0153036843985
 31
0.0
  0
ARC
  5
129FC
  8
0
 10
179.19108084106441
 20
197.29193833111881
 30
0.0
 40
1.418522982765998
 50
103.1759075485821
 51
149.71964759371139
  0
ARC
  5
129FD
  8
0
 10
179.56126662343809
 20
197.12532469240429
 30
0.0
 40
1.8227176488002379
 50
151.0644359187834
 51
197.16048733869391
  0
ARC
  5
129FE
  8
0
 10
179.6098946742911
 20
196.93748352007771
 30
0.0
 40
1.8240856876479901
 50
191.0607474325399
 51
237.10539372271461
  0
ARC
  5
129FF
  8
0
 10
179.36327531817969
 20
196.6259826470895
 30
0.0
 40
1.4290923663425861
 50
238.625252362401
 51
284.82159884601077
  0
LINE
  5
12A00
  8
0
 10
185.65958722494531
 20
198.83952066302299
 30
0.0
 11
187.93511305004341
 21
198.18261321634051
 31
0.0
  0
LINE
  5
12A01
  8
0
 10
185.59836226842441
 20
198.62735685442581
 30
0.0
 11
185.65958722494531
 21
198.83952066302299
 31
0.0
  0
ARC
  5
12A02
  8
0
 10
179.4096103965577
 20
196.5397712210698
 30
0.0
 40
0.9486236411147199
 50
236.80606736219309
 51
283.74520306103869
  0
ARC
  5
12A03
  8
0
 10
179.75117920861811
 20
196.9478081038105
 30
0.0
 40
1.4783975245870069
 50
189.40767032818431
 51
234.38536532094909
  0
ARC
  5
12A04
  8
0
 10
179.74683191684949
 20
197.17927944523001
 30
0.0
 40
1.5291987478110269
 50
154.59690556716541
 51
198.02280766871709
  0
ARC
  5
12A05
  8
0
 10
179.19916217218949
 20
197.3776048393612
 30
0.0
 40
0.9510415130223361
 50
104.4661493478423
 51
151.23378221758091
  0
ARC
  5
12A06
  8
0
 10
179.23451048085039
 20
197.30105181421831
 30
0.0
 40
1.4202418864077111
 50
82.701515210896787
 51
104.9659305445209
  0
ARC
  5
12A07
  8
0
 10
179.1890996492242
 20
197.38316095444151
 30
0.0
 40
0.9431848648224965
 50
78.817745411381182
 51
103.958568017592
  0
ARC
  5
12A08
  8
0
 10
179.40313019909601
 20
196.62527459945139
 30
0.0
 40
1.4187309471619509
 50
283.27273084612563
 51
283.93001864315778
  0
ARC
  5
12A09
  8
0
 10
179.3917868136775
 20
196.54361028115801
 30
0.0
 40
0.9567283121558267
 50
284.72745947846869
 51
288.28700942849349
  0
LINE
  5
13A13
  8
1
 10
237.5
 20
-197.5710270692143
 30
0.0
 11
237.5
 21
-235.5710270692143
 31
0.0
  0
LINE
  5
13A14
  8
1
 10
218.49999999999989
 20
-216.5710270692143
 30
0.0
 11
256.5
 21
-216.5710270692143
 31
0.0
  0
LINE
  5
13A15
  8
0
 10
214.99999999999989
 20
-259.8495326595567
 30
0.0
 11
259.99999999999989
 21
-259.8495326595567
 31
0.0
  0
LINE
  5
13A16
  8
0
 10
228.5
 20
-260.8495326595567
 30
0.0
 11
227.5
 21
-259.8495326595567
 31
0.0
  0
LINE
  5
13A17
  8
0
 10
214.99999999999989
 20
-262.8495326595567
 30
0.0
 11
259.99999999999989
 21
-262.8495326595567
 31
0.0
  0
LINE
  5
13A18
  8
0
 10
228.5
 20
-262.3495326595567
 30
0.0
 11
228.0
 21
-262.8495326595567
 31
0.0
  0
LINE
  5
13A19
  8
1
 10
237.5
 20
-254.8495326595567
 30
0.0
 11
237.5
 21
-267.8495326595567
 31
0.0
  0
CIRCLE
  5
13A1A
  8
0
 10
237.5
 20
-216.5710270692143
 30
0.0
 40
9.0
  0
CIRCLE
  5
13A1B
  8
1
 10
237.5
 20
-216.5710270692143
 30
0.0
 40
14.0
  0
CIRCLE
  5
13A1C
  8
0
 10
223.5
 20
-216.5710270692143
 30
0.0
 40
1.7
  0
CIRCLE
  5
13A1D
  8
2
 10
223.5
 20
-216.5710270692143
 30
0.0
 40
3.5
  0
LINE
  5
13A1E
  8
1
 10
247.24999999999989
 20
-199.68353169541771
 30
0.0
 11
241.74999999999989
 21
-209.20981113704659
 31
0.0
  0
CIRCLE
  5
13A1F
  8
0
 10
244.49999999999989
 20
-204.44667141623219
 30
0.0
 40
1.7
  0
CIRCLE
  5
13A20
  8
2
 10
244.49999999999989
 20
-204.44667141623219
 30
0.0
 40
3.5
  0
LINE
  5
13A21
  8
1
 10
247.25
 20
-233.45852244301091
 30
0.0
 11
241.74999999999989
 21
-223.93224300138209
 31
0.0
  0
CIRCLE
  5
13A22
  8
0
 10
244.5
 20
-228.6953827221964
 30
0.0
 40
1.6999999999999991
  0
CIRCLE
  5
13A23
  8
2
 10
244.5
 20
-228.6953827221964
 30
0.0
 40
3.5
  0
LINE
  5
13A24
  8
0
 10
228.5
 20
-260.8495326595567
 30
0.0
 11
228.5
 21
-262.3495326595567
 31
0.0
  0
LINE
  5
13A25
  8
1
 10
223.5
 20
-257.8495326595567
 30
0.0
 11
223.5
 21
-264.8495326595567
 31
0.0
  0
LINE
  5
13A26
  8
0
 10
246.5
 20
-260.8495326595567
 30
0.0
 11
247.5
 21
-259.84953265955681
 31
0.0
  0
LINE
  5
13A27
  8
0
 10
246.49999999999989
 20
-262.3495326595567
 30
0.0
 11
246.99999999999989
 21
-262.8495326595567
 31
0.0
  0
LINE
  5
13A28
  8
0
 10
246.5
 20
-260.8495326595567
 30
0.0
 11
246.49999999999989
 21
-262.3495326595567
 31
0.0
  0
LINE
  5
13A29
  8
0
 10
228.5
 20
-260.8495326595567
 30
0.0
 11
246.5
 21
-260.84953265955693
 31
0.0
  0
LINE
  5
13A2A
  8
0
 10
246.49999999999989
 20
-262.3495326595567
 30
0.0
 11
228.5
 21
-262.34953265955681
 31
0.0
  0
LINE
  5
13A5D
  8
0
 10
221.7999999999999
 20
-259.8495326595567
 30
0.0
 11
221.7999999999999
 21
-261.04953265955669
 31
0.0
  0
LINE
  5
13A5E
  8
0
 10
225.2000000000001
 20
-259.8495326595567
 30
0.0
 11
225.2000000000001
 21
-261.04953265955669
 31
0.0
  0
LINE
  5
13A5F
  8
0
 10
221.7999999999999
 20
-261.04953265955669
 30
0.0
 11
220.0
 21
-262.8495326595567
 31
0.0
  0
LINE
  5
13A60
  8
0
 10
225.2000000000001
 20
-261.04953265955669
 30
0.0
 11
227.0
 21
-262.8495326595567
 31
0.0
  0
LINE
  5
13A61
  8
0
 10
221.7999999999999
 20
-261.04953265955669
 30
0.0
 11
225.2000000000001
 21
-261.04953265955669
 31
0.0
  0
TEXT
  5
13A62
  8
0
 62
     3
 10
175.0866666666665
 20
-183.64436040254759
 30
0.0
 40
3.2000000000000002
  1
3mmのプレートに固定する場合
 72
     1
 11
202.49999999999989
 21
-184.0710270692143
 31
0.0
 73
     1
  0
TEXT
  5
13A63
  8
0
 62
     3
 10
143.77999999999989
 20
-190.64436040254759
 30
0.0
 40
3.2000000000000002
  1
For installation on plate of 3 mm thickness.
 72
     1
 11
202.49999999999989
 21
-191.0710270692143
 31
0.0
 73
     1
  0
TEXT
  5
13A64
  8
0
 62
     3
 10
315.68666666666661
 20
-183.64436040254759
 30
0.0
 40
3.2000000000000002
  1
3mmを超え6mm未満のプレートに固定する場合
 72
     1
 11
357.5
 21
-184.0710270692143
 31
0.0
 73
     1
  0
TEXT
  5
13A65
  8
0
 62
     3
 10
284.69999999999999
 20
-190.64436040254759
 30
0.0
 40
3.2000000000000002
  1
For installation on plate of over 3 to 6 mm thickness.
 72
     1
 11
357.5
 21
-191.0710270692143
 31
0.0
 73
     1
  0
TEXT
  5
13A68
  8
0
 62
     3
 10
158.4333333333332
 20
-289.75252440175041
 30
0.0
 40
3.2000000000000002
  1
組付け状態
 72
     1
 11
167.49999999999989
 21
-289.75252440175041
 31
0.0
  0
TEXT
  5
13A69
  8
0
 62
     3
 10
230.2466666666667
 20
-289.75252440175041
 30
0.0
 40
3.2000000000000002
  1
取付け穴
 72
     1
 11
237.5
 21
-289.75252440175041
 31
0.0
  0
TEXT
  5
13A6A
  8
0
 62
     3
 10
313.43333333333322
 20
-289.75252440175041
 30
0.0
 40
3.2000000000000002
  1
組付け状態
 72
     1
 11
322.49999999999989
 21
-289.75252440175041
 31
0.0
  0
TEXT
  5
13A6B
  8
0
 62
     3
 10
385.24666666666673
 20
-289.75252440175041
 30
0.0
 40
3.2000000000000002
  1
取付け穴
 72
     1
 11
392.5
 21
-289.75252440175041
 31
0.0
  0
TEXT
  5
13A6C
  8
0
 62
     3
 10
142.53999999999991
 20
-296.75252440175041
 30
0.0
 40
3.2000000000000002
  1
Installed condition
 72
     1
 11
167.49999999999989
 21
-296.75252440175041
 31
0.0
  0
TEXT
  5
13A6D
  8
0
 62
     3
 10
215.4733333333333
 20
-296.75252440175041
 30
0.0
 40
3.2000000000000002
  1
Installation hole
 72
     1
 11
237.5
 21
-296.75252440175041
 31
0.0
  0
TEXT
  5
13A6E
  8
0
 62
     3
 10
297.53999999999991
 20
-296.75252440175041
 30
0.0
 40
3.2000000000000002
  1
Installed condition
 72
     1
 11
322.49999999999989
 21
-296.75252440175041
 31
0.0
  0
TEXT
  5
13A6F
  8
0
 62
     3
 10
370.4733333333333
 20
-296.75252440175041
 30
0.0
 40
3.2000000000000002
  1
Installation hole
 72
     1
 11
392.5
 21
-296.75252440175041
 31
0.0
  0
LINE
  5
13ADB
  8
1
 10
392.5
 20
-194.0710270692143
 30
0.0
 11
392.5
 21
-239.0710270692143
 31
0.0
  0
LINE
  5
13ADC
  8
1
 10
370.0
 20
-216.5710270692143
 30
0.0
 11
415.0
 21
-216.5710270692143
 31
0.0
  0
LINE
  5
13ADD
  8
0
 10
375.0
 20
-261.8495326595567
 30
0.0
 11
410.0
 21
-261.8495326595567
 31
0.0
  0
LINE
  5
13ADE
  8
0
 10
370.0
 20
-259.8495326595567
 30
0.0
 11
415.0
 21
-259.8495326595567
 31
0.0
  0
LINE
  5
13ADF
  8
0
 10
410.0
 20
-260.3495326595567
 30
0.0
 11
410.5
 21
-259.8495326595567
 31
0.0
  0
LINE
  5
13AE0
  8
0
 10
375.0
 20
-260.3495326595567
 30
0.0
 11
374.5
 21
-259.8495326595567
 31
0.0
  0
LINE
  5
13AE1
  8
0
 10
383.5
 20
-262.8495326595567
 30
0.0
 11
382.5
 21
-261.8495326595567
 31
0.0
  0
LINE
  5
13AE2
  8
0
 10
370.0
 20
-264.8495326595567
 30
0.0
 11
415.0
 21
-264.8495326595567
 31
0.0
  0
LINE
  5
13AE3
  8
0
 10
383.5
 20
-264.3495326595567
 30
0.0
 11
383.0
 21
-264.8495326595567
 31
0.0
  0
LINE
  5
13AE4
  8
1
 10
392.5
 20
-254.8495326595567
 30
0.0
 11
392.5
 21
-269.8495326595567
 31
0.0
  0
CIRCLE
  5
13AE5
  8
0
 10
392.5
 20
-216.5710270692143
 30
0.0
 40
9.0
  0
CIRCLE
  5
13AE6
  8
1
 10
392.5
 20
-216.5710270692143
 30
0.0
 40
14.0
  0
CIRCLE
  5
13AE7
  8
0
 10
378.5
 20
-216.5710270692143
 30
0.0
 40
1.7
  0
CIRCLE
  5
13AE8
  8
2
 10
378.5
 20
-216.5710270692143
 30
0.0
 40
3.5
  0
LINE
  5
13AE9
  8
1
 10
402.24999999999989
 20
-199.68353169541771
 30
0.0
 11
396.75
 21
-209.20981113704659
 31
0.0
  0
CIRCLE
  5
13AEA
  8
0
 10
399.5
 20
-204.44667141623219
 30
0.0
 40
1.7
  0
CIRCLE
  5
13AEB
  8
2
 10
399.5
 20
-204.44667141623219
 30
0.0
 40
3.5
  0
LINE
  5
13AEC
  8
1
 10
402.24999999999989
 20
-233.45852244301091
 30
0.0
 11
396.75
 21
-223.93224300138209
 31
0.0
  0
CIRCLE
  5
13AED
  8
0
 10
399.5
 20
-228.6953827221964
 30
0.0
 40
1.6999999999999991
  0
CIRCLE
  5
13AEE
  8
2
 10
399.5
 20
-228.6953827221964
 30
0.0
 40
3.5
  0
LINE
  5
13AEF
  8
0
 10
383.5
 20
-262.8495326595567
 30
0.0
 11
383.5
 21
-264.3495326595567
 31
0.0
  0
LINE
  5
13AF0
  8
1
 10
378.5
 20
-259.8495326595567
 30
0.0
 11
378.5
 21
-266.8495326595567
 31
0.0
  0
LINE
  5
13AF1
  8
0
 10
401.49999999999989
 20
-262.8495326595567
 30
0.0
 11
402.5
 21
-261.8495326595567
 31
0.0
  0
LINE
  5
13AF2
  8
0
 10
401.49999999999989
 20
-264.3495326595567
 30
0.0
 11
402.0
 21
-264.8495326595567
 31
0.0
  0
LINE
  5
13AF3
  8
0
 10
401.49999999999989
 20
-262.8495326595567
 30
0.0
 11
401.49999999999989
 21
-264.3495326595567
 31
0.0
  0
LINE
  5
13AF4
  8
0
 10
383.5
 20
-262.8495326595567
 30
0.0
 11
401.49999999999989
 21
-262.84953265955693
 31
0.0
  0
LINE
  5
13AF5
  8
0
 10
401.49999999999989
 20
-264.3495326595567
 30
0.0
 11
383.5
 21
-264.34953265955681
 31
0.0
  0
LINE
  5
13AF6
  8
0
 10
376.80000000000013
 20
-261.8495326595567
 30
0.0
 11
376.80000000000013
 21
-263.04953265955658
 31
0.0
  0
LINE
  5
13AF7
  8
0
 10
380.2000000000001
 20
-261.8495326595567
 30
0.0
 11
380.2000000000001
 21
-263.04953265955658
 31
0.0
  0
LINE
  5
13AF8
  8
0
 10
376.80000000000013
 20
-263.04953265955658
 30
0.0
 11
375.0
 21
-264.8495326595567
 31
0.0
  0
LINE
  5
13AF9
  8
0
 10
380.2000000000001
 20
-263.04953265955658
 30
0.0
 11
382.0
 21
-264.8495326595567
 31
0.0
  0
LINE
  5
13AFA
  8
0
 10
376.80000000000013
 20
-263.04953265955658
 30
0.0
 11
380.2000000000001
 21
-263.04953265955658
 31
0.0
  0
CIRCLE
  5
13AFB
  8
0
 10
392.5
 20
-216.5710270692143
 30
0.0
 40
17.5
  0
LINE
  5
13AFC
  8
0
 10
410.0
 20
-261.8495326595567
 30
0.0
 11
410.0
 21
-260.3495326595567
 31
0.0
  0
LINE
  5
13AFD
  8
0
 10
375.0
 20
-261.8495326595567
 30
0.0
 11
375.0
 21
-260.3495326595567
 31
0.0
  0
LINE
  5
13AFE
  8
0
 10
375.0
 20
-260.3495326595567
 30
0.0
 11
410.0
 21
-260.3495326595567
 31
0.0
  0
LINE
  5
13C2F
  8
0
 10
144.99999999999989
 20
-259.8495326595567
 30
0.0
 11
189.99999999999989
 21
-259.8495326595567
 31
0.0
  0
LINE
  5
13C30
  8
0
 10
158.5
 20
-260.8495326595567
 30
0.0
 11
157.5
 21
-259.8495326595567
 31
0.0
  0
LINE
  5
13C31
  8
0
 10
144.99999999999989
 20
-262.8495326595567
 30
0.0
 11
163.49999981001011
 21
-262.8495326595567
 31
0.0
  0
LINE
  5
13C32
  8
0
 10
158.5
 20
-262.3495326595567
 30
0.0
 11
158.0
 21
-262.8495326595567
 31
0.0
  0
LINE
  5
13C34
  8
0
 10
158.5
 20
-259.8495326595567
 30
0.0
 11
158.5
 21
-262.3495326595567
 31
0.0
  0
LINE
  5
13C36
  8
0
 10
176.5
 20
-260.8495326595567
 30
0.0
 11
177.5
 21
-259.84953265955681
 31
0.0
  0
LINE
  5
13C37
  8
0
 10
176.49999999999989
 20
-262.3495326595567
 30
0.0
 11
176.99999999999989
 21
-262.8495326595567
 31
0.0
  0
LINE
  5
13C38
  8
0
 10
176.50000000000011
 20
-259.8495326595567
 30
0.0
 11
176.49999999999989
 21
-262.3495326595567
 31
0.0
  0
LINE
  5
13C3A
  8
0
 10
176.49999999999989
 20
-262.3495326595567
 30
0.0
 11
158.5
 21
-262.34953265955681
 31
0.0
  0
LINE
  5
13C3B
  8
0
 10
151.80000000000001
 20
-259.8495326595567
 30
0.0
 11
151.80000000000001
 21
-261.04953265955669
 31
0.0
  0
LINE
  5
13C3C
  8
0
 10
155.2000000000001
 20
-259.8495326595567
 30
0.0
 11
155.2000000000001
 21
-261.04953265955669
 31
0.0
  0
LINE
  5
13C3D
  8
0
 10
151.80000000000001
 20
-261.04953265955669
 30
0.0
 11
150.0
 21
-262.8495326595567
 31
0.0
  0
LINE
  5
13C3E
  8
0
 10
155.2000000000001
 20
-261.04953265955669
 30
0.0
 11
157.0
 21
-262.8495326595567
 31
0.0
  0
LINE
  5
13C3F
  8
0
 10
151.80000000000001
 20
-261.04953265955669
 30
0.0
 11
151.99999999999989
 21
-261.04953265955669
 31
0.0
  0
LINE
  5
13C40
  8
0
 10
305.00000000000011
 20
-261.8495326595567
 30
0.0
 11
340.00000000000011
 21
-261.8495326595567
 31
0.0
  0
LINE
  5
13C41
  8
0
 10
300.0
 20
-259.8495326595567
 30
0.0
 11
305.49999907612812
 21
-259.8495326595567
 31
0.0
  0
LINE
  5
13C42
  8
0
 10
340.00000000000011
 20
-260.3495326595567
 30
0.0
 11
340.50000000000011
 21
-259.8495326595567
 31
0.0
  0
LINE
  5
13C43
  8
0
 10
305.00000000000011
 20
-260.3495326595567
 30
0.0
 11
304.50000000000011
 21
-259.8495326595567
 31
0.0
  0
LINE
  5
13C44
  8
0
 10
313.50000000000011
 20
-262.8495326595567
 30
0.0
 11
312.5
 21
-261.8495326595567
 31
0.0
  0
LINE
  5
13C45
  8
0
 10
300.0
 20
-264.8495326595567
 30
0.0
 11
318.49999981001019
 21
-264.8495326595567
 31
0.0
  0
LINE
  5
13C46
  8
0
 10
313.50000000000011
 20
-264.3495326595567
 30
0.0
 11
313.00000000000011
 21
-264.8495326595567
 31
0.0
  0
LINE
  5
13C48
  8
0
 10
313.50000000000011
 20
-261.84953265955681
 30
0.0
 11
313.50000000000011
 21
-264.3495326595567
 31
0.0
  0
LINE
  5
13C4A
  8
0
 10
331.50000000000011
 20
-262.8495326595567
 30
0.0
 11
332.50000000000011
 21
-261.8495326595567
 31
0.0
  0
LINE
  5
13C4B
  8
0
 10
331.50000000000011
 20
-264.3495326595567
 30
0.0
 11
332.00000000000011
 21
-264.8495326595567
 31
0.0
  0
LINE
  5
13C4C
  8
0
 10
331.50000000000011
 20
-261.84953265955681
 30
0.0
 11
331.50000000000011
 21
-264.3495326595567
 31
0.0
  0
LINE
  5
13C4E
  8
0
 10
331.50000000000011
 20
-264.3495326595567
 30
0.0
 11
313.50000000000011
 21
-264.34953265955681
 31
0.0
  0
LINE
  5
13C4F
  8
0
 10
306.80000000000013
 20
-261.8495326595567
 30
0.0
 11
306.80000000000013
 21
-263.04953265955658
 31
0.0
  0
LINE
  5
13C50
  8
0
 10
310.2000000000001
 20
-261.8495326595567
 30
0.0
 11
310.2000000000001
 21
-263.04953265955658
 31
0.0
  0
LINE
  5
13C51
  8
0
 10
306.80000000000013
 20
-263.04953265955658
 30
0.0
 11
305.00000000000011
 21
-264.8495326595567
 31
0.0
  0
LINE
  5
13C52
  8
0
 10
310.2000000000001
 20
-263.04953265955658
 30
0.0
 11
312.0
 21
-264.8495326595567
 31
0.0
  0
LINE
  5
13C53
  8
0
 10
306.80000000000013
 20
-263.04953265955658
 30
0.0
 11
307.00000000000011
 21
-263.0495326595568
 31
0.0
  0
LINE
  5
13C54
  8
0
 10
340.00000000000011
 20
-261.8495326595567
 30
0.0
 11
340.00000000000011
 21
-260.3495326595567
 31
0.0
  0
LINE
  5
13C55
  8
0
 10
305.00000000000011
 20
-261.8495326595567
 30
0.0
 11
305.00000000000011
 21
-260.3495326595567
 31
0.0
  0
LINE
  5
13C56
  8
0
 10
305.00000000000011
 20
-260.3495326595567
 30
0.0
 11
305.49999907612812
 21
-260.3495326595567
 31
0.0
  0
LINE
  5
13C5F
  8
0
 10
160.80000020563591
 20
-266.45252418568361
 30
0.0
 11
160.49999978393311
 21
-266.75252437455578
 31
0.0
  0
LINE
  5
13C60
  8
0
 10
160.49999978393311
 20
-270.15252430321652
 30
0.0
 11
160.80000020563591
 21
-270.45252425925798
 31
0.0
  0
LINE
  5
13C61
  8
0
 10
160.80000020563591
 20
-270.45252425925798
 30
0.0
 11
163.49999981001011
 21
-270.45252425925798
 31
0.0
  0
LINE
  5
13C62
  8
0
 10
171.50000018998969
 20
-270.45252425925798
 30
0.0
 11
174.19999979436389
 21
-270.45252425925798
 31
0.0
  0
LINE
  5
13C63
  8
0
 10
174.19999979436389
 20
-266.45252418568361
 30
0.0
 11
171.50000018998969
 21
-266.45252418568361
 31
0.0
  0
LINE
  5
13C64
  8
0
 10
163.49999981001011
 20
-266.45252418568361
 30
0.0
 11
160.80000020563591
 21
-266.45252418568361
 31
0.0
  0
LINE
  5
13C65
  8
0
 10
174.19999979436389
 20
-270.45252425925798
 30
0.0
 11
174.50000021606681
 21
-270.15252430321652
 31
0.0
  0
LINE
  5
13C66
  8
0
 10
174.50000021606681
 20
-266.75252437455578
 30
0.0
 11
174.19999979436389
 21
-266.45252418568361
 31
0.0
  0
LINE
  5
13C67
  8
0
 10
171.50000018998969
 20
-266.45252418568361
 30
0.0
 11
171.50000018998969
 21
-262.3495326036774
 31
0.0
  0
LINE
  5
13C68
  8
0
 10
171.50000018998969
 20
-270.95252422479911
 30
0.0
 11
171.50000018998969
 21
-270.45252425925798
 31
0.0
  0
LINE
  5
13C69
  8
0
 10
163.49999981001011
 20
-270.45252425925798
 30
0.0
 11
163.49999981001011
 21
-270.95252422479911
 31
0.0
  0
LINE
  5
13C6A
  8
0
 10
163.49999981001011
 20
-262.3495326036774
 30
0.0
 11
163.49999981001011
 21
-266.45252418568361
 31
0.0
  0
LINE
  5
13C6B
  8
0
 10
163.49999981001011
 20
-270.95252422479911
 30
0.0
 11
164.94337564334259
 21
-273.4525244017504
 31
0.0
  0
LINE
  5
13C6C
  8
0
 10
170.05662435665721
 20
-273.4525244017504
 30
0.0
 11
171.50000018998969
 21
-270.95252422479911
 31
0.0
  0
LINE
  5
13C6D
  8
0
 10
150.49999907612789
 20
-256.34953255152328
 30
0.0
 11
151.00000008940691
 21
-256.84953263347973
 31
0.0
  0
LINE
  5
13C6E
  8
0
 10
183.99999991059289
 20
-256.84953263347973
 30
0.0
 11
184.50000092387191
 21
-256.34953255152328
 31
0.0
  0
ARC
  5
13C6F
  8
0
 10
151.49999999999989
 20
-250.18852447442751
 30
0.0
 40
1.0
 50
110.0000000000018
 51
180.0
  0
ARC
  5
13C70
  8
0
 10
183.49999999999989
 20
-250.18852447442751
 30
0.0
 40
1.0
 50
0.0
 51
69.999999999998238
  0
LINE
  5
13C71
  8
0
 10
184.50000092387191
 20
-256.34953255152328
 30
0.0
 11
184.50000092387191
 21
-250.1885235900246
 31
0.0
  0
LINE
  5
13C72
  8
0
 10
150.49999907612789
 20
-250.1885235900246
 30
0.0
 11
150.49999907612789
 21
-256.34953255152328
 31
0.0
  0
LINE
  5
13C73
  8
0
 10
183.8420196622609
 20
-249.2488321507536
 30
0.0
 11
177.25000020116559
 21
-246.84953285699709
 31
0.0
  0
LINE
  5
13C74
  8
0
 10
157.74999979883421
 20
-246.84953285699709
 30
0.0
 11
151.15798033773891
 21
-249.2488321507536
 31
0.0
  0
LINE
  5
13C79
  8
0
 10
158.50000038743011
 20
-261.34953290542592
 30
0.0
 11
159.4999996200203
 21
-262.3495326036774
 31
0.0
  0
LINE
  5
13C7D
  8
0
 10
160.80000020563591
 20
-266.45252418568361
 30
0.0
 11
160.80000020563591
 21
-270.45252425925798
 31
0.0
  0
LINE
  5
13C7F
  8
0
 10
160.49999978393311
 20
-270.15252430321652
 30
0.0
 11
160.49999978393311
 21
-266.75252437455578
 31
0.0
  0
LINE
  5
13C81
  8
0
 10
174.19999979436389
 20
-270.45252425925798
 30
0.0
 11
174.19999979436389
 21
-266.45252418568361
 31
0.0
  0
LINE
  5
13C82
  8
0
 10
174.50000021606681
 20
-266.75252437455578
 30
0.0
 11
174.50000021606681
 21
-270.15252430321652
 31
0.0
  0
POLYLINE
  5
13C83
  8
0
 66
     1
 10
0.0
 20
0.0
 30
0.0
 70
   128
  0
VERTEX
  5
141BB
  8
0
 10
171.49672705680121
 20
-266.45908139510078
 30
0.0
  0
VERTEX
  5
141BC
  8
0
 10
171.49825675413001
 20
-266.45601338570941
 30
0.0
  0
VERTEX
  5
141BD
  8
0
 10
171.43657758831969
 20
-266.58259339494629
 30
0.0
  0
VERTEX
  5
141BE
  8
0
 10
171.30482967011619
 20
-266.87876165708531
 30
0.0
  0
VERTEX
  5
141BF
  8
0
 10
171.13226188346741
 20
-267.36012923395259
 30
0.0
  0
VERTEX
  5
141C0
  8
0
 10
171.05262076482171
 20
-267.66441653346641
 30
0.0
  0
VERTEX
  5
141C1
  8
0
 10
170.99252019077531
 20
-268.00789237352092
 30
0.0
  0
VERTEX
  5
141C2
  8
0
 10
170.96630625426761
 20
-268.32891751876099
 30
0.0
  0
VERTEX
  5
141C3
  8
0
 10
170.97068021073929
 20
-268.66611387270041
 30
0.0
  0
VERTEX
  5
141C4
  8
0
 10
171.05034437961871
 20
-269.23030625077888
 30
0.0
  0
VERTEX
  5
141C5
  8
0
 10
171.1958588752895
 20
-269.74069084137682
 30
0.0
  0
VERTEX
  5
141C6
  8
0
 10
171.28422997891889
 20
-269.97580875506623
 30
0.0
  0
VERTEX
  5
141C7
  8
0
 10
171.36850791983301
 20
-270.17454437775541
 30
0.0
  0
VERTEX
  5
141C8
  8
0
 10
171.43703719601029
 20
-270.32342281056572
 30
0.0
  0
VERTEX
  5
141C9
  8
0
 10
171.48377049714321
 20
-270.41986428996552
 30
0.0
  0
VERTEX
  5
141CA
  8
0
 10
171.4997659623622
 20
-270.45205650249488
 30
0.0
  0
VERTEX
  5
141CB
  8
0
 10
171.49845698848361
 20
-270.44942772811282
 30
0.0
  0
SEQEND
  5
141CC
  8
0
  0
POLYLINE
  5
13C84
  8
0
 66
     1
 10
0.0
 20
0.0
 30
0.0
 70
   128
  0
VERTEX
  5
141CD
  8
0
 10
163.5032729431986
 20
-270.44596728267152
 30
0.0
  0
VERTEX
  5
141CE
  8
0
 10
163.50174324586979
 20
-270.44903517564762
 30
0.0
  0
VERTEX
  5
141CF
  8
0
 10
163.56342241168011
 20
-270.32245516641058
 30
0.0
  0
VERTEX
  5
141D0
  8
0
 10
163.69517032988361
 20
-270.02628702068699
 30
0.0
  0
VERTEX
  5
141D1
  8
0
 10
163.86773811653251
 20
-269.54491938561199
 30
0.0
  0
VERTEX
  5
141D2
  8
0
 10
163.94737923517809
 20
-269.2406320569944
 30
0.0
  0
VERTEX
  5
141D3
  8
0
 10
164.00747980922449
 20
-268.89715620238798
 30
0.0
  0
VERTEX
  5
141D4
  8
0
 10
164.03369374573219
 20
-268.57613110080359
 30
0.0
  0
VERTEX
  5
141D5
  8
0
 10
164.02931978926051
 20
-268.23893470320849
 30
0.0
  0
VERTEX
  5
141D6
  8
0
 10
163.94965562038121
 20
-267.67474233968181
 30
0.0
  0
VERTEX
  5
141D7
  8
0
 10
163.80414112471041
 20
-267.16435777818782
 30
0.0
  0
VERTEX
  5
141D8
  8
0
 10
163.71577002108091
 20
-266.9292398062907
 30
0.0
  0
VERTEX
  5
141D9
  8
0
 10
163.63149208016691
 20
-266.73050418360162
 30
0.0
  0
VERTEX
  5
141DA
  8
0
 10
163.56296280398959
 20
-266.58162575079132
 30
0.0
  0
VERTEX
  5
141DB
  8
0
 10
163.51622950285659
 20
-266.48518427139152
 30
0.0
  0
VERTEX
  5
141DC
  8
0
 10
163.5002340376376
 20
-266.45299194244672
 30
0.0
  0
VERTEX
  5
141DD
  8
0
 10
163.50154301151619
 20
-266.45562083324421
 30
0.0
  0
SEQEND
  5
141DE
  8
0
  0
LINE
  5
13C85
  8
0
 10
163.49999981001011
 20
-270.95252422479911
 30
0.0
 11
171.50000018998969
 21
-270.95252422479911
 31
0.0
  0
LINE
  5
13C86
  8
0
 10
170.05662435665721
 20
-273.4525244017504
 30
0.0
 11
164.94337564334259
 21
-273.4525244017504
 31
0.0
  0
LINE
  5
13C88
  8
0
 10
177.25000020116559
 20
-246.84953285699709
 30
0.0
 11
157.74999979883421
 21
-246.84953285699709
 31
0.0
  0
LINE
  5
13C93
  8
0
 10
158.50000038743011
 20
-261.34953290542592
 30
0.0
 11
176.4999996125697
 21
-261.34953290542592
 31
0.0
  0
LINE
  5
13C95
  8
0
 10
151.15798033773891
 20
-249.2488321507536
 30
0.0
 11
183.8420196622609
 21
-249.2488321507536
 31
0.0
  0
LINE
  5
13C96
  8
1
 10
167.49999999999989
 20
-236.47952419536929
 30
0.0
 11
167.49999999999989
 21
-278.4525244017504
 31
0.0
  0
LINE
  5
13C97
  8
1
 10
176.50000021606681
 20
-268.45252429967741
 30
0.0
 11
158.49999978393311
 21
-268.45252429967741
 31
0.0
  0
LINE
  5
13CA4
  8
0
 10
174.99999983236191
 20
-246.3525234056078
 30
0.0
 11
174.50000021606681
 21
-245.85252425497401
 31
0.0
  0
LINE
  5
13CA5
  8
0
 10
160.49999978393299
 20
-245.85252425497401
 30
0.0
 11
160.00000016763789
 21
-246.3525234056078
 31
0.0
  0
LINE
  5
13CA6
  8
0
 10
174.99999983236191
 20
-246.84953285699709
 30
0.0
 11
174.99999983236191
 21
-246.3525234056078
 31
0.0
  0
LINE
  5
13CA7
  8
0
 10
160.00000016763789
 20
-246.3525234056078
 30
0.0
 11
160.00000016763789
 21
-246.84953285699709
 31
0.0
  0
LINE
  5
13CA8
  8
0
 10
167.6536036434116
 20
-241.47953263347969
 30
0.0
 11
167.34639635658809
 21
-241.47953263347969
 31
0.0
  0
LINE
  5
13CA9
  8
0
 10
170.63033047132191
 20
-244.952523921188
 30
0.0
 11
170.63033047132191
 21
-242.09829776411871
 31
0.0
  0
ARC
  5
13CAA
  8
0
 10
170.0308796776273
 20
-242.15416623770619
 30
0.0
 40
0.6020486196330923
 50
5.3245530702995936
 51
94.040151905793564
  0
POLYLINE
  5
13CAB
  8
0
 66
     1
 10
0.0
 20
0.0
 30
0.0
 70
   128
  0
VERTEX
  5
141DF
  8
0
 10
165.09690300561471
 20
-241.54461718028409
 30
0.0
  0
VERTEX
  5
141E0
  8
0
 10
164.96758746914551
 20
-241.55800773626191
 30
0.0
  0
VERTEX
  5
141E1
  8
0
 10
164.80312032625071
 20
-241.5867464882694
 30
0.0
  0
VERTEX
  5
141E2
  8
0
 10
164.7305318806319
 20
-241.60794897800309
 30
0.0
  0
VERTEX
  5
141E3
  8
0
 10
164.65631525032211
 20
-241.6394202304445
 30
0.0
  0
VERTEX
  5
141E4
  8
0
 10
164.56962541677041
 20
-241.6940851402841
 30
0.0
  0
VERTEX
  5
141E5
  8
0
 10
164.48128201998759
 20
-241.78096636062489
 30
0.0
  0
VERTEX
  5
141E6
  8
0
 10
164.40875154919911
 20
-241.90364948337901
 30
0.0
  0
VERTEX
  5
141E7
  8
0
 10
164.3720411416142
 20
-242.05194397693501
 30
0.0
  0
VERTEX
  5
141E8
  8
0
 10
164.36966952867789
 20
-242.09825119799001
 30
0.0
  0
SEQEND
  5
141E9
  8
0
  0
LINE
  5
13CAC
  8
0
 10
164.36966952867789
 20
-242.09825119799001
 30
0.0
 11
164.36966952867789
 21
-244.952523921188
 31
0.0
  0
ARC
  5
13CAD
  8
0
 10
170.13033036824839
 20
-244.95252429967749
 30
0.0
 40
0.5
 50
270.0
 51
0.0
  0
ARC
  5
13CAE
  8
0
 10
164.86966963175129
 20
-244.95252429967749
 30
0.0
 40
0.5
 50
180.0
 51
270.0
  0
ARC
  5
13CAF
  8
0
 10
167.49999999999989
 20
-297.95252429967752
 30
0.0
 40
56.500000000000021
 50
94.822326350222767
 51
97.180755781458274
  0
ARC
  5
13CB0
  8
0
 10
167.49999999999989
 20
-297.95252429967752
 30
0.0
 40
56.500000000000021
 50
82.819244218541726
 51
85.177673649777233
  0
ARC
  5
13CB1
  8
0
 10
160.5
 20
-242.39174676732111
 30
0.0
 40
0.5000000000000071
 50
97.180755781464853
 51
180.0
  0
ARC
  5
13CB2
  8
0
 10
160.49999999999989
 20
-244.95252429967749
 30
0.0
 40
0.5
 50
180.0
 51
270.0
  0
LINE
  5
13CB3
  8
0
 10
160.00000016763789
 20
-242.39174633150921
 30
0.0
 11
160.00000016763789
 21
-244.952523921188
 31
0.0
  0
ARC
  5
13CB4
  8
0
 10
174.5
 20
-244.95252429967749
 30
0.0
 40
0.5
 50
270.0
 51
0.0
  0
LINE
  5
13CB5
  8
0
 10
174.99999983236191
 20
-244.952523921188
 30
0.0
 11
174.99999983236191
 21
-242.39174633150921
 31
0.0
  0
ARC
  5
13CB6
  8
0
 10
174.5
 20
-242.39174676732111
 30
0.0
 40
0.5
 50
0.0
 51
82.819244218535147
  0
ARC
  5
13CB7
  8
0
 10
173.09999999999991
 20
-246.45252429967749
 30
0.0
 40
1.0000000000000051
 50
90.0
 51
143.1301023541584
  0
ARC
  5
13CB8
  8
0
 10
161.89999999999981
 20
-246.45252429967749
 30
0.0
 40
1.0
 50
36.869897645845981
 51
90.0
  0
LINE
  5
13CB9
  8
0
 10
160.49999978393299
 20
-245.85252425497401
 30
0.0
 11
174.50000021606681
 21
-245.85252425497401
 31
0.0
  0
ARC
  5
13CBA
  8
0
 10
168.02978021858749
 20
-266.4549478188016
 30
0.0
 40
24.97824798689696
 50
85.502505575421765
 51
90.862916604501976
  0
ARC
  5
13CBB
  8
0
 10
167.0790751627508
 20
-271.1469577573481
 30
0.0
 40
29.668629461116119
 50
89.483744827163534
 51
93.830805809563927
  0
LINE
  5
13CBC
  8
0
 10
170.36377236997799
 20
-241.65252393906931
 30
0.0
 11
172.24973674863571
 21
-241.65252393906931
 31
0.0
  0
LINE
  5
13CBD
  8
0
 10
162.75026325136409
 20
-241.65252393906931
 30
0.0
 11
164.61947422474611
 21
-241.65252393906931
 31
0.0
  0
LINE
  5
13CBE
  8
0
 10
174.5
 20
-245.45252429967749
 30
0.0
 11
160.49999978393299
 21
-245.45252493446691
 31
0.0
  0
LINE
  5
13CBF
  8
0
 10
170.5746086788711
 20
-241.8956680489145
 30
0.0
 11
174.56249987706539
 21
-241.8956680489145
 31
0.0
  0
LINE
  5
13CC0
  8
0
 10
160.43750012293441
 20
-241.8956680489145
 30
0.0
 11
164.40141831524659
 21
-241.8956680489145
 31
0.0
  0
LINE
  5
13D3E
  8
0
 10
184.50000092387191
 20
-259.34953257760043
 30
0.0
 11
184.50000092387191
 21
-257.34953271543611
 31
0.0
  0
LINE
  5
13D3F
  8
0
 10
183.99999991059289
 20
-259.84953265955681
 30
0.0
 11
184.50000092387191
 21
-259.34953257760043
 31
0.0
  0
LINE
  5
13D40
  8
0
 10
184.50000092387191
 20
-257.34953271543611
 30
0.0
 11
183.99999991059289
 21
-256.84953263347973
 31
0.0
  0
LINE
  5
13D42
  8
0
 10
150.49999907612789
 20
-257.34953271543611
 30
0.0
 11
150.49999907612789
 21
-259.34953257760031
 31
0.0
  0
LINE
  5
13D44
  8
0
 10
150.49999907612789
 20
-259.34953257760031
 30
0.0
 11
151.00000008940691
 21
-259.8495326595567
 31
0.0
  0
LINE
  5
13D46
  8
0
 10
151.00000008940691
 20
-256.84953263347973
 30
0.0
 11
183.99999991059289
 21
-256.84953263347973
 31
0.0
  0
LINE
  5
13D47
  8
0
 10
151.00000008940691
 20
-256.84953263347973
 30
0.0
 11
150.49999907612789
 21
-257.34953271543611
 31
0.0
  0
LINE
  5
13D4C
  8
1
 10
153.49999999999989
 20
-254.8495326334797
 30
0.0
 11
153.49999999999989
 21
-264.8495326595567
 31
0.0
  0
LINE
  5
13D84
  8
0
 10
155.0
 20
-261.1495326856338
 30
0.0
 11
151.99999999999989
 21
-261.14953268563369
 31
0.0
  0
LINE
  5
13D85
  8
0
 10
156.49999999999989
 20
-262.6495326856338
 30
0.0
 11
154.99999999999989
 21
-261.1495326856338
 31
0.0
  0
LINE
  5
13D87
  8
0
 10
156.49999999999989
 20
-262.6495326856338
 30
0.0
 11
156.49999999999989
 21
-262.84953268563379
 31
0.0
  0
LINE
  5
13D88
  8
0
 10
150.49999999999989
 20
-262.6495326856338
 30
0.0
 11
156.49999999999989
 21
-262.6495326856338
 31
0.0
  0
LINE
  5
13D89
  8
0
 10
150.49999999999989
 20
-262.6495326856338
 30
0.0
 11
151.99999999999989
 21
-261.1495326856338
 31
0.0
  0
LINE
  5
13D8A
  8
0
 10
150.49999999999989
 20
-262.84953268563379
 30
0.0
 11
150.49999999999989
 21
-262.6495326856338
 31
0.0
  0
LINE
  5
13D8B
  8
0
 10
151.99999999999989
 20
-261.1495326856338
 30
0.0
 11
151.99999999999989
 21
-259.8495326595567
 31
0.0
  0
LINE
  5
13D8F
  8
0
 10
154.99999999999989
 20
-259.8495326595567
 30
0.0
 11
154.99999999999989
 21
-261.1495326856338
 31
0.0
  0
LINE
  5
13D93
  8
0
 10
152.0
 20
-260.68101294218769
 30
0.0
 11
154.99999999999989
 21
-260.68101294218769
 31
0.0
  0
LINE
  5
13D94
  8
3
 10
152.2704999999992
 20
-260.68101294218769
 30
0.0
 11
152.2704999999992
 21
-259.8495326595567
 31
0.0
  0
LINE
  5
13D96
  8
3
 10
152.2704999999992
 20
-260.68101294218769
 30
0.0
 11
151.99999999999989
 21
-261.1495326856338
 31
0.0
  0
LINE
  5
13D97
  8
3
 10
154.72950000000071
 20
-260.68101294218769
 30
0.0
 11
154.99999999999989
 21
-261.1495326856338
 31
0.0
  0
LINE
  5
13D98
  8
3
 10
154.72950000000071
 20
-260.68101294218769
 30
0.0
 11
154.72950000000071
 21
-259.8495326595567
 31
0.0
  0
LINE
  5
13DA6
  8
0
 10
339.50000092387199
 20
-261.34953257760043
 30
0.0
 11
339.50000092387199
 21
-259.34953271543611
 31
0.0
  0
LINE
  5
13DA7
  8
0
 10
338.99999991059309
 20
-261.8495326595567
 30
0.0
 11
339.50000092387199
 21
-261.34953257760043
 31
0.0
  0
LINE
  5
13DA8
  8
0
 10
339.50000092387199
 20
-259.34953271543611
 30
0.0
 11
338.99999991059309
 21
-258.84953263347973
 31
0.0
  0
LINE
  5
13DAA
  8
0
 10
305.49999907612812
 20
-259.34953271543611
 30
0.0
 11
305.49999907612812
 21
-261.34953257760031
 31
0.0
  0
LINE
  5
13DAC
  8
0
 10
305.49999907612812
 20
-261.34953257760031
 30
0.0
 11
306.00000008940702
 21
-261.8495326595567
 31
0.0
  0
LINE
  5
13DAE
  8
0
 10
306.00000008940702
 20
-258.84953263347973
 30
0.0
 11
338.99999991059309
 21
-258.84953263347973
 31
0.0
  0
LINE
  5
13DAF
  8
0
 10
306.00000008940702
 20
-258.84953263347973
 30
0.0
 11
305.49999907612812
 21
-259.34953271543611
 31
0.0
  0
LINE
  5
13DB1
  8
1
 10
308.50000000000011
 20
-256.84953263347973
 30
0.0
 11
308.50000000000011
 21
-266.8495326595567
 31
0.0
  0
LINE
  5
13DB2
  8
0
 10
310.00000000000011
 20
-263.1495326856338
 30
0.0
 11
307.00000000000011
 21
-263.14953268563369
 31
0.0
  0
LINE
  5
13DB3
  8
0
 10
311.50000000000011
 20
-264.6495326856338
 30
0.0
 11
310.0
 21
-263.1495326856338
 31
0.0
  0
LINE
  5
13DB5
  8
0
 10
311.50000000000011
 20
-264.6495326856338
 30
0.0
 11
311.50000000000011
 21
-264.84953268563379
 31
0.0
  0
LINE
  5
13DB6
  8
0
 10
305.50000000000011
 20
-264.6495326856338
 30
0.0
 11
311.50000000000011
 21
-264.6495326856338
 31
0.0
  0
LINE
  5
13DB7
  8
0
 10
305.50000000000011
 20
-264.6495326856338
 30
0.0
 11
307.00000000000011
 21
-263.1495326856338
 31
0.0
  0
LINE
  5
13DB8
  8
0
 10
305.50000000000011
 20
-264.84953268563379
 30
0.0
 11
305.50000000000011
 21
-264.6495326856338
 31
0.0
  0
LINE
  5
13DB9
  8
0
 10
307.00000000000011
 20
-263.14953268563369
 30
0.0
 11
307.00000000000011
 21
-261.8495326595567
 31
0.0
  0
LINE
  5
13DBD
  8
0
 10
310.0
 20
-261.8495326595567
 30
0.0
 11
310.0
 21
-263.1495326856338
 31
0.0
  0
LINE
  5
13DC1
  8
0
 10
307.00000000000011
 20
-262.68101294218769
 30
0.0
 11
310.0
 21
-262.68101294218769
 31
0.0
  0
LINE
  5
13DC2
  8
3
 10
307.27049999999929
 20
-262.68101294218769
 30
0.0
 11
307.27049999999929
 21
-261.8495326595567
 31
0.0
  0
LINE
  5
13DC4
  8
3
 10
307.27049999999929
 20
-262.68101294218769
 30
0.0
 11
307.00000000000011
 21
-263.1495326856338
 31
0.0
  0
LINE
  5
13DC5
  8
3
 10
309.72950000000083
 20
-262.68101294218769
 30
0.0
 11
310.0
 21
-263.1495326856338
 31
0.0
  0
LINE
  5
13DC6
  8
3
 10
309.72950000000083
 20
-262.68101294218769
 30
0.0
 11
309.72950000000083
 21
-261.8495326595567
 31
0.0
  0
LINE
  5
13DD0
  8
0
 10
315.80000020563608
 20
-268.45252418568361
 30
0.0
 11
315.49999978393322
 21
-268.75252437455578
 31
0.0
  0
LINE
  5
13DD1
  8
0
 10
315.49999978393322
 20
-272.15252430321652
 30
0.0
 11
315.80000020563608
 21
-272.45252425925798
 31
0.0
  0
LINE
  5
13DD2
  8
0
 10
315.80000020563608
 20
-272.45252425925798
 30
0.0
 11
318.49999981001019
 21
-272.45252425925798
 31
0.0
  0
LINE
  5
13DD3
  8
0
 10
326.50000018998992
 20
-272.45252425925798
 30
0.0
 11
329.19999979436398
 21
-272.45252425925798
 31
0.0
  0
LINE
  5
13DD4
  8
0
 10
329.19999979436398
 20
-268.45252418568361
 30
0.0
 11
326.50000018998992
 21
-268.45252418568361
 31
0.0
  0
LINE
  5
13DD5
  8
0
 10
318.49999981001019
 20
-268.45252418568361
 30
0.0
 11
315.80000020563608
 21
-268.45252418568361
 31
0.0
  0
LINE
  5
13DD6
  8
0
 10
329.19999979436398
 20
-272.45252425925798
 30
0.0
 11
329.50000021606689
 21
-272.15252430321652
 31
0.0
  0
LINE
  5
13DD7
  8
0
 10
329.50000021606689
 20
-268.75252437455578
 30
0.0
 11
329.19999979436398
 21
-268.45252418568361
 31
0.0
  0
LINE
  5
13DD8
  8
0
 10
326.50000018998992
 20
-268.45252418568361
 30
0.0
 11
326.50000018998992
 21
-264.3495326036774
 31
0.0
  0
LINE
  5
13DD9
  8
0
 10
326.50000018998992
 20
-272.95252422479911
 30
0.0
 11
326.50000018998992
 21
-272.45252425925798
 31
0.0
  0
LINE
  5
13DDA
  8
0
 10
318.49999981001019
 20
-272.45252425925798
 30
0.0
 11
318.49999981001019
 21
-272.95252422479911
 31
0.0
  0
LINE
  5
13DDB
  8
0
 10
318.49999981001019
 20
-264.3495326036774
 30
0.0
 11
318.49999981001019
 21
-268.45252418568361
 31
0.0
  0
LINE
  5
13DDC
  8
0
 10
318.49999981001019
 20
-272.95252422479911
 30
0.0
 11
319.94337564334279
 21
-275.4525244017504
 31
0.0
  0
LINE
  5
13DDD
  8
0
 10
325.05662435665732
 20
-275.4525244017504
 30
0.0
 11
326.50000018998992
 21
-272.95252422479911
 31
0.0
  0
LINE
  5
13DDE
  8
0
 10
305.49999907612812
 20
-258.34953255152328
 30
0.0
 11
306.00000008940702
 21
-258.84953263347973
 31
0.0
  0
LINE
  5
13DDF
  8
0
 10
338.99999991059309
 20
-258.84953263347973
 30
0.0
 11
339.50000092387199
 21
-258.34953255152328
 31
0.0
  0
ARC
  5
13DE0
  8
0
 10
306.50000000000011
 20
-252.18852447442751
 30
0.0
 40
1.0
 50
110.0
 51
180.0
  0
ARC
  5
13DE1
  8
0
 10
338.50000000000011
 20
-252.18852447442751
 30
0.0
 40
1.0
 50
0.0
 51
69.999999999999872
  0
LINE
  5
13DE2
  8
0
 10
339.50000092387199
 20
-258.34953255152328
 30
0.0
 11
339.50000092387199
 21
-252.1885235900246
 31
0.0
  0
LINE
  5
13DE3
  8
0
 10
305.49999907612812
 20
-252.1885235900246
 30
0.0
 11
305.49999907612812
 21
-258.34953255152328
 31
0.0
  0
LINE
  5
13DE4
  8
0
 10
338.84201966226112
 20
-251.2488321507536
 30
0.0
 11
332.25000020116568
 21
-248.84953285699709
 31
0.0
  0
LINE
  5
13DE5
  8
0
 10
312.74999979883438
 20
-248.84953285699709
 30
0.0
 11
306.15798033773899
 21
-251.2488321507536
 31
0.0
  0
LINE
  5
13DEA
  8
0
 10
313.50000038743019
 20
-263.34953290542592
 30
0.0
 11
314.49999962002039
 21
-264.3495326036774
 31
0.0
  0
LINE
  5
13DEE
  8
0
 10
315.80000020563608
 20
-268.45252418568361
 30
0.0
 11
315.80000020563608
 21
-272.45252425925798
 31
0.0
  0
LINE
  5
13DF0
  8
0
 10
315.49999978393322
 20
-272.15252430321652
 30
0.0
 11
315.49999978393322
 21
-268.75252437455578
 31
0.0
  0
LINE
  5
13DF2
  8
0
 10
329.19999979436398
 20
-272.45252425925798
 30
0.0
 11
329.19999979436398
 21
-268.45252418568361
 31
0.0
  0
LINE
  5
13DF3
  8
0
 10
329.50000021606689
 20
-268.75252437455578
 30
0.0
 11
329.50000021606689
 21
-272.15252430321652
 31
0.0
  0
POLYLINE
  5
13DF4
  8
0
 66
     1
 10
0.0
 20
0.0
 30
0.0
 70
   128
  0
VERTEX
  5
141EA
  8
0
 10
326.49672705680138
 20
-268.45908139510078
 30
0.0
  0
VERTEX
  5
141EB
  8
0
 10
326.49825675413018
 20
-268.45601338570941
 30
0.0
  0
VERTEX
  5
141EC
  8
0
 10
326.43657758831978
 20
-268.58259339494629
 30
0.0
  0
VERTEX
  5
141ED
  8
0
 10
326.30482967011642
 20
-268.87876165708531
 30
0.0
  0
VERTEX
  5
141EE
  8
0
 10
326.13226188346749
 20
-269.36012923395259
 30
0.0
  0
VERTEX
  5
141EF
  8
0
 10
326.05262076482182
 20
-269.66441653346641
 30
0.0
  0
VERTEX
  5
141F0
  8
0
 10
325.99252019077539
 20
-270.00789237352092
 30
0.0
  0
VERTEX
  5
141F1
  8
0
 10
325.96630625426769
 20
-270.32891751876099
 30
0.0
  0
VERTEX
  5
141F2
  8
0
 10
325.97068021073937
 20
-270.66611387270041
 30
0.0
  0
VERTEX
  5
141F3
  8
0
 10
326.05034437961882
 20
-271.23030625077888
 30
0.0
  0
VERTEX
  5
141F4
  8
0
 10
326.19585887528962
 20
-271.74069084137682
 30
0.0
  0
VERTEX
  5
141F5
  8
0
 10
326.28422997891909
 20
-271.97580875506623
 30
0.0
  0
VERTEX
  5
141F6
  8
0
 10
326.36850791983312
 20
-272.17454437775541
 30
0.0
  0
VERTEX
  5
141F7
  8
0
 10
326.43703719601041
 20
-272.32342281056572
 30
0.0
  0
VERTEX
  5
141F8
  8
0
 10
326.48377049714333
 20
-272.41986428996552
 30
0.0
  0
VERTEX
  5
141F9
  8
0
 10
326.49976596236229
 20
-272.45205650249488
 30
0.0
  0
VERTEX
  5
141FA
  8
0
 10
326.49845698848372
 20
-272.44942772811282
 30
0.0
  0
SEQEND
  5
141FB
  8
0
  0
POLYLINE
  5
13DF5
  8
0
 66
     1
 10
0.0
 20
0.0
 30
0.0
 70
   128
  0
VERTEX
  5
141FC
  8
0
 10
318.50327294319868
 20
-272.44596728267152
 30
0.0
  0
VERTEX
  5
141FD
  8
0
 10
318.50174324586987
 20
-272.44903517564762
 30
0.0
  0
VERTEX
  5
141FE
  8
0
 10
318.56342241168028
 20
-272.32245516641058
 30
0.0
  0
VERTEX
  5
141FF
  8
0
 10
318.69517032988369
 20
-272.02628702068699
 30
0.0
  0
VERTEX
  5
14200
  8
0
 10
318.86773811653262
 20
-271.54491938561199
 30
0.0
  0
VERTEX
  5
14201
  8
0
 10
318.94737923517829
 20
-271.2406320569944
 30
0.0
  0
VERTEX
  5
14202
  8
0
 10
319.00747980922472
 20
-270.89715620238798
 30
0.0
  0
VERTEX
  5
14203
  8
0
 10
319.03369374573242
 20
-270.57613110080359
 30
0.0
  0
VERTEX
  5
14204
  8
0
 10
319.02931978926068
 20
-270.23893470320849
 30
0.0
  0
VERTEX
  5
14205
  8
0
 10
318.94965562038129
 20
-269.67474233968181
 30
0.0
  0
VERTEX
  5
14206
  8
0
 10
318.8041411247105
 20
-269.16435777818782
 30
0.0
  0
VERTEX
  5
14207
  8
0
 10
318.71577002108103
 20
-268.9292398062907
 30
0.0
  0
VERTEX
  5
14208
  8
0
 10
318.63149208016699
 20
-268.73050418360162
 30
0.0
  0
VERTEX
  5
14209
  8
0
 10
318.56296280398971
 20
-268.58162575079132
 30
0.0
  0
VERTEX
  5
1420A
  8
0
 10
318.51622950285679
 20
-268.48518427139152
 30
0.0
  0
VERTEX
  5
1420B
  8
0
 10
318.50023403763782
 20
-268.45299194244672
 30
0.0
  0
VERTEX
  5
1420C
  8
0
 10
318.50154301151639
 20
-268.45562083324421
 30
0.0
  0
SEQEND
  5
1420D
  8
0
  0
LINE
  5
13DF6
  8
0
 10
318.49999981001019
 20
-272.95252422479911
 30
0.0
 11
326.50000018998992
 21
-272.95252422479911
 31
0.0
  0
LINE
  5
13DF7
  8
0
 10
325.05662435665732
 20
-275.4525244017504
 30
0.0
 11
319.94337564334279
 21
-275.4525244017504
 31
0.0
  0
LINE
  5
13DF9
  8
0
 10
332.25000020116568
 20
-248.84953285699709
 30
0.0
 11
312.74999979883438
 21
-248.84953285699709
 31
0.0
  0
LINE
  5
13E04
  8
0
 10
313.50000038743019
 20
-263.34953290542592
 30
0.0
 11
331.49999961256992
 21
-263.34953290542592
 31
0.0
  0
LINE
  5
13E06
  8
0
 10
306.15798033773899
 20
-251.2488321507536
 30
0.0
 11
338.84201966226101
 21
-251.2488321507536
 31
0.0
  0
LINE
  5
13E07
  8
1
 10
322.5
 20
-238.47952419536929
 30
0.0
 11
322.5
 21
-280.4525244017504
 31
0.0
  0
LINE
  5
13E08
  8
1
 10
331.50000021606689
 20
-270.45252429967741
 30
0.0
 11
313.49999978393322
 21
-270.45252429967741
 31
0.0
  0
LINE
  5
13E15
  8
0
 10
329.99999983236199
 20
-248.3525234056078
 30
0.0
 11
329.50000021606689
 21
-247.85252425497401
 31
0.0
  0
LINE
  5
13E16
  8
0
 10
315.49999978393322
 20
-247.85252425497401
 30
0.0
 11
315.00000016763812
 21
-248.3525234056078
 31
0.0
  0
LINE
  5
13E17
  8
0
 10
329.99999983236199
 20
-248.84953285699709
 30
0.0
 11
329.99999983236199
 21
-248.3525234056078
 31
0.0
  0
LINE
  5
13E18
  8
0
 10
315.00000016763812
 20
-248.3525234056078
 30
0.0
 11
315.00000016763812
 21
-248.84953285699709
 31
0.0
  0
LINE
  5
13E19
  8
0
 10
322.65360364341183
 20
-243.47953263347969
 30
0.0
 11
322.34639635658829
 21
-243.47953263347969
 31
0.0
  0
LINE
  5
13E1A
  8
0
 10
325.630330471322
 20
-246.952523921188
 30
0.0
 11
325.630330471322
 21
-244.09829776411871
 31
0.0
  0
ARC
  5
13E1B
  8
0
 10
325.03087967762741
 20
-244.15416623770619
 30
0.0
 40
0.6020486196330923
 50
5.3245530702995936
 51
94.040151905793564
  0
POLYLINE
  5
13E1C
  8
0
 66
     1
 10
0.0
 20
0.0
 30
0.0
 70
   128
  0
VERTEX
  5
1420E
  8
0
 10
320.09690300561488
 20
-243.54461718028409
 30
0.0
  0
VERTEX
  5
1420F
  8
0
 10
319.96758746914571
 20
-243.55800773626191
 30
0.0
  0
VERTEX
  5
14210
  8
0
 10
319.80312032625079
 20
-243.5867464882694
 30
0.0
  0
VERTEX
  5
14211
  8
0
 10
319.7305318806321
 20
-243.60794897800309
 30
0.0
  0
VERTEX
  5
14212
  8
0
 10
319.65631525032228
 20
-243.6394202304445
 30
0.0
  0
VERTEX
  5
14213
  8
0
 10
319.56962541677058
 20
-243.6940851402841
 30
0.0
  0
VERTEX
  5
14214
  8
0
 10
319.48128201998782
 20
-243.78096636062489
 30
0.0
  0
VERTEX
  5
14215
  8
0
 10
319.40875154919928
 20
-243.90364948337901
 30
0.0
  0
VERTEX
  5
14216
  8
0
 10
319.37204114161437
 20
-244.05194397693501
 30
0.0
  0
VERTEX
  5
14217
  8
0
 10
319.36966952867812
 20
-244.09825119799001
 30
0.0
  0
SEQEND
  5
14218
  8
0
  0
LINE
  5
13E1D
  8
0
 10
319.36966952867812
 20
-244.09825119799001
 30
0.0
 11
319.36966952867812
 21
-246.952523921188
 31
0.0
  0
ARC
  5
13E1E
  8
0
 10
325.13033036824851
 20
-246.95252429967749
 30
0.0
 40
0.5
 50
270.0
 51
0.0
  0
ARC
  5
13E1F
  8
0
 10
319.86966963175138
 20
-246.95252429967749
 30
0.0
 40
0.5
 50
180.0
 51
270.0
  0
ARC
  5
13E20
  8
0
 10
322.5
 20
-299.95252429967752
 30
0.0
 40
56.500000000000021
 50
94.822326350222767
 51
97.180755781458302
  0
ARC
  5
13E21
  8
0
 10
322.5
 20
-299.95252429967752
 30
0.0
 40
56.500000000000021
 50
82.819244218541712
 51
85.177673649777233
  0
ARC
  5
13E22
  8
0
 10
315.50000000000011
 20
-244.39174676732111
 30
0.0
 40
0.5000000000000071
 50
97.180755781464853
 51
180.0
  0
ARC
  5
13E23
  8
0
 10
315.5
 20
-246.95252429967749
 30
0.0
 40
0.5
 50
180.0
 51
270.0
  0
LINE
  5
13E24
  8
0
 10
315.00000016763812
 20
-244.39174633150921
 30
0.0
 11
315.00000016763812
 21
-246.952523921188
 31
0.0
  0
ARC
  5
13E25
  8
0
 10
329.50000000000011
 20
-246.95252429967749
 30
0.0
 40
0.5
 50
270.0
 51
0.0
  0
LINE
  5
13E26
  8
0
 10
329.99999983236199
 20
-246.952523921188
 30
0.0
 11
329.99999983236199
 21
-244.39174633150921
 31
0.0
  0
ARC
  5
13E27
  8
0
 10
329.50000000000011
 20
-244.39174676732111
 30
0.0
 40
0.5
 50
0.0
 51
82.819244218535147
  0
ARC
  5
13E28
  8
0
 10
328.10000000000002
 20
-248.45252429967749
 30
0.0
 40
1.0000000000000051
 50
90.0
 51
143.1301023541576
  0
ARC
  5
13E29
  8
0
 10
316.89999999999998
 20
-248.45252429967749
 30
0.0
 40
1.0
 50
36.869897645846642
 51
90.0
  0
LINE
  5
13E2A
  8
0
 10
315.49999978393322
 20
-247.85252425497401
 30
0.0
 11
329.50000021606689
 21
-247.85252425497401
 31
0.0
  0
ARC
  5
13E2B
  8
0
 10
323.02978021858769
 20
-268.4549478188016
 30
0.0
 40
24.97824798689696
 50
85.502505575422603
 51
90.862916604501152
  0
ARC
  5
13E2C
  8
0
 10
322.079075162751
 20
-273.1469577573481
 30
0.0
 40
29.668629461116119
 50
89.483744827165154
 51
93.830805809564765
  0
LINE
  5
13E2D
  8
0
 10
325.36377236997811
 20
-243.65252393906931
 30
0.0
 11
327.24973674863583
 21
-243.65252393906931
 31
0.0
  0
LINE
  5
13E2E
  8
0
 10
317.75026325136417
 20
-243.65252393906931
 30
0.0
 11
319.61947422474628
 21
-243.65252393906931
 31
0.0
  0
LINE
  5
13E2F
  8
0
 10
329.50000000000011
 20
-247.45252429967749
 30
0.0
 11
315.49999978393322
 21
-247.45252493446691
 31
0.0
  0
LINE
  5
13E30
  8
0
 10
325.57460867887119
 20
-243.8956680489145
 30
0.0
 11
329.56249987706548
 21
-243.8956680489145
 31
0.0
  0
LINE
  5
13E31
  8
0
 10
315.43750012293458
 20
-243.8956680489145
 30
0.0
 11
319.4014183152467
 21
-243.8956680489145
 31
0.0
  0
LINE
  5
13E32
  8
0
 10
176.4999996125697
 20
-261.34953290542592
 30
0.0
 11
175.5000003799795
 21
-262.3495326036774
 31
0.0
  0
LINE
  5
13E3A
  8
0
 10
154.99999999999989
 20
-261.04953265955658
 30
0.0
 11
155.2000000000001
 21
-261.04953265955669
 31
0.0
  0
LINE
  5
13E3D
  8
0
 10
171.50000018998981
 20
-262.8495326595567
 30
0.0
 11
189.99999999999989
 21
-262.8495326595567
 31
0.0
  0
LINE
  5
13E4C
  8
0
 10
339.50000092387199
 20
-260.3495326595567
 30
0.0
 11
340.00000000000011
 21
-260.3495326595567
 31
0.0
  0
LINE
  5
13E4D
  8
0
 10
339.50000092387199
 20
-259.8495326595567
 30
0.0
 11
345.00000000000011
 21
-259.8495326595567
 31
0.0
  0
LINE
  5
13E4E
  8
0
 10
310.0
 20
-263.04953265955658
 30
0.0
 11
310.2000000000001
 21
-263.04953265955658
 31
0.0
  0
LINE
  5
13E56
  8
0
 10
331.49999961256992
 20
-263.34953290542592
 30
0.0
 11
330.50000037997972
 21
-264.3495326036774
 31
0.0
  0
LINE
  5
13E60
  8
0
 10
326.50000018998992
 20
-264.8495326595567
 30
0.0
 11
345.00000000000011
 21
-264.8495326595567
 31
0.0
  0
TEXT
  5
13F52
  8
0
 62
     3
 10
131.00146734992691
 20
-164.4443604025476
 30
0.0
 40
3.2000000000000002
  1
スペーサー(ボルト付き)(QCASP)を使用する場合
  0
TEXT
  5
13F53
  8
0
 62
     3
 10
131.00146734992691
 20
-171.4443604025476
 30
0.0
 40
3.2000000000000002
  1
To use with a spacer(QCASP)
 41
0.85
  0
ENDSEC
  0
EOF
