  0
SECTION
  2
HEADER
  9
$ACADVER
  1
AC1009
  9
$INSBASE
 10
0.0
 20
0.0
 30
0.0
  9
$EXTMIN
 10
0.0
 20
-2.960436562073669
 30
0.0
  9
$EXTMAX
 10
241.99999977652499
 20
244.9999997765
 30
0.0
  9
$LIMMIN
 10
0.0
 20
0.0
  9
$LIMMAX
 10
375.0
 20
270.0
  9
$ORTHOMODE
 70
     1
  9
$REGENMODE
 70
     1
  9
$FILLMODE
 70
     1
  9
$QTEXTMODE
 70
     0
  9
$MIRRTEXT
 70
     0
  9
$DRAGMODE
 70
     2
  9
$LTSCALE
 40
5.0
  9
$OSMODE
 70
    37
  9
$ATTMODE
 70
     1
  9
$TEXTSIZE
 40
4.000000000000048
  9
$TRACEWID
 40
0.05
  9
$TEXTSTYLE
  7
STANDARD
  9
$CLAYER
  8
0
  9
$CELTYPE
  6
BYLAYER
  9
$CECOLOR
 62
   256
  9
$DIMSCALE
 40
1.0
  9
$DIMASZ
 40
3.0
  9
$DIMEXO
 40
2.0
  9
$DIMDLI
 40
0.38
  9
$DIMRND
 40
0.0
  9
$DIMDLE
 40
0.0
  9
$DIMEXE
 40
2.0
  9
$DIMTP
 40
0.0
  9
$DIMTM
 40
0.0
  9
$DIMTXT
 40
3.2000000000000002
  9
$DIMCEN
 40
0.0
  9
$DIMTSZ
 40
0.0
  9
$DIMTOL
 70
     0
  9
$DIMLIM
 70
     0
  9
$DIMTIH
 70
     0
  9
$DIMTOH
 70
     0
  9
$DIMSE1
 70
     0
  9
$DIMSE2
 70
     0
  9
$DIMTAD
 70
     1
  9
$DIMZIN
 70
     0
  9
$DIMBLK
  1

  9
$DIMASO
 70
     0
  9
$DIMSHO
 70
     0
  9
$DIMPOST
  1

  9
$DIMAPOST
  1

  9
$DIMALT
 70
     0
  9
$DIMALTD
 70
     2
  9
$DIMALTF
 40
25.399999999999999
  9
$DIMLFAC
 40
1.0
  9
$DIMTOFL
 70
     0
  9
$DIMTVP
 40
1.6000000000000001
  9
$DIMTIX
 70
     1
  9
$DIMSOXD
 70
     0
  9
$DIMSAH
 70
     0
  9
$DIMBLK1
  1

  9
$DIMBLK2
  1

  9
$DIMSTYLE
  2
STANDARD
  9
$DIMCLRD
 70
     4
  9
$DIMCLRE
 70
     4
  9
$DIMCLRT
 70
     4
  9
$DIMTFAC
 40
1.0
  9
$DIMGAP
 40
0.09
  9
$LUNITS
 70
     2
  9
$LUPREC
 70
     2
  9
$SKETCHINC
 40
0.1
  9
$FILLETRAD
 40
22.0
  9
$AUNITS
 70
     0
  9
$AUPREC
 70
     0
  9
$MENU
  1
E:\r13\win\SUPPORT\ACAD
  9
$ELEVATION
 40
0.0
  9
$PELEVATION
 40
0.0
  9
$THICKNESS
 40
0.0
  9
$LIMCHECK
 70
     0
  9
$BLIPMODE
 70
     0
  9
$CHAMFERA
 40
1.1999999999999991
  9
$CHAMFERB
 40
1.1999999999999991
  9
$SKPOLY
 70
     0
  9
$TDCREATE
 40
2449954.6020138888
  9
$TDUPDATE
 40
2457171.5687241321
  9
$TDINDWG
 40
0.4411217014
  9
$TDUSRTIMER
 40
0.4411217014
  9
$USRTIMER
 70
     1
  9
$ANGBASE
 50
0.0
  9
$ANGDIR
 70
     0
  9
$PDMODE
 70
     0
  9
$PDSIZE
 40
0.0
  9
$PLINEWID
 40
0.0
  9
$COORDS
 70
     1
  9
$SPLFRAME
 70
     0
  9
$SPLINETYPE
 70
     6
  9
$SPLINESEGS
 70
     8
  9
$ATTDIA
 70
     0
  9
$ATTREQ
 70
     1
  9
$HANDLING
 70
     1
  9
$HANDSEED
  5
4B86
  9
$SURFTAB1
 70
     6
  9
$SURFTAB2
 70
     6
  9
$SURFTYPE
 70
     6
  9
$SURFU
 70
     6
  9
$SURFV
 70
     6
  9
$UCSNAME
  2

  9
$UCSORG
 10
0.0
 20
0.0
 30
0.0
  9
$UCSXDIR
 10
1.0
 20
0.0
 30
0.0
  9
$UCSYDIR
 10
0.0
 20
1.0
 30
0.0
  9
$PUCSNAME
  2

  9
$PUCSORG
 10
0.0
 20
0.0
 30
0.0
  9
$PUCSXDIR
 10
1.0
 20
0.0
 30
0.0
  9
$PUCSYDIR
 10
0.0
 20
1.0
 30
0.0
  9
$USERI1
 70
     0
  9
$USERI2
 70
     1
  9
$USERI3
 70
     0
  9
$USERI4
 70
     0
  9
$USERI5
 70
     0
  9
$USERR1
 40
0.0
  9
$USERR2
 40
0.0
  9
$USERR3
 40
0.0
  9
$USERR4
 40
0.0
  9
$USERR5
 40
0.0
  9
$WORLDVIEW
 70
     1
  9
$SHADEDGE
 70
     3
  9
$SHADEDIF
 70
    70
  9
$TILEMODE
 70
     1
  9
$MAXACTVP
 70
    16
  9
$PLIMCHECK
 70
     0
  9
$PEXTMIN
 10
1.0000000000000000E+020
 20
1.0000000000000000E+020
 30
1.0000000000000000E+020
  9
$PEXTMAX
 10
-1.0000000000000000E+020
 20
-1.0000000000000000E+020
 30
-1.0000000000000000E+020
  9
$PLIMMIN
 10
0.0
 20
0.0
  9
$PLIMMAX
 10
12.0
 20
9.0
  9
$UNITMODE
 70
     0
  9
$VISRETAIN
 70
     0
  9
$PLINEGEN
 70
     0
  9
$PSLTSCALE
 70
     0
  0
ENDSEC
  0
SECTION
  2
TABLES
  0
TABLE
  2
VPORT
 70
     1
  0
VPORT
  2
*ACTIVE
 70
     0
 10
0.0
 20
0.0
 11
1.0
 21
1.0
 12
245.19230769230771
 22
135.0
 13
0.0
 23
0.0
 14
10.0
 24
10.0
 15
10.0
 25
10.0
 16
0.0
 26
0.0
 36
1.0
 17
0.0
 27
0.0
 37
0.0
 40
270.0
 41
1.816239316239316
 42
50.0
 43
0.0
 44
0.0
 50
0.0
 51
0.0
 71
     0
 72
   500
 73
     1
 74
     0
 75
     0
 76
     0
 77
     0
 78
     2
  0
ENDTAB
  0
TABLE
  2
LTYPE
 70
     5
  0
LTYPE
  2
CONTINUOUS
 70
     0
  3
Solid Line
 72
    65
 73
     0
 40
0.0
  0
LTYPE
  2
CENTER
 70
     0
  3
____ _ ____ _ ____ _ ____ _ ____ _ ____ _ ____
 72
    65
 73
     4
 40
2.0
 49
1.25
 49
-0.25
 49
0.25
 49
-0.25
  0
LTYPE
  2
HIDDEN
 70
     0
  3
_ _ _ _ _ _ _ _ _ _ _ _ _ _ _ _ _ _ _ _ _ _ _
 72
    65
 73
     2
 40
0.375
 49
0.25
 49
-0.125
  0
LTYPE
  2
PHANTOM
 70
     0
  3
_____ _ _ _____ _ _ _____ _ _ _____ _ _ ____
 72
    65
 73
     6
 40
2.5
 49
1.25
 49
-0.25
 49
0.25
 49
-0.25
 49
0.25
 49
-0.25
  0
LTYPE
  2
PHANTOM2
 70
     0
  3
___ _ _ ___ _ _ ___ _ _ ___ _ _
 72
    65
 73
     6
 40
1.25
 49
0.625
 49
-0.125
 49
0.125
 49
-0.125
 49
0.125
 49
-0.125
  0
ENDTAB
  0
TABLE
  2
LAYER
 70
     5
  0
LAYER
  2
0
 70
     0
 62
     7
  6
CONTINUOUS
  0
LAYER
  2
1
 70
     0
 62
     1
  6
CENTER
  0
LAYER
  2
3
 70
     0
 62
     3
  6
CONTINUOUS
  0
LAYER
  2
2
 70
     0
 62
     2
  6
HIDDEN
  0
LAYER
  2
5
 70
     0
 62
     3
  6
PHANTOM
  0
ENDTAB
  0
TABLE
  2
STYLE
 70
     2
  0
STYLE
  2
STANDARD
 70
     0
 40
0.0
 41
1.0
 50
0.0
 71
     0
 42
4.000000000000048
  3
SIMPLEX
  4
BIGFONT
  0
STYLE
  2
STANDARD1
 70
     0
 40
0.0
 41
1.0
 50
0.0
 71
     0
 42
3.0
  3
txt
  4

  0
ENDTAB
  0
TABLE
  2
VIEW
 70
     1
  0
VIEW
  2
ALL
 70
     0
 40
270.0
 10
220.78595317725751
 20
135.0
 41
441.57190635451502
 11
0.0
 21
0.0
 31
1.0
 12
0.0
 22
0.0
 32
0.0
 42
50.0
 43
0.0
 44
0.0
 50
0.0
 71
     0
  0
ENDTAB
  0
TABLE
  2
UCS
 70
     0
  0
ENDTAB
  0
TABLE
  2
APPID
 70
     7
  0
APPID
  2
ACAD
 70
     0
  0
APPID
  2
ACAD_EXEMPT_FROM_CAD_STANDARDS
 70
     0
  0
APPID
  2
ACAD_MLEADERVER
 70
     0
  0
APPID
  2
ACAD_NAV_VCDISPLAY
 70
     0
  0
APPID
  2
ACAD_DSTYLE_DIMJAG
 70
     0
  0
APPID
  2
ACAD_DSTYLE_DIMTALN
 70
     0
  0
APPID
  2
ACAD_DSTYLE_DIMRADIAL_EXTENSION
 70
     0
  0
ENDTAB
  0
TABLE
  2
DIMSTYLE
 70
     1
  0
DIMSTYLE
  2
STANDARD
 70
     0
  3

  4

  5

  6

  7

 40
1.0
 41
0.18
 42
0.0625
 43
0.38
 44
0.18
 45
0.0
 46
0.0
 47
0.0
 48
0.0
140
0.18
141
0.09
142
0.0
143
25.399999999999999
144
1.0
145
0.0
146
1.0
147
0.09
 71
     0
 72
     0
 73
     1
 74
     1
 75
     0
 76
     0
 77
     0
 78
     0
170
     0
171
     2
172
     0
173
     0
174
     0
175
     0
176
     0
177
     0
178
     0
  0
ENDTAB
  0
ENDSEC
  0
SECTION
  2
BLOCKS
  0
BLOCK
  8
0
  2
$MODEL_SPACE
 70
     0
 10
0.0
 20
0.0
 30
0.0
  3
$MODEL_SPACE
  1

  0
ENDBLK
  5
1126
  8
0
  0
BLOCK
 67
     1
  8
0
  2
$PAPER_SPACE
 70
     0
 10
0.0
 20
0.0
 30
0.0
  3
$PAPER_SPACE
  1

  0
ENDBLK
  5
1124
 67
     1
  8
0
  0
ENDSEC
  0
SECTION
  2
ENTITIES
  0
TEXT
  5
1F1A
  8
0
 62
     3
 10
0.0
 20
0.0
 30
0.0
 40
10.0
  1
QCSPL0920-OG
  7
STANDARD1
  0
LINE
  5
3E08
  8
3
 10
134.93583245202501
 20
140.59362128375
 30
0.0
 11
134.93583245202501
 21
141.18585489685
 31
0.0
  0
ARC
  5
3E09
  8
3
 10
134.72998752652501
 20
139.51743815354999
 30
0.0
 40
1.6810675199999661
 50
54.718738172700277
 51
82.966538684599755
  0
ARC
  5
3E0A
  8
3
 10
134.72998752652501
 20
142.26203818614999
 30
0.0
 40
1.681067519999988
 50
277.03346131540019
 51
305.28126182729972
  0
ARC
  5
3E0B
  8
3
 10
134.72998752652501
 20
139.51743815354999
 30
0.0
 40
1.681067519999953
 50
97.03346131540026
 51
108.02016074839931
  0
LINE
  5
3E0C
  8
3
 10
134.524142704925
 20
140.59362128375
 30
0.0
 11
134.524142704925
 21
141.18585489685
 31
0.0
  0
ARC
  5
3E0D
  8
3
 10
134.72998752652501
 20
142.26203818614999
 30
0.0
 40
1.6810675200000409
 50
241.638094607802
 51
262.96653868459981
  0
ARC
  5
3E0E
  8
3
 10
132.50000000002501
 20
142.26203818614999
 30
0.0
 40
2.0584500244897641
 50
314.05787401219931
 51
326.17031835289788
  0
LINE
  5
3E0F
  8
3
 10
134.524142704925
 20
141.56557001175
 30
0.0
 11
134.524142704925
 21
141.88778713344999
 31
0.0
  0
ARC
  5
3E10
  8
3
 10
132.50000000002501
 20
142.26203818614999
 30
0.0
 40
2.0584500244898001
 50
339.8915714515017
 51
349.52468615670091
  0
LINE
  5
3E11
  8
3
 10
134.43297460682501
 20
141.55434757475001
 30
0.0
 11
134.524142704925
 21
141.56557001175
 31
0.0
  0
ARC
  5
3E12
  8
3
 10
134.72998752652501
 20
142.26203818614999
 30
0.0
 40
1.6810675199999561
 50
54.718738172700277
 51
82.966538684599755
  0
ARC
  5
3E13
  8
3
 10
134.72998752652501
 20
145.00663821884999
 30
0.0
 40
1.68106751999954
 50
277.03346131540019
 51
305.28126182729972
  0
LINE
  5
3E14
  8
3
 10
134.93583245202501
 20
143.33822146054999
 30
0.0
 11
134.93583245202501
 21
143.93045507375001
 31
0.0
  0
LINE
  5
3E15
  8
3
 10
134.524142704925
 20
143.33822146054999
 30
0.0
 11
134.524142704925
 21
143.93045507375001
 31
0.0
  0
ARC
  5
3E16
  8
3
 10
134.72998752652501
 20
145.00663821884999
 30
0.0
 40
1.6810675199999381
 50
234.71873817270031
 51
262.96653868459981
  0
ARC
  5
3E17
  8
3
 10
134.72998752652501
 20
142.26203818614999
 30
0.0
 40
1.681067520000034
 50
97.03346131540026
 51
125.2812618272997
  0
LINE
  5
3E18
  8
3
 10
134.93583245202501
 20
141.56557001175
 30
0.0
 11
134.93583245202501
 21
142.05619260665
 31
0.0
  0
LINE
  5
3E19
  8
3
 10
134.93583245202501
 20
142.05619260665
 30
0.0
 11
136.3984047063251
 21
142.05619260665
 31
0.0
  0
ARC
  5
3E1A
  8
3
 10
134.72998752652501
 20
142.26203818614999
 30
0.0
 40
1.6810675199999889
 50
318.44085240810062
 51
352.96653868459919
  0
ARC
  5
3E1B
  8
3
 10
134.72998752652501
 20
139.51743815354999
 30
0.0
 40
2.058450024489749
 50
52.331770223300737
 51
84.260829522699169
  0
ARC
  5
3E1C
  8
3
 10
134.72998752652501
 20
142.26203818614999
 30
0.0
 40
1.6810675199999909
 50
7.0334613154006398
 51
41.55914759189934
  0
ARC
  5
3E1D
  8
3
 10
134.72998752652501
 20
145.00663821884999
 30
0.0
 40
2.0584500244896171
 50
275.73917047729759
 51
307.66822977669932
  0
LINE
  5
3E1E
  8
3
 10
134.93583245202501
 20
142.46788375074999
 30
0.0
 11
136.3984047063251
 21
142.46788375074999
 31
0.0
  0
LINE
  5
3E1F
  8
3
 10
134.93583245202501
 20
142.46788375074999
 30
0.0
 11
134.93583245202501
 21
142.95850634575001
 31
0.0
  0
LINE
  5
3E20
  8
3
 10
144.40279673792509
 20
142.16197408734999
 30
0.0
 11
145.00317802652501
 21
142.16197408734999
 31
0.0
  0
ARC
  5
3E21
  8
3
 10
144.70298729802499
 20
142.56222909565
 30
0.0
 40
0.3001906285714426
 50
0.0
 51
180.0
  0
LINE
  5
3E22
  8
3
 10
145.00317802652501
 20
142.16197408734999
 30
0.0
 11
145.00317802652501
 21
142.56222859024999
 31
0.0
  0
LINE
  5
3E23
  8
3
 10
144.40279673792509
 20
142.56222859024999
 30
0.0
 11
144.40279673792509
 21
142.16197408734999
 31
0.0
  0
CIRCLE
  5
3E24
  8
3
 10
148.005084212225
 20
142.26203818614999
 30
0.0
 40
0.600381257142857
  0
LINE
  5
3E25
  8
3
 10
148.00000038002511
 20
145.11203892524989
 30
0.0
 11
131.99999962002499
 21
145.11203892524989
 31
0.0
  0
LINE
  5
3E26
  8
3
 10
138.398984083925
 20
143.86305525895
 30
0.0
 11
137.39834875802501
 21
143.86305525895
 31
0.0
  0
LINE
  5
3E27
  8
3
 10
137.39834875802501
 20
140.66102109844999
 30
0.0
 11
138.398984083925
 21
140.66102109844999
 31
0.0
  0
LINE
  5
3E28
  8
3
 10
143.40216117912499
 20
142.56222859024999
 30
0.0
 11
143.40216117912499
 21
140.66102109844999
 31
0.0
  0
LINE
  5
3E29
  8
3
 10
138.79923823762499
 20
142.56222859024999
 30
0.0
 11
138.79923823762499
 21
140.66102109844999
 31
0.0
  0
LINE
  5
3E2A
  8
3
 10
138.79923823762499
 20
140.66102109844999
 30
0.0
 11
139.799873694425
 21
140.66102109844999
 31
0.0
  0
LINE
  5
3E2B
  8
3
 10
139.799873694425
 20
140.66102109844999
 30
0.0
 11
139.799873694425
 21
142.56222859024999
 31
0.0
  0
CIRCLE
  5
3E2C
  8
3
 10
148.005084212225
 20
142.26203818614999
 30
0.0
 40
1.601016685714199
  0
LINE
  5
3E2D
  8
3
 10
140.40025496862501
 20
142.56222859024999
 30
0.0
 11
140.40025496862501
 21
140.66102109844999
 31
0.0
  0
LINE
  5
3E2E
  8
3
 10
140.40025496862501
 20
140.66102109844999
 30
0.0
 11
141.400890410925
 21
140.66102109844999
 31
0.0
  0
LINE
  5
3E2F
  8
3
 10
141.400890410925
 20
140.66102109844999
 30
0.0
 11
141.400890410925
 21
142.56222859024999
 31
0.0
  0
LINE
  5
3E30
  8
3
 10
143.40216117912499
 20
140.66102109844999
 30
0.0
 11
144.40279673792509
 21
140.66102109844999
 31
0.0
  0
LINE
  5
3E31
  8
3
 10
144.40279673792509
 20
140.66102109844999
 30
0.0
 11
144.40279673792509
 21
141.36146694425
 31
0.0
  0
LINE
  5
3E32
  8
3
 10
144.40279673792509
 20
141.36146694425
 30
0.0
 11
145.00317802652501
 21
141.36146694425
 31
0.0
  0
ARC
  5
3E33
  8
3
 10
140.100064326525
 20
142.56222881475
 30
0.0
 40
0.3001906285714711
 50
0.0
 51
180.0
  0
LINE
  5
3E34
  8
3
 10
145.00317802652501
 20
140.66102109844999
 30
0.0
 11
146.003813352425
 21
140.66102109844999
 31
0.0
  0
LINE
  5
3E35
  8
3
 10
146.003813352425
 20
140.66102109844999
 30
0.0
 11
146.003813352425
 21
142.56222859024999
 31
0.0
  0
LINE
  5
3E36
  8
3
 10
130.81893265252501
 20
142.26203911005001
 30
0.0
 11
130.81893265252501
 21
142.46788375074999
 31
0.0
  0
LINE
  5
3E37
  8
3
 10
130.81893265252501
 20
142.46788375074999
 30
0.0
 11
131.196314804325
 21
142.46788375074999
 31
0.0
  0
ARC
  5
3E38
  8
3
 10
144.70298729802499
 20
142.56222909565
 30
0.0
 40
1.30082605714287
 50
0.0
 51
180.0
  0
LINE
  5
3E39
  8
3
 10
131.573697887425
 20
142.26203911005001
 30
0.0
 11
131.573697887425
 21
142.46788375074999
 31
0.0
  0
LINE
  5
3E3A
  8
3
 10
131.573697887425
 20
142.46788375074999
 30
0.0
 11
131.951080039125
 21
142.46788375074999
 31
0.0
  0
ARC
  5
3E3B
  8
3
 10
132.50000000002501
 20
142.26203818614999
 30
0.0
 40
0.54892000653021
 50
180.0
 51
0.0
  0
ARC
  5
3E3C
  8
3
 10
134.72998752652501
 20
142.26203818614999
 30
0.0
 40
1.6810675199999949
 50
138.4408524081006
 51
180.0
  0
LINE
  5
3E3D
  8
3
 10
145.00317802652501
 20
140.66102109844999
 30
0.0
 11
145.00317802652501
 21
141.36146694425
 31
0.0
  0
ARC
  5
3E3E
  8
3
 10
148.00000000002501
 20
142.26203818614999
 30
0.0
 40
2.8500000000000081
 50
270.0
 51
90.0
  0
ARC
  5
3E3F
  8
3
 10
140.100064326525
 20
142.56222881475
 30
0.0
 40
1.3008260571428989
 50
52.02012755510065
 51
180.0
  0
ARC
  5
3E40
  8
3
 10
141.70108101222499
 20
142.56222881475
 30
0.0
 40
0.3001906285714142
 50
0.0
 51
180.0
  0
LINE
  5
3E41
  8
3
 10
142.001271583125
 20
142.56222859024999
 30
0.0
 11
142.001271583125
 21
140.66102109844999
 31
0.0
  0
LINE
  5
3E42
  8
3
 10
143.00190714192499
 20
140.66102109844999
 30
0.0
 11
143.00190714192499
 21
142.56222859024999
 31
0.0
  0
ARC
  5
3E43
  8
3
 10
141.70108101222499
 20
142.56222881475
 30
0.0
 40
1.3008260571428589
 50
0.0
 51
127.9798724448993
  0
ARC
  5
3E44
  8
3
 10
132.00000000002501
 20
142.26203818614999
 30
0.0
 40
2.8500000000000081
 50
90.0
 51
270.0
  0
LINE
  5
3E45
  8
3
 10
138.398984083925
 20
140.66102109844999
 30
0.0
 11
138.398984083925
 21
143.86305525895
 31
0.0
  0
LINE
  5
3E46
  8
3
 10
131.196314804325
 20
142.46788375074999
 30
0.0
 11
131.196314804325
 21
142.26203911005001
 31
0.0
  0
LINE
  5
3E47
  8
3
 10
137.39834875802501
 20
143.86305525895
 30
0.0
 11
137.39834875802501
 21
140.66102109844999
 31
0.0
  0
LINE
  5
3E48
  8
3
 10
132.2941550612251
 20
140.97470730545001
 30
0.0
 11
132.2941550612251
 21
141.35889649395
 31
0.0
  0
ARC
  5
3E49
  8
3
 10
134.72998752652501
 20
145.00663821884999
 30
0.0
 40
2.0584500244897659
 50
232.33177022330071
 51
264.26082952269923
  0
LINE
  5
3E4A
  8
3
 10
134.524142704925
 20
142.46788375074999
 30
0.0
 11
134.524142704925
 21
142.95850634575001
 31
0.0
  0
LINE
  5
3E4B
  8
3
 10
134.18106768282499
 20
142.46788375074999
 30
0.0
 11
134.524142704925
 21
142.46788375074999
 31
0.0
  0
LINE
  5
3E4C
  8
3
 10
134.18106768282499
 20
142.46788375074999
 30
0.0
 11
134.18106768282499
 21
142.26203911005001
 31
0.0
  0
ARC
  5
3E4D
  8
3
 10
132.50000000002501
 20
142.26203818614999
 30
0.0
 40
1.6810675199995151
 50
277.03346131540019
 51
0.0
  0
LINE
  5
3E4E
  8
3
 10
132.70584480842501
 20
140.21390616894999
 30
0.0
 11
132.70584480842501
 21
140.59362128375
 31
0.0
  0
ARC
  5
3E4F
  8
3
 10
132.50000000002501
 20
142.26203818614999
 30
0.0
 40
2.0584500244893551
 50
275.73917047729759
 51
302.7971682957978
  0
ARC
  5
3E50
  8
3
 10
134.72998752652501
 20
142.26203818614999
 30
0.0
 40
2.0584500244896211
 50
237.20283170419839
 51
122.7971682957978
  0
ARC
  5
3E51
  8
3
 10
132.50000000002501
 20
142.26203818614999
 30
0.0
 40
2.0584500244893991
 50
57.20283170420219
 51
264.26082952269923
  0
LINE
  5
3E52
  8
3
 10
132.2941550612251
 20
140.21390616894999
 30
0.0
 11
132.2941550612251
 21
140.59362128375
 31
0.0
  0
ARC
  5
3E53
  8
3
 10
132.50000000002501
 20
142.26203818614999
 30
0.0
 40
1.681067519999992
 50
180.0
 51
262.96653868459981
  0
LINE
  5
3E54
  8
3
 10
131.99999962002499
 20
139.41203836355001
 30
0.0
 11
148.00000038002511
 21
139.41203836355001
 31
0.0
  0
LINE
  5
3E55
  8
3
 10
131.951080039125
 20
142.46788375074999
 30
0.0
 11
131.951080039125
 21
142.26203911005001
 31
0.0
  0
ARC
  5
3E56
  8
3
 10
132.50000000002501
 20
142.26203818614999
 30
0.0
 40
1.303685015510041
 50
180.0
 51
260.91527971260041
  0
ARC
  5
3E57
  8
3
 10
132.50000000002501
 20
142.26203818614999
 30
0.0
 40
0.9263025110202484
 50
180.0
 51
257.16041159309879
  0
LINE
  5
3E58
  8
3
 10
142.001271583125
 20
140.66102109844999
 30
0.0
 11
143.00190714192499
 21
140.66102109844999
 31
0.0
  0
ARC
  5
3E59
  8
0
 10
121.000000000025
 20
105.76203818614999
 30
0.0
 40
5.0510354332851222
 50
180.0
 51
270.0
  0
LINE
  5
3E5A
  8
0
 10
121.000000611025
 20
100.71100234985001
 30
0.0
 11
121.000000611025
 21
99.237961098550002
 31
0.0
  0
LINE
  5
3E5B
  8
0
 10
115.9489651769251
 20
105.76203778385
 30
0.0
 11
114.475922063025
 21
105.76203778385
 31
0.0
  0
LINE
  5
3E5C
  8
0
 10
165.524077937025
 20
161.76203764975
 30
0.0
 11
164.05103482312501
 21
161.76203764975
 31
0.0
  0
ARC
  5
3E5D
  8
0
 10
159.00000000002501
 20
161.76203818614999
 30
0.0
 40
5.0510354332851364
 50
0.0
 51
90.0
  0
LINE
  5
3E5E
  8
0
 10
158.99999938912501
 20
168.28611619764999
 30
0.0
 11
158.99999938912501
 21
166.81307308375
 31
0.0
  0
LINE
  5
3E5F
  8
0
 10
121.000000611025
 20
100.71100234985001
 30
0.0
 11
158.99999938912501
 21
100.71100234985001
 31
0.0
  0
LINE
  5
3E60
  8
0
 10
158.99999938912501
 20
100.71100234985001
 30
0.0
 11
158.99999938912501
 21
99.237961098550002
 31
0.0
  0
LINE
  5
3E61
  8
0
 10
165.524077937025
 20
105.76203778385
 30
0.0
 11
164.05103482312501
 21
105.76203778385
 31
0.0
  0
LINE
  5
3E62
  8
0
 10
164.05103482312501
 20
105.76203778385
 30
0.0
 11
164.05103482312501
 21
161.76203764975
 31
0.0
  0
ARC
  5
3E63
  8
0
 10
121.000000000025
 20
161.76203818614999
 30
0.0
 40
5.0510354332851364
 50
90.0
 51
180.0
  0
LINE
  5
3E64
  8
0
 10
115.9489651769251
 20
161.76203764975
 30
0.0
 11
114.475922063025
 21
161.76203764975
 31
0.0
  0
LINE
  5
3E65
  8
0
 10
121.000000611025
 20
168.28611619764999
 30
0.0
 11
121.000000611025
 21
166.81307308375
 31
0.0
  0
LINE
  5
3E66
  8
0
 10
115.9489651769251
 20
161.76203764975
 30
0.0
 11
115.9489651769251
 21
105.76203778385
 31
0.0
  0
LINE
  5
3E67
  8
0
 10
158.99999938912501
 20
166.81307308375
 30
0.0
 11
121.000000611025
 21
166.81307308375
 31
0.0
  0
ARC
  5
3E68
  8
0
 10
159.00000000002501
 20
105.76203818614999
 30
0.0
 40
5.0510354332851071
 50
270.0
 51
0.0
  0
CIRCLE
  5
3E69
  8
0
 10
157.00000000002501
 20
142.26203818614999
 30
0.0
 40
5.0914247839796456
  0
CIRCLE
  5
3E6A
  8
0
 10
123.000000000025
 20
142.26203818614999
 30
0.0
 40
5.0914247839796749
  0
CIRCLE
  5
3E6B
  8
0
 10
140.00000000002501
 20
125.26203818614999
 30
0.0
 40
10.591424783979649
  0
ARC
  5
3E6C
  8
0
 10
140.00000002377561
 20
161.0120381959878
 30
0.0
 40
1.000000023750715
 50
180.0000005636679
 51
0.0000950629873936
  0
LINE
  5
3E6D
  8
0
 10
141.00000004752511
 20
180.76203726234999
 30
0.0
 11
141.00000004752511
 21
161.01203985514999
 31
0.0
  0
LINE
  5
3E6E
  8
0
 10
138.999999952525
 20
180.76203726234999
 30
0.0
 11
138.999999952525
 21
161.01203985514999
 31
0.0
  0
ARC
  5
3E6F
  8
0
 10
121.000000000025
 20
161.76203818614999
 30
0.0
 40
6.5240777928304414
 50
90.0
 51
180.0
  0
ARC
  5
3E70
  8
0
 10
121.000000000025
 20
105.76203818614999
 30
0.0
 40
6.5240777928304237
 50
180.0
 51
270.0
  0
LINE
  5
3E71
  8
0
 10
131.3957640529251
 20
168.28611619764999
 30
0.0
 11
121.000000611025
 21
168.28611619764999
 31
0.0
  0
POLYLINE
  5
3E72
  8
0
 10
131.86592546379549
 20
168.13922870924807
 30
0.0
 66
     1
 70
     8
  0
VERTEX
  8
0
  5
44EC
 10
131.866
 20
168.139
 30
0.000000
  70
    32
  0
VERTEX
  8
0
  5
44ED
 10
131.891
 20
168.135
 30
0.000000
  70
    32
  0
VERTEX
  8
0
  5
44EE
 10
131.916
 20
168.132
 30
0.000000
  70
    32
  0
VERTEX
  8
0
  5
44EF
 10
131.943
 20
168.128
 30
0.000000
  70
    32
  0
VERTEX
  8
0
  5
44F0
 10
131.969
 20
168.124
 30
0.000000
  70
    32
  0
VERTEX
  8
0
  5
44F1
 10
131.997
 20
168.121
 30
0.000000
  70
    32
  0
VERTEX
  8
0
  5
44F2
 10
132.025
 20
168.117
 30
0.000000
  70
    32
  0
VERTEX
  8
0
  5
44F3
 10
132.053
 20
168.113
 30
0.000000
  70
    32
  0
VERTEX
  8
0
  5
44F4
 10
132.083
 20
168.110
 30
0.000000
  70
    32
  0
VERTEX
  8
0
  5
44F5
 10
132.112
 20
168.106
 30
0.000000
  70
    32
  0
VERTEX
  8
0
  5
44F6
 10
132.143
 20
168.102
 30
0.000000
  70
    32
  0
VERTEX
  8
0
  5
44F7
 10
132.174
 20
168.099
 30
0.000000
  70
    32
  0
VERTEX
  8
0
  5
44F8
 10
132.205
 20
168.095
 30
0.000000
  70
    32
  0
VERTEX
  8
0
  5
44F9
 10
132.238
 20
168.092
 30
0.000000
  70
    32
  0
VERTEX
  8
0
  5
44FA
 10
132.271
 20
168.088
 30
0.000000
  70
    32
  0
VERTEX
  8
0
  5
44FB
 10
132.304
 20
168.085
 30
0.000000
  70
    32
  0
VERTEX
  8
0
  5
44FC
 10
132.338
 20
168.081
 30
0.000000
  70
    32
  0
VERTEX
  8
0
  5
44FD
 10
132.373
 20
168.078
 30
0.000000
  70
    32
  0
VERTEX
  8
0
  5
44FE
 10
132.408
 20
168.074
 30
0.000000
  70
    32
  0
VERTEX
  8
0
  5
44FF
 10
132.444
 20
168.071
 30
0.000000
  70
    32
  0
VERTEX
  8
0
  5
4500
 10
132.480
 20
168.067
 30
0.000000
  70
    32
  0
VERTEX
  8
0
  5
4501
 10
132.517
 20
168.064
 30
0.000000
  70
    32
  0
VERTEX
  8
0
  5
4502
 10
132.554
 20
168.060
 30
0.000000
  70
    32
  0
VERTEX
  8
0
  5
4503
 10
132.593
 20
168.057
 30
0.000000
  70
    32
  0
VERTEX
  8
0
  5
4504
 10
132.631
 20
168.053
 30
0.000000
  70
    32
  0
VERTEX
  8
0
  5
4505
 10
132.670
 20
168.050
 30
0.000000
  70
    32
  0
VERTEX
  8
0
  5
4506
 10
132.710
 20
168.047
 30
0.000000
  70
    32
  0
VERTEX
  8
0
  5
4507
 10
132.751
 20
168.043
 30
0.000000
  70
    32
  0
VERTEX
  8
0
  5
4508
 10
132.792
 20
168.040
 30
0.000000
  70
    32
  0
VERTEX
  8
0
  5
4509
 10
132.833
 20
168.037
 30
0.000000
  70
    32
  0
VERTEX
  8
0
  5
450A
 10
132.875
 20
168.033
 30
0.000000
  70
    32
  0
VERTEX
  8
0
  5
450B
 10
132.918
 20
168.030
 30
0.000000
  70
    32
  0
VERTEX
  8
0
  5
450C
 10
132.961
 20
168.027
 30
0.000000
  70
    32
  0
VERTEX
  8
0
  5
450D
 10
133.004
 20
168.024
 30
0.000000
  70
    32
  0
VERTEX
  8
0
  5
450E
 10
133.049
 20
168.021
 30
0.000000
  70
    32
  0
VERTEX
  8
0
  5
450F
 10
133.093
 20
168.017
 30
0.000000
  70
    32
  0
VERTEX
  8
0
  5
4510
 10
133.138
 20
168.014
 30
0.000000
  70
    32
  0
VERTEX
  8
0
  5
4511
 10
133.184
 20
168.011
 30
0.000000
  70
    32
  0
VERTEX
  8
0
  5
4512
 10
133.231
 20
168.008
 30
0.000000
  70
    32
  0
VERTEX
  8
0
  5
4513
 10
133.277
 20
168.005
 30
0.000000
  70
    32
  0
VERTEX
  8
0
  5
4514
 10
133.325
 20
168.002
 30
0.000000
  70
    32
  0
VERTEX
  8
0
  5
4515
 10
133.373
 20
167.999
 30
0.000000
  70
    32
  0
VERTEX
  8
0
  5
4516
 10
133.421
 20
167.996
 30
0.000000
  70
    32
  0
VERTEX
  8
0
  5
4517
 10
133.470
 20
167.993
 30
0.000000
  70
    32
  0
VERTEX
  8
0
  5
4518
 10
133.519
 20
167.990
 30
0.000000
  70
    32
  0
VERTEX
  8
0
  5
4519
 10
133.569
 20
167.987
 30
0.000000
  70
    32
  0
VERTEX
  8
0
  5
451A
 10
133.619
 20
167.984
 30
0.000000
  70
    32
  0
VERTEX
  8
0
  5
451B
 10
133.670
 20
167.981
 30
0.000000
  70
    32
  0
VERTEX
  8
0
  5
451C
 10
133.722
 20
167.978
 30
0.000000
  70
    32
  0
VERTEX
  8
0
  5
451D
 10
133.773
 20
167.975
 30
0.000000
  70
    32
  0
VERTEX
  8
0
  5
451E
 10
133.826
 20
167.972
 30
0.000000
  70
    32
  0
VERTEX
  8
0
  5
451F
 10
133.879
 20
167.969
 30
0.000000
  70
    32
  0
VERTEX
  8
0
  5
4520
 10
133.932
 20
167.967
 30
0.000000
  70
    32
  0
VERTEX
  8
0
  5
4521
 10
133.985
 20
167.964
 30
0.000000
  70
    32
  0
VERTEX
  8
0
  5
4522
 10
134.040
 20
167.961
 30
0.000000
  70
    32
  0
VERTEX
  8
0
  5
4523
 10
134.094
 20
167.958
 30
0.000000
  70
    32
  0
VERTEX
  8
0
  5
4524
 10
134.149
 20
167.956
 30
0.000000
  70
    32
  0
VERTEX
  8
0
  5
4525
 10
134.205
 20
167.953
 30
0.000000
  70
    32
  0
VERTEX
  8
0
  5
4526
 10
134.261
 20
167.950
 30
0.000000
  70
    32
  0
VERTEX
  8
0
  5
4527
 10
134.317
 20
167.948
 30
0.000000
  70
    32
  0
VERTEX
  8
0
  5
4528
 10
134.374
 20
167.945
 30
0.000000
  70
    32
  0
VERTEX
  8
0
  5
4529
 10
134.431
 20
167.942
 30
0.000000
  70
    32
  0
VERTEX
  8
0
  5
452A
 10
134.489
 20
167.940
 30
0.000000
  70
    32
  0
VERTEX
  8
0
  5
452B
 10
134.547
 20
167.937
 30
0.000000
  70
    32
  0
VERTEX
  8
0
  5
452C
 10
134.606
 20
167.935
 30
0.000000
  70
    32
  0
VERTEX
  8
0
  5
452D
 10
134.665
 20
167.932
 30
0.000000
  70
    32
  0
VERTEX
  8
0
  5
452E
 10
134.724
 20
167.930
 30
0.000000
  70
    32
  0
VERTEX
  8
0
  5
452F
 10
134.784
 20
167.928
 30
0.000000
  70
    32
  0
VERTEX
  8
0
  5
4530
 10
134.844
 20
167.925
 30
0.000000
  70
    32
  0
VERTEX
  8
0
  5
4531
 10
134.905
 20
167.923
 30
0.000000
  70
    32
  0
VERTEX
  8
0
  5
4532
 10
134.966
 20
167.921
 30
0.000000
  70
    32
  0
VERTEX
  8
0
  5
4533
 10
135.027
 20
167.918
 30
0.000000
  70
    32
  0
VERTEX
  8
0
  5
4534
 10
135.089
 20
167.916
 30
0.000000
  70
    32
  0
VERTEX
  8
0
  5
4535
 10
135.151
 20
167.914
 30
0.000000
  70
    32
  0
VERTEX
  8
0
  5
4536
 10
135.214
 20
167.912
 30
0.000000
  70
    32
  0
VERTEX
  8
0
  5
4537
 10
135.276
 20
167.909
 30
0.000000
  70
    32
  0
VERTEX
  8
0
  5
4538
 10
135.340
 20
167.907
 30
0.000000
  70
    32
  0
VERTEX
  8
0
  5
4539
 10
135.403
 20
167.905
 30
0.000000
  70
    32
  0
VERTEX
  8
0
  5
453A
 10
135.467
 20
167.903
 30
0.000000
  70
    32
  0
VERTEX
  8
0
  5
453B
 10
135.531
 20
167.901
 30
0.000000
  70
    32
  0
VERTEX
  8
0
  5
453C
 10
135.596
 20
167.899
 30
0.000000
  70
    32
  0
VERTEX
  8
0
  5
453D
 10
135.661
 20
167.897
 30
0.000000
  70
    32
  0
VERTEX
  8
0
  5
453E
 10
135.726
 20
167.895
 30
0.000000
  70
    32
  0
VERTEX
  8
0
  5
453F
 10
135.792
 20
167.893
 30
0.000000
  70
    32
  0
VERTEX
  8
0
  5
4540
 10
135.858
 20
167.891
 30
0.000000
  70
    32
  0
VERTEX
  8
0
  5
4541
 10
135.924
 20
167.889
 30
0.000000
  70
    32
  0
VERTEX
  8
0
  5
4542
 10
135.991
 20
167.887
 30
0.000000
  70
    32
  0
VERTEX
  8
0
  5
4543
 10
136.058
 20
167.885
 30
0.000000
  70
    32
  0
VERTEX
  8
0
  5
4544
 10
136.125
 20
167.884
 30
0.000000
  70
    32
  0
VERTEX
  8
0
  5
4545
 10
136.192
 20
167.882
 30
0.000000
  70
    32
  0
VERTEX
  8
0
  5
4546
 10
136.260
 20
167.880
 30
0.000000
  70
    32
  0
VERTEX
  8
0
  5
4547
 10
136.328
 20
167.878
 30
0.000000
  70
    32
  0
VERTEX
  8
0
  5
4548
 10
136.397
 20
167.877
 30
0.000000
  70
    32
  0
VERTEX
  8
0
  5
4549
 10
136.465
 20
167.875
 30
0.000000
  70
    32
  0
VERTEX
  8
0
  5
454A
 10
136.534
 20
167.874
 30
0.000000
  70
    32
  0
VERTEX
  8
0
  5
454B
 10
136.603
 20
167.872
 30
0.000000
  70
    32
  0
VERTEX
  8
0
  5
454C
 10
136.673
 20
167.870
 30
0.000000
  70
    32
  0
VERTEX
  8
0
  5
454D
 10
136.743
 20
167.869
 30
0.000000
  70
    32
  0
VERTEX
  8
0
  5
454E
 10
136.812
 20
167.867
 30
0.000000
  70
    32
  0
VERTEX
  8
0
  5
454F
 10
136.883
 20
167.866
 30
0.000000
  70
    32
  0
VERTEX
  8
0
  5
4550
 10
136.953
 20
167.865
 30
0.000000
  70
    32
  0
VERTEX
  8
0
  5
4551
 10
137.024
 20
167.863
 30
0.000000
  70
    32
  0
VERTEX
  8
0
  5
4552
 10
137.095
 20
167.862
 30
0.000000
  70
    32
  0
VERTEX
  8
0
  5
4553
 10
137.166
 20
167.860
 30
0.000000
  70
    32
  0
VERTEX
  8
0
  5
4554
 10
137.237
 20
167.859
 30
0.000000
  70
    32
  0
VERTEX
  8
0
  5
4555
 10
137.309
 20
167.858
 30
0.000000
  70
    32
  0
VERTEX
  8
0
  5
4556
 10
137.380
 20
167.857
 30
0.000000
  70
    32
  0
VERTEX
  8
0
  5
4557
 10
137.452
 20
167.856
 30
0.000000
  70
    32
  0
VERTEX
  8
0
  5
4558
 10
137.525
 20
167.854
 30
0.000000
  70
    32
  0
VERTEX
  8
0
  5
4559
 10
137.597
 20
167.853
 30
0.000000
  70
    32
  0
VERTEX
  8
0
  5
455A
 10
137.669
 20
167.852
 30
0.000000
  70
    32
  0
VERTEX
  8
0
  5
455B
 10
137.742
 20
167.851
 30
0.000000
  70
    32
  0
VERTEX
  8
0
  5
455C
 10
137.815
 20
167.850
 30
0.000000
  70
    32
  0
VERTEX
  8
0
  5
455D
 10
137.888
 20
167.849
 30
0.000000
  70
    32
  0
VERTEX
  8
0
  5
455E
 10
137.961
 20
167.848
 30
0.000000
  70
    32
  0
VERTEX
  8
0
  5
455F
 10
138.035
 20
167.847
 30
0.000000
  70
    32
  0
VERTEX
  8
0
  5
4560
 10
138.108
 20
167.846
 30
0.000000
  70
    32
  0
VERTEX
  8
0
  5
4561
 10
138.182
 20
167.846
 30
0.000000
  70
    32
  0
VERTEX
  8
0
  5
4562
 10
138.256
 20
167.845
 30
0.000000
  70
    32
  0
VERTEX
  8
0
  5
4563
 10
138.329
 20
167.844
 30
0.000000
  70
    32
  0
VERTEX
  8
0
  5
4564
 10
138.404
 20
167.843
 30
0.000000
  70
    32
  0
VERTEX
  8
0
  5
4565
 10
138.478
 20
167.842
 30
0.000000
  70
    32
  0
VERTEX
  8
0
  5
4566
 10
138.552
 20
167.842
 30
0.000000
  70
    32
  0
VERTEX
  8
0
  5
4567
 10
138.626
 20
167.841
 30
0.000000
  70
    32
  0
VERTEX
  8
0
  5
4568
 10
138.701
 20
167.840
 30
0.000000
  70
    32
  0
VERTEX
  8
0
  5
4569
 10
138.776
 20
167.840
 30
0.000000
  70
    32
  0
VERTEX
  8
0
  5
456A
 10
138.850
 20
167.839
 30
0.000000
  70
    32
  0
VERTEX
  8
0
  5
456B
 10
138.925
 20
167.839
 30
0.000000
  70
    32
  0
VERTEX
  8
0
  5
456C
 10
139.000
 20
167.838
 30
0.000000
  70
    32
  0
SEQEND
  8
0
  5
456D
  0
LINE
  5
3E73
  8
0
 10
138.999999952525
 20
167.83837355675001
 30
0.0
 11
138.999999952525
 21
167.81170420345001
 31
0.0
  0
ARC
  5
3E74
  8
0
 10
159.00000000002501
 20
105.76203818614999
 30
0.0
 40
6.5240777928304414
 50
270.0
 51
0.0
  0
LINE
  5
3E75
  8
0
 10
158.99999938912501
 20
168.28611619764999
 30
0.0
 11
148.60423594712501
 21
168.28611619764999
 31
0.0
  0
POLYLINE
  5
3E76
  8
0
 10
141.00000000002501
 20
167.83837407789451
 30
0.0
 66
     1
 70
     8
  0
VERTEX
  8
0
  5
456E
 10
141.000
 20
167.838
 30
0.000000
  70
    32
  0
VERTEX
  8
0
  5
456F
 10
141.083
 20
167.839
 30
0.000000
  70
    32
  0
VERTEX
  8
0
  5
4570
 10
141.165
 20
167.839
 30
0.000000
  70
    32
  0
VERTEX
  8
0
  5
4571
 10
141.247
 20
167.840
 30
0.000000
  70
    32
  0
VERTEX
  8
0
  5
4572
 10
141.330
 20
167.841
 30
0.000000
  70
    32
  0
VERTEX
  8
0
  5
4573
 10
141.412
 20
167.841
 30
0.000000
  70
    32
  0
VERTEX
  8
0
  5
4574
 10
141.494
 20
167.842
 30
0.000000
  70
    32
  0
VERTEX
  8
0
  5
4575
 10
141.576
 20
167.843
 30
0.000000
  70
    32
  0
VERTEX
  8
0
  5
4576
 10
141.657
 20
167.844
 30
0.000000
  70
    32
  0
VERTEX
  8
0
  5
4577
 10
141.739
 20
167.845
 30
0.000000
  70
    32
  0
VERTEX
  8
0
  5
4578
 10
141.820
 20
167.846
 30
0.000000
  70
    32
  0
VERTEX
  8
0
  5
4579
 10
141.902
 20
167.846
 30
0.000000
  70
    32
  0
VERTEX
  8
0
  5
457A
 10
141.983
 20
167.847
 30
0.000000
  70
    32
  0
VERTEX
  8
0
  5
457B
 10
142.063
 20
167.848
 30
0.000000
  70
    32
  0
VERTEX
  8
0
  5
457C
 10
142.144
 20
167.850
 30
0.000000
  70
    32
  0
VERTEX
  8
0
  5
457D
 10
142.225
 20
167.851
 30
0.000000
  70
    32
  0
VERTEX
  8
0
  5
457E
 10
142.305
 20
167.852
 30
0.000000
  70
    32
  0
VERTEX
  8
0
  5
457F
 10
142.385
 20
167.853
 30
0.000000
  70
    32
  0
VERTEX
  8
0
  5
4580
 10
142.465
 20
167.854
 30
0.000000
  70
    32
  0
VERTEX
  8
0
  5
4581
 10
142.544
 20
167.855
 30
0.000000
  70
    32
  0
VERTEX
  8
0
  5
4582
 10
142.624
 20
167.857
 30
0.000000
  70
    32
  0
VERTEX
  8
0
  5
4583
 10
142.703
 20
167.858
 30
0.000000
  70
    32
  0
VERTEX
  8
0
  5
4584
 10
142.782
 20
167.860
 30
0.000000
  70
    32
  0
VERTEX
  8
0
  5
4585
 10
142.860
 20
167.861
 30
0.000000
  70
    32
  0
VERTEX
  8
0
  5
4586
 10
142.939
 20
167.862
 30
0.000000
  70
    32
  0
VERTEX
  8
0
  5
4587
 10
143.017
 20
167.864
 30
0.000000
  70
    32
  0
VERTEX
  8
0
  5
4588
 10
143.094
 20
167.865
 30
0.000000
  70
    32
  0
VERTEX
  8
0
  5
4589
 10
143.172
 20
167.867
 30
0.000000
  70
    32
  0
VERTEX
  8
0
  5
458A
 10
143.249
 20
167.869
 30
0.000000
  70
    32
  0
VERTEX
  8
0
  5
458B
 10
143.326
 20
167.870
 30
0.000000
  70
    32
  0
VERTEX
  8
0
  5
458C
 10
143.403
 20
167.872
 30
0.000000
  70
    32
  0
VERTEX
  8
0
  5
458D
 10
143.479
 20
167.874
 30
0.000000
  70
    32
  0
VERTEX
  8
0
  5
458E
 10
143.555
 20
167.876
 30
0.000000
  70
    32
  0
VERTEX
  8
0
  5
458F
 10
143.630
 20
167.877
 30
0.000000
  70
    32
  0
VERTEX
  8
0
  5
4590
 10
143.706
 20
167.879
 30
0.000000
  70
    32
  0
VERTEX
  8
0
  5
4591
 10
143.780
 20
167.881
 30
0.000000
  70
    32
  0
VERTEX
  8
0
  5
4592
 10
143.855
 20
167.883
 30
0.000000
  70
    32
  0
VERTEX
  8
0
  5
4593
 10
143.929
 20
167.885
 30
0.000000
  70
    32
  0
VERTEX
  8
0
  5
4594
 10
144.003
 20
167.887
 30
0.000000
  70
    32
  0
VERTEX
  8
0
  5
4595
 10
144.077
 20
167.889
 30
0.000000
  70
    32
  0
VERTEX
  8
0
  5
4596
 10
144.150
 20
167.891
 30
0.000000
  70
    32
  0
VERTEX
  8
0
  5
4597
 10
144.222
 20
167.893
 30
0.000000
  70
    32
  0
VERTEX
  8
0
  5
4598
 10
144.295
 20
167.896
 30
0.000000
  70
    32
  0
VERTEX
  8
0
  5
4599
 10
144.366
 20
167.898
 30
0.000000
  70
    32
  0
VERTEX
  8
0
  5
459A
 10
144.438
 20
167.900
 30
0.000000
  70
    32
  0
VERTEX
  8
0
  5
459B
 10
144.509
 20
167.902
 30
0.000000
  70
    32
  0
VERTEX
  8
0
  5
459C
 10
144.580
 20
167.904
 30
0.000000
  70
    32
  0
VERTEX
  8
0
  5
459D
 10
144.650
 20
167.907
 30
0.000000
  70
    32
  0
VERTEX
  8
0
  5
459E
 10
144.720
 20
167.909
 30
0.000000
  70
    32
  0
VERTEX
  8
0
  5
459F
 10
144.789
 20
167.912
 30
0.000000
  70
    32
  0
VERTEX
  8
0
  5
45A0
 10
144.858
 20
167.914
 30
0.000000
  70
    32
  0
VERTEX
  8
0
  5
45A1
 10
144.926
 20
167.917
 30
0.000000
  70
    32
  0
VERTEX
  8
0
  5
45A2
 10
144.994
 20
167.919
 30
0.000000
  70
    32
  0
VERTEX
  8
0
  5
45A3
 10
145.062
 20
167.922
 30
0.000000
  70
    32
  0
VERTEX
  8
0
  5
45A4
 10
145.129
 20
167.924
 30
0.000000
  70
    32
  0
VERTEX
  8
0
  5
45A5
 10
145.195
 20
167.927
 30
0.000000
  70
    32
  0
VERTEX
  8
0
  5
45A6
 10
145.261
 20
167.929
 30
0.000000
  70
    32
  0
VERTEX
  8
0
  5
45A7
 10
145.327
 20
167.932
 30
0.000000
  70
    32
  0
VERTEX
  8
0
  5
45A8
 10
145.392
 20
167.935
 30
0.000000
  70
    32
  0
VERTEX
  8
0
  5
45A9
 10
145.457
 20
167.938
 30
0.000000
  70
    32
  0
VERTEX
  8
0
  5
45AA
 10
145.521
 20
167.940
 30
0.000000
  70
    32
  0
VERTEX
  8
0
  5
45AB
 10
145.584
 20
167.943
 30
0.000000
  70
    32
  0
VERTEX
  8
0
  5
45AC
 10
145.647
 20
167.946
 30
0.000000
  70
    32
  0
VERTEX
  8
0
  5
45AD
 10
145.710
 20
167.949
 30
0.000000
  70
    32
  0
VERTEX
  8
0
  5
45AE
 10
145.772
 20
167.952
 30
0.000000
  70
    32
  0
VERTEX
  8
0
  5
45AF
 10
145.833
 20
167.955
 30
0.000000
  70
    32
  0
VERTEX
  8
0
  5
45B0
 10
145.894
 20
167.958
 30
0.000000
  70
    32
  0
VERTEX
  8
0
  5
45B1
 10
145.954
 20
167.961
 30
0.000000
  70
    32
  0
VERTEX
  8
0
  5
45B2
 10
146.014
 20
167.964
 30
0.000000
  70
    32
  0
VERTEX
  8
0
  5
45B3
 10
146.073
 20
167.967
 30
0.000000
  70
    32
  0
VERTEX
  8
0
  5
45B4
 10
146.132
 20
167.970
 30
0.000000
  70
    32
  0
VERTEX
  8
0
  5
45B5
 10
146.190
 20
167.973
 30
0.000000
  70
    32
  0
VERTEX
  8
0
  5
45B6
 10
146.248
 20
167.976
 30
0.000000
  70
    32
  0
VERTEX
  8
0
  5
45B7
 10
146.305
 20
167.979
 30
0.000000
  70
    32
  0
VERTEX
  8
0
  5
45B8
 10
146.361
 20
167.983
 30
0.000000
  70
    32
  0
VERTEX
  8
0
  5
45B9
 10
146.417
 20
167.986
 30
0.000000
  70
    32
  0
VERTEX
  8
0
  5
45BA
 10
146.472
 20
167.989
 30
0.000000
  70
    32
  0
VERTEX
  8
0
  5
45BB
 10
146.526
 20
167.992
 30
0.000000
  70
    32
  0
VERTEX
  8
0
  5
45BC
 10
146.580
 20
167.996
 30
0.000000
  70
    32
  0
VERTEX
  8
0
  5
45BD
 10
146.633
 20
167.999
 30
0.000000
  70
    32
  0
VERTEX
  8
0
  5
45BE
 10
146.686
 20
168.002
 30
0.000000
  70
    32
  0
VERTEX
  8
0
  5
45BF
 10
146.738
 20
168.006
 30
0.000000
  70
    32
  0
VERTEX
  8
0
  5
45C0
 10
146.790
 20
168.009
 30
0.000000
  70
    32
  0
VERTEX
  8
0
  5
45C1
 10
146.840
 20
168.013
 30
0.000000
  70
    32
  0
VERTEX
  8
0
  5
45C2
 10
146.891
 20
168.016
 30
0.000000
  70
    32
  0
VERTEX
  8
0
  5
45C3
 10
146.940
 20
168.020
 30
0.000000
  70
    32
  0
VERTEX
  8
0
  5
45C4
 10
146.989
 20
168.023
 30
0.000000
  70
    32
  0
VERTEX
  8
0
  5
45C5
 10
147.037
 20
168.027
 30
0.000000
  70
    32
  0
VERTEX
  8
0
  5
45C6
 10
147.085
 20
168.030
 30
0.000000
  70
    32
  0
VERTEX
  8
0
  5
45C7
 10
147.132
 20
168.034
 30
0.000000
  70
    32
  0
VERTEX
  8
0
  5
45C8
 10
147.178
 20
168.038
 30
0.000000
  70
    32
  0
VERTEX
  8
0
  5
45C9
 10
147.223
 20
168.041
 30
0.000000
  70
    32
  0
VERTEX
  8
0
  5
45CA
 10
147.268
 20
168.045
 30
0.000000
  70
    32
  0
VERTEX
  8
0
  5
45CB
 10
147.312
 20
168.049
 30
0.000000
  70
    32
  0
VERTEX
  8
0
  5
45CC
 10
147.356
 20
168.052
 30
0.000000
  70
    32
  0
VERTEX
  8
0
  5
45CD
 10
147.399
 20
168.056
 30
0.000000
  70
    32
  0
VERTEX
  8
0
  5
45CE
 10
147.441
 20
168.060
 30
0.000000
  70
    32
  0
VERTEX
  8
0
  5
45CF
 10
147.482
 20
168.064
 30
0.000000
  70
    32
  0
VERTEX
  8
0
  5
45D0
 10
147.523
 20
168.067
 30
0.000000
  70
    32
  0
VERTEX
  8
0
  5
45D1
 10
147.563
 20
168.071
 30
0.000000
  70
    32
  0
VERTEX
  8
0
  5
45D2
 10
147.602
 20
168.075
 30
0.000000
  70
    32
  0
VERTEX
  8
0
  5
45D3
 10
147.641
 20
168.079
 30
0.000000
  70
    32
  0
VERTEX
  8
0
  5
45D4
 10
147.679
 20
168.083
 30
0.000000
  70
    32
  0
VERTEX
  8
0
  5
45D5
 10
147.716
 20
168.087
 30
0.000000
  70
    32
  0
VERTEX
  8
0
  5
45D6
 10
147.752
 20
168.091
 30
0.000000
  70
    32
  0
VERTEX
  8
0
  5
45D7
 10
147.788
 20
168.095
 30
0.000000
  70
    32
  0
VERTEX
  8
0
  5
45D8
 10
147.823
 20
168.099
 30
0.000000
  70
    32
  0
VERTEX
  8
0
  5
45D9
 10
147.857
 20
168.102
 30
0.000000
  70
    32
  0
VERTEX
  8
0
  5
45DA
 10
147.891
 20
168.106
 30
0.000000
  70
    32
  0
VERTEX
  8
0
  5
45DB
 10
147.924
 20
168.110
 30
0.000000
  70
    32
  0
VERTEX
  8
0
  5
45DC
 10
147.956
 20
168.115
 30
0.000000
  70
    32
  0
VERTEX
  8
0
  5
45DD
 10
147.987
 20
168.119
 30
0.000000
  70
    32
  0
VERTEX
  8
0
  5
45DE
 10
148.018
 20
168.123
 30
0.000000
  70
    32
  0
VERTEX
  8
0
  5
45DF
 10
148.047
 20
168.127
 30
0.000000
  70
    32
  0
VERTEX
  8
0
  5
45E0
 10
148.077
 20
168.131
 30
0.000000
  70
    32
  0
VERTEX
  8
0
  5
45E1
 10
148.105
 20
168.135
 30
0.000000
  70
    32
  0
VERTEX
  8
0
  5
45E2
 10
148.132
 20
168.139
 30
0.000000
  70
    32
  0
VERTEX
  8
0
  5
45E3
 10
148.159
 20
168.143
 30
0.000000
  70
    32
  0
VERTEX
  8
0
  5
45E4
 10
148.185
 20
168.147
 30
0.000000
  70
    32
  0
VERTEX
  8
0
  5
45E5
 10
148.211
 20
168.151
 30
0.000000
  70
    32
  0
VERTEX
  8
0
  5
45E6
 10
148.235
 20
168.156
 30
0.000000
  70
    32
  0
VERTEX
  8
0
  5
45E7
 10
148.259
 20
168.160
 30
0.000000
  70
    32
  0
VERTEX
  8
0
  5
45E8
 10
148.282
 20
168.164
 30
0.000000
  70
    32
  0
VERTEX
  8
0
  5
45E9
 10
148.304
 20
168.168
 30
0.000000
  70
    32
  0
VERTEX
  8
0
  5
45EA
 10
148.325
 20
168.172
 30
0.000000
  70
    32
  0
VERTEX
  8
0
  5
45EB
 10
148.346
 20
168.177
 30
0.000000
  70
    32
  0
VERTEX
  8
0
  5
45EC
 10
148.366
 20
168.181
 30
0.000000
  70
    32
  0
VERTEX
  8
0
  5
45ED
 10
148.385
 20
168.185
 30
0.000000
  70
    32
  0
VERTEX
  8
0
  5
45EE
 10
148.403
 20
168.189
 30
0.000000
  70
    32
  0
SEQEND
  8
0
  5
45EF
  0
LINE
  5
3E77
  8
0
 10
141.00000004752511
 20
167.83837355675001
 30
0.0
 11
141.00000004752511
 21
167.81170420345001
 31
0.0
  0
LINE
  5
3E78
  8
0
 10
114.475922063025
 20
161.76203764975
 30
0.0
 11
114.475922063025
 21
105.76203778385
 31
0.0
  0
LINE
  5
3E79
  8
0
 10
165.524077937025
 20
105.76203778385
 30
0.0
 11
165.524077937025
 21
161.76203764975
 31
0.0
  0
ARC
  5
3E7A
  8
0
 10
159.00000000002501
 20
161.76203818614999
 30
0.0
 40
6.5240777928304414
 50
0.0
 51
90.0
  0
LINE
  5
3E7B
  8
0
 10
121.000000611025
 20
99.237961098550002
 30
0.0
 11
158.99999938912501
 21
99.237961098550002
 31
0.0
  0
LINE
  5
3E7C
  8
0
 10
138.999999952525
 20
167.33600325885001
 30
0.0
 11
141.00000004752511
 21
167.33600325885001
 31
0.0
  0
ARC
  5
3E7D
  8
0
 10
131.395357137725
 20
168.78654131875001
 30
0.0
 40
0.500425286462717
 50
270.04658942090282
 51
357.03226437529997
  0
ARC
  5
3E7E
  8
0
 10
148.60451416502511
 20
168.78640588684999
 30
0.0
 40
0.5002897665097623
 50
182.95300916070011
 51
269.96813704309812
  0
LINE
  5
3E7F
  8
0
 10
131.99999962002499
 20
170.76203726234999
 30
0.0
 11
131.89511127772499
 21
168.76063250005001
 31
0.0
  0
LINE
  5
3E80
  8
0
 10
148.00000038002511
 20
170.76203726234999
 30
0.0
 11
148.10488872232489
 21
168.76063250005001
 31
0.0
  0
LINE
  5
3E81
  8
0
 10
131.89511127772499
 20
168.76063250005001
 30
0.0
 11
131.99999962002499
 21
170.76203726234999
 31
0.0
  0
LINE
  5
3E82
  8
0
 10
148.10488872232489
 20
168.76063250005001
 30
0.0
 11
148.00000038002511
 21
170.76203726234999
 31
0.0
  0
ARC
  5
3E83
  8
0
 10
131.395485835025
 20
168.78640588684999
 30
0.0
 40
0.5002897665097338
 50
270.03186295689858
 51
357.04699083929989
  0
ARC
  5
3E84
  8
0
 10
148.60464286232499
 20
168.78654131875001
 30
0.0
 40
0.500425286462717
 50
182.96773562469949
 51
269.95341057909718
  0
CIRCLE
  5
3E85
  8
0
 10
123.000000000025
 20
142.26203818614999
 30
0.0
 40
2.7254493507178368
  0
CIRCLE
  5
3E86
  8
0
 10
157.00000000002501
 20
142.26203818614999
 30
0.0
 40
2.7254493507178088
  0
POLYLINE
  5
3E87
  8
0
 10
131.39576401270716
 20
168.28611597904688
 30
0.0
 66
     1
 70
     8
  0
VERTEX
  8
0
  5
45F0
 10
131.396
 20
168.286
 30
0.000000
  70
    32
  0
VERTEX
  8
0
  5
45F1
 10
131.396
 20
168.285
 30
0.000000
  70
    32
  0
VERTEX
  8
0
  5
45F2
 10
131.396
 20
168.284
 30
0.000000
  70
    32
  0
VERTEX
  8
0
  5
45F3
 10
131.396
 20
168.283
 30
0.000000
  70
    32
  0
VERTEX
  8
0
  5
45F4
 10
131.396
 20
168.281
 30
0.000000
  70
    32
  0
VERTEX
  8
0
  5
45F5
 10
131.397
 20
168.280
 30
0.000000
  70
    32
  0
VERTEX
  8
0
  5
45F6
 10
131.397
 20
168.279
 30
0.000000
  70
    32
  0
VERTEX
  8
0
  5
45F7
 10
131.397
 20
168.278
 30
0.000000
  70
    32
  0
VERTEX
  8
0
  5
45F8
 10
131.398
 20
168.277
 30
0.000000
  70
    32
  0
VERTEX
  8
0
  5
45F9
 10
131.398
 20
168.276
 30
0.000000
  70
    32
  0
VERTEX
  8
0
  5
45FA
 10
131.399
 20
168.274
 30
0.000000
  70
    32
  0
VERTEX
  8
0
  5
45FB
 10
131.399
 20
168.273
 30
0.000000
  70
    32
  0
VERTEX
  8
0
  5
45FC
 10
131.400
 20
168.272
 30
0.000000
  70
    32
  0
VERTEX
  8
0
  5
45FD
 10
131.401
 20
168.271
 30
0.000000
  70
    32
  0
VERTEX
  8
0
  5
45FE
 10
131.402
 20
168.270
 30
0.000000
  70
    32
  0
VERTEX
  8
0
  5
45FF
 10
131.402
 20
168.269
 30
0.000000
  70
    32
  0
VERTEX
  8
0
  5
4600
 10
131.403
 20
168.267
 30
0.000000
  70
    32
  0
VERTEX
  8
0
  5
4601
 10
131.404
 20
168.266
 30
0.000000
  70
    32
  0
VERTEX
  8
0
  5
4602
 10
131.405
 20
168.265
 30
0.000000
  70
    32
  0
VERTEX
  8
0
  5
4603
 10
131.406
 20
168.264
 30
0.000000
  70
    32
  0
VERTEX
  8
0
  5
4604
 10
131.407
 20
168.263
 30
0.000000
  70
    32
  0
VERTEX
  8
0
  5
4605
 10
131.409
 20
168.262
 30
0.000000
  70
    32
  0
VERTEX
  8
0
  5
4606
 10
131.410
 20
168.260
 30
0.000000
  70
    32
  0
VERTEX
  8
0
  5
4607
 10
131.411
 20
168.259
 30
0.000000
  70
    32
  0
VERTEX
  8
0
  5
4608
 10
131.413
 20
168.258
 30
0.000000
  70
    32
  0
VERTEX
  8
0
  5
4609
 10
131.414
 20
168.257
 30
0.000000
  70
    32
  0
VERTEX
  8
0
  5
460A
 10
131.415
 20
168.256
 30
0.000000
  70
    32
  0
VERTEX
  8
0
  5
460B
 10
131.417
 20
168.255
 30
0.000000
  70
    32
  0
VERTEX
  8
0
  5
460C
 10
131.419
 20
168.253
 30
0.000000
  70
    32
  0
VERTEX
  8
0
  5
460D
 10
131.420
 20
168.252
 30
0.000000
  70
    32
  0
VERTEX
  8
0
  5
460E
 10
131.422
 20
168.251
 30
0.000000
  70
    32
  0
VERTEX
  8
0
  5
460F
 10
131.424
 20
168.250
 30
0.000000
  70
    32
  0
VERTEX
  8
0
  5
4610
 10
131.426
 20
168.249
 30
0.000000
  70
    32
  0
VERTEX
  8
0
  5
4611
 10
131.427
 20
168.248
 30
0.000000
  70
    32
  0
VERTEX
  8
0
  5
4612
 10
131.429
 20
168.246
 30
0.000000
  70
    32
  0
VERTEX
  8
0
  5
4613
 10
131.431
 20
168.245
 30
0.000000
  70
    32
  0
VERTEX
  8
0
  5
4614
 10
131.433
 20
168.244
 30
0.000000
  70
    32
  0
VERTEX
  8
0
  5
4615
 10
131.436
 20
168.243
 30
0.000000
  70
    32
  0
VERTEX
  8
0
  5
4616
 10
131.438
 20
168.242
 30
0.000000
  70
    32
  0
VERTEX
  8
0
  5
4617
 10
131.440
 20
168.241
 30
0.000000
  70
    32
  0
VERTEX
  8
0
  5
4618
 10
131.442
 20
168.239
 30
0.000000
  70
    32
  0
VERTEX
  8
0
  5
4619
 10
131.445
 20
168.238
 30
0.000000
  70
    32
  0
VERTEX
  8
0
  5
461A
 10
131.447
 20
168.237
 30
0.000000
  70
    32
  0
VERTEX
  8
0
  5
461B
 10
131.449
 20
168.236
 30
0.000000
  70
    32
  0
VERTEX
  8
0
  5
461C
 10
131.452
 20
168.235
 30
0.000000
  70
    32
  0
VERTEX
  8
0
  5
461D
 10
131.455
 20
168.234
 30
0.000000
  70
    32
  0
VERTEX
  8
0
  5
461E
 10
131.457
 20
168.232
 30
0.000000
  70
    32
  0
VERTEX
  8
0
  5
461F
 10
131.460
 20
168.231
 30
0.000000
  70
    32
  0
VERTEX
  8
0
  5
4620
 10
131.463
 20
168.230
 30
0.000000
  70
    32
  0
VERTEX
  8
0
  5
4621
 10
131.465
 20
168.229
 30
0.000000
  70
    32
  0
VERTEX
  8
0
  5
4622
 10
131.468
 20
168.228
 30
0.000000
  70
    32
  0
VERTEX
  8
0
  5
4623
 10
131.471
 20
168.227
 30
0.000000
  70
    32
  0
VERTEX
  8
0
  5
4624
 10
131.474
 20
168.226
 30
0.000000
  70
    32
  0
VERTEX
  8
0
  5
4625
 10
131.477
 20
168.224
 30
0.000000
  70
    32
  0
VERTEX
  8
0
  5
4626
 10
131.480
 20
168.223
 30
0.000000
  70
    32
  0
VERTEX
  8
0
  5
4627
 10
131.483
 20
168.222
 30
0.000000
  70
    32
  0
VERTEX
  8
0
  5
4628
 10
131.487
 20
168.221
 30
0.000000
  70
    32
  0
VERTEX
  8
0
  5
4629
 10
131.490
 20
168.220
 30
0.000000
  70
    32
  0
VERTEX
  8
0
  5
462A
 10
131.493
 20
168.219
 30
0.000000
  70
    32
  0
VERTEX
  8
0
  5
462B
 10
131.497
 20
168.217
 30
0.000000
  70
    32
  0
VERTEX
  8
0
  5
462C
 10
131.500
 20
168.216
 30
0.000000
  70
    32
  0
VERTEX
  8
0
  5
462D
 10
131.504
 20
168.215
 30
0.000000
  70
    32
  0
VERTEX
  8
0
  5
462E
 10
131.507
 20
168.214
 30
0.000000
  70
    32
  0
VERTEX
  8
0
  5
462F
 10
131.511
 20
168.213
 30
0.000000
  70
    32
  0
VERTEX
  8
0
  5
4630
 10
131.514
 20
168.212
 30
0.000000
  70
    32
  0
VERTEX
  8
0
  5
4631
 10
131.518
 20
168.210
 30
0.000000
  70
    32
  0
VERTEX
  8
0
  5
4632
 10
131.522
 20
168.209
 30
0.000000
  70
    32
  0
VERTEX
  8
0
  5
4633
 10
131.526
 20
168.208
 30
0.000000
  70
    32
  0
VERTEX
  8
0
  5
4634
 10
131.530
 20
168.207
 30
0.000000
  70
    32
  0
VERTEX
  8
0
  5
4635
 10
131.533
 20
168.206
 30
0.000000
  70
    32
  0
VERTEX
  8
0
  5
4636
 10
131.537
 20
168.205
 30
0.000000
  70
    32
  0
VERTEX
  8
0
  5
4637
 10
131.542
 20
168.204
 30
0.000000
  70
    32
  0
VERTEX
  8
0
  5
4638
 10
131.546
 20
168.202
 30
0.000000
  70
    32
  0
VERTEX
  8
0
  5
4639
 10
131.550
 20
168.201
 30
0.000000
  70
    32
  0
VERTEX
  8
0
  5
463A
 10
131.554
 20
168.200
 30
0.000000
  70
    32
  0
VERTEX
  8
0
  5
463B
 10
131.558
 20
168.199
 30
0.000000
  70
    32
  0
VERTEX
  8
0
  5
463C
 10
131.563
 20
168.198
 30
0.000000
  70
    32
  0
VERTEX
  8
0
  5
463D
 10
131.567
 20
168.197
 30
0.000000
  70
    32
  0
VERTEX
  8
0
  5
463E
 10
131.572
 20
168.196
 30
0.000000
  70
    32
  0
VERTEX
  8
0
  5
463F
 10
131.576
 20
168.194
 30
0.000000
  70
    32
  0
VERTEX
  8
0
  5
4640
 10
131.581
 20
168.193
 30
0.000000
  70
    32
  0
VERTEX
  8
0
  5
4641
 10
131.585
 20
168.192
 30
0.000000
  70
    32
  0
VERTEX
  8
0
  5
4642
 10
131.590
 20
168.191
 30
0.000000
  70
    32
  0
VERTEX
  8
0
  5
4643
 10
131.595
 20
168.190
 30
0.000000
  70
    32
  0
VERTEX
  8
0
  5
4644
 10
131.599
 20
168.189
 30
0.000000
  70
    32
  0
VERTEX
  8
0
  5
4645
 10
131.604
 20
168.188
 30
0.000000
  70
    32
  0
VERTEX
  8
0
  5
4646
 10
131.609
 20
168.186
 30
0.000000
  70
    32
  0
VERTEX
  8
0
  5
4647
 10
131.614
 20
168.185
 30
0.000000
  70
    32
  0
VERTEX
  8
0
  5
4648
 10
131.619
 20
168.184
 30
0.000000
  70
    32
  0
VERTEX
  8
0
  5
4649
 10
131.624
 20
168.183
 30
0.000000
  70
    32
  0
VERTEX
  8
0
  5
464A
 10
131.629
 20
168.182
 30
0.000000
  70
    32
  0
VERTEX
  8
0
  5
464B
 10
131.635
 20
168.181
 30
0.000000
  70
    32
  0
VERTEX
  8
0
  5
464C
 10
131.640
 20
168.180
 30
0.000000
  70
    32
  0
VERTEX
  8
0
  5
464D
 10
131.645
 20
168.178
 30
0.000000
  70
    32
  0
VERTEX
  8
0
  5
464E
 10
131.651
 20
168.177
 30
0.000000
  70
    32
  0
VERTEX
  8
0
  5
464F
 10
131.656
 20
168.176
 30
0.000000
  70
    32
  0
VERTEX
  8
0
  5
4650
 10
131.661
 20
168.175
 30
0.000000
  70
    32
  0
VERTEX
  8
0
  5
4651
 10
131.667
 20
168.174
 30
0.000000
  70
    32
  0
VERTEX
  8
0
  5
4652
 10
131.673
 20
168.173
 30
0.000000
  70
    32
  0
VERTEX
  8
0
  5
4653
 10
131.678
 20
168.172
 30
0.000000
  70
    32
  0
VERTEX
  8
0
  5
4654
 10
131.684
 20
168.171
 30
0.000000
  70
    32
  0
VERTEX
  8
0
  5
4655
 10
131.690
 20
168.169
 30
0.000000
  70
    32
  0
VERTEX
  8
0
  5
4656
 10
131.695
 20
168.168
 30
0.000000
  70
    32
  0
VERTEX
  8
0
  5
4657
 10
131.701
 20
168.167
 30
0.000000
  70
    32
  0
VERTEX
  8
0
  5
4658
 10
131.707
 20
168.166
 30
0.000000
  70
    32
  0
VERTEX
  8
0
  5
4659
 10
131.713
 20
168.165
 30
0.000000
  70
    32
  0
VERTEX
  8
0
  5
465A
 10
131.719
 20
168.164
 30
0.000000
  70
    32
  0
VERTEX
  8
0
  5
465B
 10
131.725
 20
168.163
 30
0.000000
  70
    32
  0
VERTEX
  8
0
  5
465C
 10
131.731
 20
168.162
 30
0.000000
  70
    32
  0
VERTEX
  8
0
  5
465D
 10
131.738
 20
168.160
 30
0.000000
  70
    32
  0
VERTEX
  8
0
  5
465E
 10
131.744
 20
168.159
 30
0.000000
  70
    32
  0
VERTEX
  8
0
  5
465F
 10
131.750
 20
168.158
 30
0.000000
  70
    32
  0
VERTEX
  8
0
  5
4660
 10
131.757
 20
168.157
 30
0.000000
  70
    32
  0
VERTEX
  8
0
  5
4661
 10
131.763
 20
168.156
 30
0.000000
  70
    32
  0
VERTEX
  8
0
  5
4662
 10
131.769
 20
168.155
 30
0.000000
  70
    32
  0
VERTEX
  8
0
  5
4663
 10
131.776
 20
168.154
 30
0.000000
  70
    32
  0
VERTEX
  8
0
  5
4664
 10
131.783
 20
168.153
 30
0.000000
  70
    32
  0
VERTEX
  8
0
  5
4665
 10
131.789
 20
168.151
 30
0.000000
  70
    32
  0
VERTEX
  8
0
  5
4666
 10
131.796
 20
168.150
 30
0.000000
  70
    32
  0
VERTEX
  8
0
  5
4667
 10
131.803
 20
168.149
 30
0.000000
  70
    32
  0
VERTEX
  8
0
  5
4668
 10
131.810
 20
168.148
 30
0.000000
  70
    32
  0
VERTEX
  8
0
  5
4669
 10
131.816
 20
168.147
 30
0.000000
  70
    32
  0
VERTEX
  8
0
  5
466A
 10
131.823
 20
168.146
 30
0.000000
  70
    32
  0
VERTEX
  8
0
  5
466B
 10
131.830
 20
168.145
 30
0.000000
  70
    32
  0
VERTEX
  8
0
  5
466C
 10
131.837
 20
168.144
 30
0.000000
  70
    32
  0
VERTEX
  8
0
  5
466D
 10
131.844
 20
168.143
 30
0.000000
  70
    32
  0
VERTEX
  8
0
  5
466E
 10
131.851
 20
168.141
 30
0.000000
  70
    32
  0
VERTEX
  8
0
  5
466F
 10
131.859
 20
168.140
 30
0.000000
  70
    32
  0
VERTEX
  8
0
  5
4670
 10
131.866
 20
168.139
 30
0.000000
  70
    32
  0
SEQEND
  8
0
  5
4671
  0
POLYLINE
  5
3E88
  8
0
 10
148.40305999124107
 20
168.18930875733884
 30
0.0
 66
     1
 70
     8
  0
VERTEX
  8
0
  5
4672
 10
148.403
 20
168.189
 30
0.000000
  70
    32
  0
VERTEX
  8
0
  5
4673
 10
148.406
 20
168.190
 30
0.000000
  70
    32
  0
VERTEX
  8
0
  5
4674
 10
148.409
 20
168.191
 30
0.000000
  70
    32
  0
VERTEX
  8
0
  5
4675
 10
148.412
 20
168.192
 30
0.000000
  70
    32
  0
VERTEX
  8
0
  5
4676
 10
148.415
 20
168.192
 30
0.000000
  70
    32
  0
VERTEX
  8
0
  5
4677
 10
148.418
 20
168.193
 30
0.000000
  70
    32
  0
VERTEX
  8
0
  5
4678
 10
148.421
 20
168.194
 30
0.000000
  70
    32
  0
VERTEX
  8
0
  5
4679
 10
148.424
 20
168.195
 30
0.000000
  70
    32
  0
VERTEX
  8
0
  5
467A
 10
148.427
 20
168.195
 30
0.000000
  70
    32
  0
VERTEX
  8
0
  5
467B
 10
148.430
 20
168.196
 30
0.000000
  70
    32
  0
VERTEX
  8
0
  5
467C
 10
148.433
 20
168.197
 30
0.000000
  70
    32
  0
VERTEX
  8
0
  5
467D
 10
148.436
 20
168.198
 30
0.000000
  70
    32
  0
VERTEX
  8
0
  5
467E
 10
148.439
 20
168.198
 30
0.000000
  70
    32
  0
VERTEX
  8
0
  5
467F
 10
148.442
 20
168.199
 30
0.000000
  70
    32
  0
VERTEX
  8
0
  5
4680
 10
148.444
 20
168.200
 30
0.000000
  70
    32
  0
VERTEX
  8
0
  5
4681
 10
148.447
 20
168.201
 30
0.000000
  70
    32
  0
VERTEX
  8
0
  5
4682
 10
148.450
 20
168.201
 30
0.000000
  70
    32
  0
VERTEX
  8
0
  5
4683
 10
148.453
 20
168.202
 30
0.000000
  70
    32
  0
VERTEX
  8
0
  5
4684
 10
148.455
 20
168.203
 30
0.000000
  70
    32
  0
VERTEX
  8
0
  5
4685
 10
148.458
 20
168.204
 30
0.000000
  70
    32
  0
VERTEX
  8
0
  5
4686
 10
148.461
 20
168.204
 30
0.000000
  70
    32
  0
VERTEX
  8
0
  5
4687
 10
148.463
 20
168.205
 30
0.000000
  70
    32
  0
VERTEX
  8
0
  5
4688
 10
148.466
 20
168.206
 30
0.000000
  70
    32
  0
VERTEX
  8
0
  5
4689
 10
148.469
 20
168.206
 30
0.000000
  70
    32
  0
VERTEX
  8
0
  5
468A
 10
148.471
 20
168.207
 30
0.000000
  70
    32
  0
VERTEX
  8
0
  5
468B
 10
148.474
 20
168.208
 30
0.000000
  70
    32
  0
VERTEX
  8
0
  5
468C
 10
148.476
 20
168.209
 30
0.000000
  70
    32
  0
VERTEX
  8
0
  5
468D
 10
148.479
 20
168.210
 30
0.000000
  70
    32
  0
VERTEX
  8
0
  5
468E
 10
148.481
 20
168.210
 30
0.000000
  70
    32
  0
VERTEX
  8
0
  5
468F
 10
148.484
 20
168.211
 30
0.000000
  70
    32
  0
VERTEX
  8
0
  5
4690
 10
148.486
 20
168.212
 30
0.000000
  70
    32
  0
VERTEX
  8
0
  5
4691
 10
148.488
 20
168.213
 30
0.000000
  70
    32
  0
VERTEX
  8
0
  5
4692
 10
148.491
 20
168.213
 30
0.000000
  70
    32
  0
VERTEX
  8
0
  5
4693
 10
148.493
 20
168.214
 30
0.000000
  70
    32
  0
VERTEX
  8
0
  5
4694
 10
148.495
 20
168.215
 30
0.000000
  70
    32
  0
VERTEX
  8
0
  5
4695
 10
148.498
 20
168.216
 30
0.000000
  70
    32
  0
VERTEX
  8
0
  5
4696
 10
148.500
 20
168.216
 30
0.000000
  70
    32
  0
VERTEX
  8
0
  5
4697
 10
148.502
 20
168.217
 30
0.000000
  70
    32
  0
VERTEX
  8
0
  5
4698
 10
148.504
 20
168.218
 30
0.000000
  70
    32
  0
VERTEX
  8
0
  5
4699
 10
148.507
 20
168.219
 30
0.000000
  70
    32
  0
VERTEX
  8
0
  5
469A
 10
148.509
 20
168.219
 30
0.000000
  70
    32
  0
VERTEX
  8
0
  5
469B
 10
148.511
 20
168.220
 30
0.000000
  70
    32
  0
VERTEX
  8
0
  5
469C
 10
148.513
 20
168.221
 30
0.000000
  70
    32
  0
VERTEX
  8
0
  5
469D
 10
148.515
 20
168.222
 30
0.000000
  70
    32
  0
VERTEX
  8
0
  5
469E
 10
148.517
 20
168.222
 30
0.000000
  70
    32
  0
VERTEX
  8
0
  5
469F
 10
148.519
 20
168.223
 30
0.000000
  70
    32
  0
VERTEX
  8
0
  5
46A0
 10
148.521
 20
168.224
 30
0.000000
  70
    32
  0
VERTEX
  8
0
  5
46A1
 10
148.523
 20
168.225
 30
0.000000
  70
    32
  0
VERTEX
  8
0
  5
46A2
 10
148.525
 20
168.225
 30
0.000000
  70
    32
  0
VERTEX
  8
0
  5
46A3
 10
148.527
 20
168.226
 30
0.000000
  70
    32
  0
VERTEX
  8
0
  5
46A4
 10
148.529
 20
168.227
 30
0.000000
  70
    32
  0
VERTEX
  8
0
  5
46A5
 10
148.531
 20
168.228
 30
0.000000
  70
    32
  0
VERTEX
  8
0
  5
46A6
 10
148.533
 20
168.228
 30
0.000000
  70
    32
  0
VERTEX
  8
0
  5
46A7
 10
148.535
 20
168.229
 30
0.000000
  70
    32
  0
VERTEX
  8
0
  5
46A8
 10
148.537
 20
168.230
 30
0.000000
  70
    32
  0
VERTEX
  8
0
  5
46A9
 10
148.538
 20
168.231
 30
0.000000
  70
    32
  0
VERTEX
  8
0
  5
46AA
 10
148.540
 20
168.231
 30
0.000000
  70
    32
  0
VERTEX
  8
0
  5
46AB
 10
148.542
 20
168.232
 30
0.000000
  70
    32
  0
VERTEX
  8
0
  5
46AC
 10
148.544
 20
168.233
 30
0.000000
  70
    32
  0
VERTEX
  8
0
  5
46AD
 10
148.545
 20
168.234
 30
0.000000
  70
    32
  0
VERTEX
  8
0
  5
46AE
 10
148.547
 20
168.234
 30
0.000000
  70
    32
  0
VERTEX
  8
0
  5
46AF
 10
148.549
 20
168.235
 30
0.000000
  70
    32
  0
VERTEX
  8
0
  5
46B0
 10
148.550
 20
168.236
 30
0.000000
  70
    32
  0
VERTEX
  8
0
  5
46B1
 10
148.552
 20
168.237
 30
0.000000
  70
    32
  0
VERTEX
  8
0
  5
46B2
 10
148.554
 20
168.237
 30
0.000000
  70
    32
  0
VERTEX
  8
0
  5
46B3
 10
148.555
 20
168.238
 30
0.000000
  70
    32
  0
VERTEX
  8
0
  5
46B4
 10
148.557
 20
168.239
 30
0.000000
  70
    32
  0
VERTEX
  8
0
  5
46B5
 10
148.558
 20
168.240
 30
0.000000
  70
    32
  0
VERTEX
  8
0
  5
46B6
 10
148.560
 20
168.240
 30
0.000000
  70
    32
  0
VERTEX
  8
0
  5
46B7
 10
148.561
 20
168.241
 30
0.000000
  70
    32
  0
VERTEX
  8
0
  5
46B8
 10
148.563
 20
168.242
 30
0.000000
  70
    32
  0
VERTEX
  8
0
  5
46B9
 10
148.564
 20
168.243
 30
0.000000
  70
    32
  0
VERTEX
  8
0
  5
46BA
 10
148.565
 20
168.243
 30
0.000000
  70
    32
  0
VERTEX
  8
0
  5
46BB
 10
148.567
 20
168.244
 30
0.000000
  70
    32
  0
VERTEX
  8
0
  5
46BC
 10
148.568
 20
168.245
 30
0.000000
  70
    32
  0
VERTEX
  8
0
  5
46BD
 10
148.569
 20
168.246
 30
0.000000
  70
    32
  0
VERTEX
  8
0
  5
46BE
 10
148.571
 20
168.247
 30
0.000000
  70
    32
  0
VERTEX
  8
0
  5
46BF
 10
148.572
 20
168.247
 30
0.000000
  70
    32
  0
VERTEX
  8
0
  5
46C0
 10
148.573
 20
168.248
 30
0.000000
  70
    32
  0
VERTEX
  8
0
  5
46C1
 10
148.575
 20
168.249
 30
0.000000
  70
    32
  0
VERTEX
  8
0
  5
46C2
 10
148.576
 20
168.250
 30
0.000000
  70
    32
  0
VERTEX
  8
0
  5
46C3
 10
148.577
 20
168.250
 30
0.000000
  70
    32
  0
VERTEX
  8
0
  5
46C4
 10
148.578
 20
168.251
 30
0.000000
  70
    32
  0
VERTEX
  8
0
  5
46C5
 10
148.579
 20
168.252
 30
0.000000
  70
    32
  0
VERTEX
  8
0
  5
46C6
 10
148.580
 20
168.253
 30
0.000000
  70
    32
  0
VERTEX
  8
0
  5
46C7
 10
148.581
 20
168.253
 30
0.000000
  70
    32
  0
VERTEX
  8
0
  5
46C8
 10
148.582
 20
168.254
 30
0.000000
  70
    32
  0
VERTEX
  8
0
  5
46C9
 10
148.583
 20
168.255
 30
0.000000
  70
    32
  0
VERTEX
  8
0
  5
46CA
 10
148.584
 20
168.256
 30
0.000000
  70
    32
  0
VERTEX
  8
0
  5
46CB
 10
148.585
 20
168.256
 30
0.000000
  70
    32
  0
VERTEX
  8
0
  5
46CC
 10
148.586
 20
168.257
 30
0.000000
  70
    32
  0
VERTEX
  8
0
  5
46CD
 10
148.587
 20
168.258
 30
0.000000
  70
    32
  0
VERTEX
  8
0
  5
46CE
 10
148.588
 20
168.259
 30
0.000000
  70
    32
  0
VERTEX
  8
0
  5
46CF
 10
148.589
 20
168.259
 30
0.000000
  70
    32
  0
VERTEX
  8
0
  5
46D0
 10
148.590
 20
168.260
 30
0.000000
  70
    32
  0
VERTEX
  8
0
  5
46D1
 10
148.591
 20
168.261
 30
0.000000
  70
    32
  0
VERTEX
  8
0
  5
46D2
 10
148.592
 20
168.262
 30
0.000000
  70
    32
  0
VERTEX
  8
0
  5
46D3
 10
148.592
 20
168.262
 30
0.000000
  70
    32
  0
VERTEX
  8
0
  5
46D4
 10
148.593
 20
168.263
 30
0.000000
  70
    32
  0
VERTEX
  8
0
  5
46D5
 10
148.594
 20
168.264
 30
0.000000
  70
    32
  0
VERTEX
  8
0
  5
46D6
 10
148.594
 20
168.265
 30
0.000000
  70
    32
  0
VERTEX
  8
0
  5
46D7
 10
148.595
 20
168.266
 30
0.000000
  70
    32
  0
VERTEX
  8
0
  5
46D8
 10
148.596
 20
168.266
 30
0.000000
  70
    32
  0
VERTEX
  8
0
  5
46D9
 10
148.596
 20
168.267
 30
0.000000
  70
    32
  0
VERTEX
  8
0
  5
46DA
 10
148.597
 20
168.268
 30
0.000000
  70
    32
  0
VERTEX
  8
0
  5
46DB
 10
148.598
 20
168.269
 30
0.000000
  70
    32
  0
VERTEX
  8
0
  5
46DC
 10
148.598
 20
168.269
 30
0.000000
  70
    32
  0
VERTEX
  8
0
  5
46DD
 10
148.599
 20
168.270
 30
0.000000
  70
    32
  0
VERTEX
  8
0
  5
46DE
 10
148.599
 20
168.271
 30
0.000000
  70
    32
  0
VERTEX
  8
0
  5
46DF
 10
148.600
 20
168.272
 30
0.000000
  70
    32
  0
VERTEX
  8
0
  5
46E0
 10
148.600
 20
168.272
 30
0.000000
  70
    32
  0
VERTEX
  8
0
  5
46E1
 10
148.601
 20
168.273
 30
0.000000
  70
    32
  0
VERTEX
  8
0
  5
46E2
 10
148.601
 20
168.274
 30
0.000000
  70
    32
  0
VERTEX
  8
0
  5
46E3
 10
148.601
 20
168.275
 30
0.000000
  70
    32
  0
VERTEX
  8
0
  5
46E4
 10
148.602
 20
168.275
 30
0.000000
  70
    32
  0
VERTEX
  8
0
  5
46E5
 10
148.602
 20
168.276
 30
0.000000
  70
    32
  0
VERTEX
  8
0
  5
46E6
 10
148.602
 20
168.277
 30
0.000000
  70
    32
  0
VERTEX
  8
0
  5
46E7
 10
148.603
 20
168.278
 30
0.000000
  70
    32
  0
VERTEX
  8
0
  5
46E8
 10
148.603
 20
168.278
 30
0.000000
  70
    32
  0
VERTEX
  8
0
  5
46E9
 10
148.603
 20
168.279
 30
0.000000
  70
    32
  0
VERTEX
  8
0
  5
46EA
 10
148.603
 20
168.280
 30
0.000000
  70
    32
  0
VERTEX
  8
0
  5
46EB
 10
148.604
 20
168.281
 30
0.000000
  70
    32
  0
VERTEX
  8
0
  5
46EC
 10
148.604
 20
168.282
 30
0.000000
  70
    32
  0
VERTEX
  8
0
  5
46ED
 10
148.604
 20
168.282
 30
0.000000
  70
    32
  0
VERTEX
  8
0
  5
46EE
 10
148.604
 20
168.283
 30
0.000000
  70
    32
  0
VERTEX
  8
0
  5
46EF
 10
148.604
 20
168.284
 30
0.000000
  70
    32
  0
VERTEX
  8
0
  5
46F0
 10
148.604
 20
168.285
 30
0.000000
  70
    32
  0
VERTEX
  8
0
  5
46F1
 10
148.604
 20
168.285
 30
0.000000
  70
    32
  0
VERTEX
  8
0
  5
46F2
 10
148.604
 20
168.286
 30
0.000000
  70
    32
  0
SEQEND
  8
0
  5
46F3
  0
ARC
  5
3E89
  8
0
 10
238.62790108742499
 20
168.33463301615001
 30
0.0
 40
0.4999999999999862
 50
182.24747899810009
 51
266.99999999999773
  0
LINE
  5
3E8A
  8
0
 10
238.12843441962499
 20
168.31135503945001
 30
0.0
 11
238.00000038002511
 21
170.76203726234999
 31
0.0
  0
LINE
  5
3E8B
  8
0
 10
220.947663784025
 20
167.81170420345001
 30
0.0
 11
230.00000000002501
 21
168.28611619764999
 31
0.0
  0
LINE
  5
3E8C
  8
0
 10
230.00000000002501
 20
99.237961098550002
 30
0.0
 11
220.947663784025
 21
99.712373092749999
 31
0.0
  0
LINE
  5
3E8D
  8
0
 10
220.947663784025
 20
167.81170314059119
 30
0.0
 11
220.947663784025
 21
99.712373092749999
 31
0.0
  0
LINE
  5
3E8E
  8
0
 10
239.9999997765251
 20
105.76203778385
 30
0.0
 11
220.00000022352501
 21
105.76203778385
 31
0.0
  0
LINE
  5
3E8F
  8
0
 10
239.9999997765251
 20
161.76203764975
 30
0.0
 11
220.00000022352501
 21
161.76203764975
 31
0.0
  0
ARC
  5
3E90
  8
0
 10
221.00000000002501
 20
166.81307361944999
 30
0.0
 40
1.0
 50
92.999999999999076
 51
180.0
  0
LINE
  5
3E91
  8
0
 10
220.00000022352501
 20
100.71100234985001
 30
0.0
 11
220.00000022352501
 21
166.81374220002789
 31
0.0
  0
ARC
  5
3E92
  8
0
 10
221.00000000002501
 20
100.71100275285001
 30
0.0
 40
1.0000000000000111
 50
180.0
 51
266.99999999999773
  0
ARC
  5
3E93
  8
0
 10
221.431420028925
 20
168.34047720275001
 30
0.0
 40
0.5027334072479603
 50
272.868151237299
 51
356.74249597689942
  0
LINE
  5
3E94
  8
0
 10
222.06274561582509
 20
170.76203726234999
 30
0.0
 11
221.9333411380251
 21
168.31191010775001
 31
0.0
  0
LINE
  5
3E95
  8
0
 10
230.00000000002501
 20
168.28611619764999
 30
0.0
 11
239.052336216025
 21
167.81170420345001
 31
0.0
  0
LINE
  5
3E96
  8
0
 10
239.052336216025
 20
99.712373092749999
 30
0.0
 11
239.052336216025
 21
167.81170314059131
 31
0.0
  0
LINE
  5
3E97
  8
0
 10
239.052336216025
 20
99.712373092749999
 30
0.0
 11
230.00000000002501
 21
99.237961098550002
 31
0.0
  0
ARC
  5
3E98
  8
0
 10
239.00000000002501
 20
166.81307361944999
 30
0.0
 40
1.0000000000000271
 50
0.0
 51
87.000000000000924
  0
LINE
  5
3E99
  8
0
 10
239.9999997765251
 20
166.8137421999015
 30
0.0
 11
239.9999997765251
 21
100.71100234985001
 31
0.0
  0
ARC
  5
3E9A
  8
0
 10
239.00000000002501
 20
100.71100275285001
 30
0.0
 40
1.0000000000000271
 50
273.00000000000227
 51
0.0
  0
ARC
  5
3E9B
  8
0
 10
41.372098912624999
 20
168.33463301615001
 30
0.0
 40
0.5000000000000006
 50
273.00000000000227
 51
357.55174013210001
  0
LINE
  5
3E9C
  8
0
 10
41.999999620025051
 20
170.76203726234999
 30
0.0
 11
41.871565580424999
 21
168.31135503945001
 31
0.0
  0
LINE
  5
3E9D
  8
0
 10
59.052336216024969
 20
99.712373092750013
 30
0.0
 11
50.000000000025011
 21
99.237961098550016
 31
0.0
  0
ARC
  5
3E9E
  8
0
 10
59.000000000025011
 20
100.71100275285001
 30
0.0
 40
1.0000000000000111
 50
273.00000000000227
 51
0.0
  0
ARC
  5
3E9F
  8
0
 10
58.568579971125018
 20
168.34047720275001
 30
0.0
 40
0.5027334072479603
 50
183.25750402310021
 51
267.13184876269781
  0
LINE
  5
3EA0
  8
0
 10
57.937254384225071
 20
170.76203726234999
 30
0.0
 11
58.066658862025058
 21
168.31191010775001
 31
0.0
  0
LINE
  5
3EA1
  8
0
 10
50.000000000025011
 20
99.237961098550016
 30
0.0
 11
40.947663784124977
 21
99.712373092750013
 31
0.0
  0
ARC
  5
3EA2
  8
0
 10
41.000000000025011
 20
100.71100275285001
 30
0.0
 40
1.0000000000000111
 50
180.0
 51
266.99999999999773
  0
LINE
  5
3EA3
  8
0
 10
114.950335919925
 20
220.94766378400001
 30
0.0
 11
114.475922063025
 21
230.0
 31
0.0
  0
LINE
  5
3EA4
  8
0
 10
165.524077937025
 20
230.0
 30
0.0
 11
165.04966408012501
 21
220.94766378400001
 31
0.0
  0
LINE
  5
3EA5
  8
0
 10
141.00000004752511
 20
220.94766378400001
 30
0.0
 11
165.04966495446621
 21
220.94766378400001
 31
0.0
  0
ARC
  5
3EA6
  8
0
 10
164.05103543332501
 20
221.0
 30
0.0
 40
1.0
 50
270.0
 51
357.0
  0
LINE
  5
3EA7
  8
0
 10
158.99999938912501
 20
239.99999977650009
 30
0.0
 11
158.99999938912501
 21
220.0000002235
 31
0.0
  0
ARC
  5
3EA8
  8
0
 10
115.948964566725
 20
221.0
 30
0.0
 40
1.0
 50
182.99999999999989
 51
270.0
  0
LINE
  5
3EA9
  8
0
 10
164.05170401390271
 20
220.0000002235
 30
0.0
 11
115.9482959861146
 21
220.0000002235
 31
0.0
  0
LINE
  5
3EAA
  8
0
 10
165.04966408012501
 20
239.0523362159
 30
0.0
 11
165.524077937025
 21
230.0
 31
0.0
  0
LINE
  5
3EAB
  8
0
 10
114.475922063025
 20
230.0
 30
0.0
 11
114.950335919925
 21
239.0523362159
 31
0.0
  0
LINE
  5
3EAC
  8
0
 10
165.0496649544715
 20
239.0523362159
 30
0.0
 11
114.950335919925
 21
239.0523362159
 31
0.0
  0
ARC
  5
3EAD
  8
0
 10
164.05103543332501
 20
239.0
 30
0.0
 40
1.0
 50
2.999999999999952
 51
90.0
  0
LINE
  5
3EAE
  8
0
 10
115.9489651769251
 20
239.9999997765
 30
0.0
 11
164.05170401381031
 21
239.9999997765
 31
0.0
  0
ARC
  5
3EAF
  8
0
 10
115.948964566725
 20
239.0
 30
0.0
 40
1.0
 50
90.0
 51
176.9999999999998
  0
LINE
  5
3EB0
  8
0
 10
121.000000611025
 20
239.9999997765
 30
0.0
 11
121.000000611025
 21
225.42316002769999
 31
0.0
  0
LINE
  5
3EB1
  8
0
 10
114.950335919925
 20
220.94766378400001
 30
0.0
 11
118.638894856025
 21
220.94766378400001
 31
0.0
  0
LINE
  5
3EB2
  8
0
 10
121.000000611025
 20
220.65292254089999
 30
0.0
 11
121.000000611025
 21
220.0000002235
 31
0.0
  0
LINE
  5
3EB3
  8
0
 10
114.4759220629749
 20
50.0
 30
0.0
 11
114.950335919875
 21
59.052336215899992
 31
0.0
  0
LINE
  5
3EB4
  8
0
 10
165.0496649544215
 20
59.052336215899992
 30
0.0
 11
114.950335919875
 21
59.052336215899992
 31
0.0
  0
LINE
  5
3EB5
  8
0
 10
165.04966408007499
 20
59.052336215899992
 30
0.0
 11
165.524077936975
 21
50.0
 31
0.0
  0
LINE
  5
3EB6
  8
0
 10
115.94896517687501
 20
59.999999776499997
 30
0.0
 11
164.05170401384831
 21
59.999999776500012
 31
0.0
  0
ARC
  5
3EB7
  8
0
 10
115.948964566675
 20
59.0
 30
0.0
 40
1.0000000000000111
 50
90.0
 51
176.99999999999989
  0
ARC
  5
3EB8
  8
0
 10
164.05103543327499
 20
59.0
 30
0.0
 40
1.0000000000000251
 50
2.999999999999952
 51
90.0
  0
LINE
  5
3EB9
  8
0
 10
114.950335919875
 20
40.947663784
 30
0.0
 11
165.04966495441619
 21
40.947663784
 31
0.0
  0
LINE
  5
3EBA
  8
0
 10
114.950335919875
 20
40.947663784
 30
0.0
 11
114.4759220629749
 21
50.0
 31
0.0
  0
LINE
  5
3EBB
  8
0
 10
165.524077936975
 20
50.0
 30
0.0
 11
165.04966408007499
 21
40.947663784
 31
0.0
  0
LINE
  5
3EBC
  8
0
 10
121.00000061097499
 20
59.999999776500012
 30
0.0
 11
121.00000061097499
 21
40.000000223500003
 31
0.0
  0
LINE
  5
3EBD
  8
0
 10
164.05170401386519
 20
40.000000223500003
 30
0.0
 11
115.94896517687501
 21
40.000000223500003
 31
0.0
  0
ARC
  5
3EBE
  8
0
 10
115.948964566675
 20
41.0
 30
0.0
 40
1.0
 50
182.99999999999989
 51
270.0
  0
LINE
  5
3EBF
  8
0
 10
158.99999938907499
 20
59.999999776500019
 30
0.0
 11
158.99999938907499
 21
40.000000223500003
 31
0.0
  0
ARC
  5
3EC0
  8
0
 10
164.05103543327499
 20
41.0
 30
0.0
 40
1.0000000000000251
 50
270.0
 51
357.0
  0
LINE
  5
3EC1
  8
1
 10
140.0000000000249
 20
185.76203890145001
 30
0.0
 11
140.00000000002501
 21
94.237961098550002
 31
0.0
  0
LINE
  5
3EC2
  8
1
 10
230.00000000002501
 20
94.237961098550002
 30
0.0
 11
230.00000000002501
 21
185.76203890145001
 31
0.0
  0
LINE
  5
3EC3
  8
1
 10
140.00000000009999
 20
244.9999997765
 30
0.0
 11
139.99999999995001
 21
215.0000002235
 31
0.0
  0
LINE
  5
3EC4
  8
1
 10
109.475922063025
 20
230.0
 30
0.0
 11
170.524077937025
 21
230.0
 31
0.0
  0
LINE
  5
3EC5
  8
1
 10
140.00000000009999
 20
64.999999776500005
 30
0.0
 11
139.99999999995001
 21
35.000000223500003
 31
0.0
  0
LINE
  5
3EC6
  8
1
 10
109.475922063025
 20
50.0
 30
0.0
 11
170.524077937025
 21
50.0
 31
0.0
  0
LINE
  5
3EC7
  8
1
 10
50.000000000025011
 20
94.237961098550016
 30
0.0
 11
50.000000000025011
 21
185.76203890145001
 31
0.0
  0
ARC
  5
3EC8
  8
0
 10
59.025517336624951
 20
171.26203726234999
 30
0.0
 40
0.5
 50
270.0
 51
2.999999999999952
  0
LINE
  5
3EC9
  8
0
 10
59.524832104024988
 20
171.28820524045
 30
0.0
 11
58.943546768938063
 21
182.37979017345
 31
0.0
  0
ARC
  5
3ECA
  8
0
 10
54.974481903325
 20
171.26203726234999
 30
0.0
 40
0.5
 50
176.9999999999996
 51
270.0
  0
LINE
  5
3ECB
  8
0
 10
55.079228003325049
 20
182.81437321864999
 30
0.0
 11
54.475167135924949
 21
171.28820524045
 31
0.0
  0
ARC
  5
3ECC
  8
0
 10
56.077857538125038
 20
182.76203726234999
 30
0.0
 40
1.0
 50
90.0
 51
176.9999999999996
  0
ARC
  5
3ECD
  8
0
 10
51.78980566382495
 20
185.47537591105001
 30
0.0
 40
5.158050431804992
 50
294.51192996630152
 51
308.59428925930212
  0
POLYLINE
  5
3ECE
  8
0
 66
     1
 10
0.0
 20
0.0
 30
0.0
 70
   128
  0
VERTEX
  5
44A3
  8
0
 10
53.929791570450277
 20
180.7821952649968
 30
0.0
  0
VERTEX
  5
44A4
  8
0
 10
53.919993784625042
 20
180.77784061644999
 30
0.0
  0
VERTEX
  5
44A5
  8
0
 10
53.899359063101087
 20
180.7710728467425
 30
0.0
  0
SEQEND
  5
44A6
  8
0
  0
ARC
  5
3ECF
  8
0
 10
53.792640096941057
 20
181.3927730826363
 30
0.0
 40
0.6307932474659458
 50
269.22686354579508
 51
279.7402717140796
  0
ARC
  5
3ED0
  8
0
 10
42.474481903325
 20
171.26203726234999
 30
0.0
 40
0.5
 50
176.9999999999996
 51
270.0
  0
LINE
  5
3ED1
  8
0
 10
42.42200466552503
 20
179.81437321864999
 30
0.0
 11
41.975167135924941
 21
171.28820524045
 31
0.0
  0
ARC
  5
3ED2
  8
0
 10
43.420634200224981
 20
179.76203726234999
 30
0.0
 40
1.0
 50
90.0
 51
176.9999999999996
  0
ARC
  5
3ED3
  8
0
 10
58.183561919224978
 20
171.25743455534999
 30
0.0
 40
0.4954303486423485
 50
270.6618687189993
 51
3.5608756303003348
  0
ARC
  5
3ED4
  8
0
 10
55.197596137224991
 20
171.25874645425
 30
0.0
 40
0.4967258378280932
 50
176.6000256391001
 51
269.53093352049962
  0
LINE
  5
3ED5
  8
0
 10
58.678035776224988
 20
171.28820524045
 30
0.0
 11
58.086754888024977
 21
182.81437321864999
 31
0.0
  0
LINE
  5
3ED6
  8
0
 10
54.701744609124937
 20
171.28820524045
 30
0.0
 11
55.296696118025011
 21
182.81437321864999
 31
0.0
  0
ARC
  5
3ED7
  8
0
 10
57.099308938525041
 20
182.77380848634999
 30
0.0
 40
0.9882788071947546
 50
2.3524141679000281
 51
89.423472449701308
  0
ARC
  5
3ED8
  8
0
 10
56.287332078524969
 20
182.77045336155001
 30
0.0
 40
0.9916090762371222
 50
90.408278862099365
 51
177.46145331640059
  0
POLYLINE
  5
3ED9
  8
0
 66
     1
 10
0.0
 20
0.0
 30
0.0
 70
   128
  0
VERTEX
  5
44A7
  8
0
 10
58.943546768938063
 20
182.37979017345
 30
0.0
  0
VERTEX
  5
44A8
  8
0
 10
58.932881295924972
 20
182.53624382285
 30
0.0
  0
VERTEX
  5
44A9
  8
0
 10
58.901732080724962
 20
182.81437321864999
 30
0.0
  0
SEQEND
  5
44AA
  8
0
  0
ARC
  5
3EDA
  8
0
 10
57.903360220724942
 20
182.76230878654999
 30
0.0
 40
0.9997285010847551
 50
2.985232794300031
 51
89.987125809300437
  0
LINE
  5
3EDB
  8
0
 10
56.077857538125038
 20
183.76203726234999
 30
0.0
 11
57.903585066851861
 21
183.76203726234999
 31
0.0
  0
LINE
  5
3EDC
  8
0
 10
53.55848071382502
 20
179.93498797705001
 30
0.0
 11
53.411913566524959
 21
179.87136110615
 31
0.0
  0
LINE
  5
3EDD
  8
0
 10
53.054100386425027
 20
171.28820524045
 30
0.0
 11
53.411913566524959
 21
179.87136110615
 31
0.0
  0
ARC
  5
3EDE
  8
0
 10
53.513058591125059
 20
171.22166129695
 30
0.0
 40
0.4637571886801002
 50
171.7502236357995
 51
262.34480638050019
  0
LINE
  5
3EDF
  8
0
 10
53.084594359524992
 20
179.81437321864999
 30
0.0
 11
42.42200466552503
 21
179.81437321864999
 31
0.0
  0
LINE
  5
3EE0
  8
0
 10
53.411913566524959
 20
179.87136110615
 30
0.0
 11
53.084594359524992
 21
179.81437321864999
 31
0.0
  0
LINE
  5
3EE1
  8
0
 10
43.420634200224981
 20
180.76203726234999
 30
0.0
 11
53.784128572024997
 21
180.76203726234999
 31
0.0
  0
LINE
  5
3EE2
  8
0
 10
59.025517336624951
 20
170.76203726234999
 30
0.0
 11
41.999999620025051
 21
170.76203726234999
 31
0.0
  0
ARC
  5
3EE3
  8
0
 10
50.949281914924988
 20
185.04278105265001
 30
0.0
 40
5.7356314801354937
 50
297.05917370910038
 51
314.68012328699763
  0
ARC
  5
3EE4
  8
0
 10
54.201008519724951
 20
180.02523435814999
 30
0.0
 40
0.8039576001314781
 50
111.75485729619879
 51
191.034190548298
  0
LINE
  5
3EE5
  8
0
 10
41.975167135924941
 20
171.28820524045
 30
0.0
 11
59.524832104003387
 21
171.28820524045
 31
0.0
  0
LINE
  5
3EE6
  8
0
 10
58.901731662425043
 20
182.81437369804999
 30
0.0
 11
55.079228028497823
 21
182.81437369804991
 31
0.0
  0
ARC
  5
3EE7
  8
0
 10
237.52551771662499
 20
171.26203541464989
 30
0.0
 40
0.5
 50
270.0
 51
2.999999999999952
  0
LINE
  5
3EE8
  8
0
 10
238.02483223382501
 20
171.28820471475001
 30
0.0
 11
237.5779948384251
 21
179.8143697530499
 31
0.0
  0
ARC
  5
3EE9
  8
0
 10
236.57936541972509
 20
179.76203541464989
 30
0.0
 40
1.0
 50
2.999999999999952
 51
90.0
  0
ARC
  5
3EEA
  8
0
 10
220.97448228342509
 20
171.26203541464989
 30
0.0
 40
0.5
 50
176.9999999999996
 51
270.0
  0
LINE
  5
3EEB
  8
0
 10
221.05653818702501
 20
182.38141886894999
 30
0.0
 11
220.47516752032499
 21
171.28820471475001
 31
0.0
  0
POLYLINE
  5
3EEC
  8
0
 66
     1
 10
0.0
 20
0.0
 30
0.0
 70
   128
  0
VERTEX
  5
44AB
  8
0
 10
221.10578373072511
 20
182.8985971958499
 30
0.0
  0
VERTEX
  5
44AC
  8
0
 10
221.06532335282509
 20
182.51876659694989
 30
0.0
  0
VERTEX
  5
44AD
  8
0
 10
221.05653818702501
 20
182.38141886894999
 30
0.0
  0
SEQEND
  5
44AE
  8
0
  0
ARC
  5
3EED
  8
0
 10
226.7483674373251
 20
183.2710515639499
 30
0.0
 40
2.5795965807648771
 50
200.28628796150261
 51
256.56621524738478
  0
ARC
  5
3EEE
  8
0
 10
222.09641476322511
 20
182.76203541464989
 30
0.0
 40
1.0
 50
90.0
 51
172.15097777670061
  0
LINE
  5
3EEF
  8
0
 10
224.99604929616879
 20
181.3779853602295
 30
0.0
 11
224.92077156902511
 21
182.81437210745
 31
0.0
  0
ARC
  5
3EF0
  8
0
 10
223.92214208192499
 20
182.76203541464989
 30
0.0
 40
1.0
 50
2.999999999999952
 51
90.0
  0
ARC
  5
3EF1
  8
0
 10
222.53903547922511
 20
171.26393684724999
 30
0.0
 40
0.501904333042571
 50
177.2285779529995
 51
270.24922362900099
  0
POLYLINE
  5
3EF2
  8
0
 66
     1
 10
0.0
 20
0.0
 30
0.0
 70
   128
  0
VERTEX
  5
44AF
  8
0
 10
222.4882752821251
 20
179.8143697530499
 30
0.0
  0
VERTEX
  5
44B0
  8
0
 10
222.09788907322499
 20
172.42732025685001
 30
0.0
  0
VERTEX
  5
44B1
  8
0
 10
222.03771818432509
 20
171.28820471475001
 30
0.0
  0
SEQEND
  5
44B2
  8
0
  0
ARC
  5
3EF3
  8
0
 10
223.49165288952511
 20
179.75703544414989
 30
0.0
 40
1.005014351164226
 50
89.690961403298758
 51
176.7296005485002
  0
LINE
  5
3EF4
  8
0
 10
238.00000038002511
 20
170.76203726234991
 30
0.0
 11
220.97448214892501
 21
170.76203726234999
 31
0.0
  0
LINE
  5
3EF5
  8
0
 10
221.65712203832501
 20
179.8143697530499
 30
0.0
 11
221.5329329669251
 21
179.93498720234999
 31
0.0
  0
ARC
  5
3EF6
  8
0
 10
222.64591971882501
 20
179.77238493604989
 30
0.0
 40
0.9896886266708307
 50
90.504636856401191
 51
177.56865456109949
  0
LINE
  5
3EF7
  8
0
 10
222.63720307502501
 20
180.76203517625001
 30
0.0
 11
236.5800559267106
 21
180.76203517625001
 31
0.0
  0
LINE
  5
3EF8
  8
0
 10
222.51630529762511
 20
180.82234390084989
 30
0.0
 11
222.63720307502501
 21
180.76203517625001
 31
0.0
  0
LINE
  5
3EF9
  8
0
 10
225.9373439211553
 20
180.76203517625001
 30
0.0
 11
225.6333762966251
 21
180.82234390084989
 31
0.0
  0
POLYLINE
  5
3EFA
  8
0
 10
222.09641476322912
 20
183.70172803548016
 30
0.0
 66
     1
 70
     8
  0
VERTEX
  8
0
  5
46F4
 10
222.096
 20
183.702
 30
0.000000
  70
    32
  0
VERTEX
  8
0
  5
46F5
 10
222.093
 20
183.679
 30
0.000000
  70
    32
  0
VERTEX
  8
0
  5
46F6
 10
222.090
 20
183.657
 30
0.000000
  70
    32
  0
VERTEX
  8
0
  5
46F7
 10
222.088
 20
183.634
 30
0.000000
  70
    32
  0
VERTEX
  8
0
  5
46F8
 10
222.085
 20
183.612
 30
0.000000
  70
    32
  0
VERTEX
  8
0
  5
46F9
 10
222.082
 20
183.589
 30
0.000000
  70
    32
  0
VERTEX
  8
0
  5
46FA
 10
222.080
 20
183.566
 30
0.000000
  70
    32
  0
VERTEX
  8
0
  5
46FB
 10
222.077
 20
183.544
 30
0.000000
  70
    32
  0
VERTEX
  8
0
  5
46FC
 10
222.075
 20
183.521
 30
0.000000
  70
    32
  0
VERTEX
  8
0
  5
46FD
 10
222.072
 20
183.499
 30
0.000000
  70
    32
  0
VERTEX
  8
0
  5
46FE
 10
222.070
 20
183.476
 30
0.000000
  70
    32
  0
VERTEX
  8
0
  5
46FF
 10
222.068
 20
183.454
 30
0.000000
  70
    32
  0
VERTEX
  8
0
  5
4700
 10
222.066
 20
183.431
 30
0.000000
  70
    32
  0
VERTEX
  8
0
  5
4701
 10
222.064
 20
183.409
 30
0.000000
  70
    32
  0
VERTEX
  8
0
  5
4702
 10
222.063
 20
183.386
 30
0.000000
  70
    32
  0
VERTEX
  8
0
  5
4703
 10
222.061
 20
183.363
 30
0.000000
  70
    32
  0
VERTEX
  8
0
  5
4704
 10
222.059
 20
183.341
 30
0.000000
  70
    32
  0
VERTEX
  8
0
  5
4705
 10
222.058
 20
183.318
 30
0.000000
  70
    32
  0
VERTEX
  8
0
  5
4706
 10
222.057
 20
183.296
 30
0.000000
  70
    32
  0
VERTEX
  8
0
  5
4707
 10
222.055
 20
183.273
 30
0.000000
  70
    32
  0
VERTEX
  8
0
  5
4708
 10
222.054
 20
183.251
 30
0.000000
  70
    32
  0
VERTEX
  8
0
  5
4709
 10
222.053
 20
183.228
 30
0.000000
  70
    32
  0
VERTEX
  8
0
  5
470A
 10
222.052
 20
183.206
 30
0.000000
  70
    32
  0
VERTEX
  8
0
  5
470B
 10
222.051
 20
183.183
 30
0.000000
  70
    32
  0
VERTEX
  8
0
  5
470C
 10
222.051
 20
183.160
 30
0.000000
  70
    32
  0
VERTEX
  8
0
  5
470D
 10
222.050
 20
183.138
 30
0.000000
  70
    32
  0
VERTEX
  8
0
  5
470E
 10
222.049
 20
183.115
 30
0.000000
  70
    32
  0
VERTEX
  8
0
  5
470F
 10
222.049
 20
183.093
 30
0.000000
  70
    32
  0
VERTEX
  8
0
  5
4710
 10
222.049
 20
183.070
 30
0.000000
  70
    32
  0
VERTEX
  8
0
  5
4711
 10
222.048
 20
183.048
 30
0.000000
  70
    32
  0
VERTEX
  8
0
  5
4712
 10
222.048
 20
183.025
 30
0.000000
  70
    32
  0
VERTEX
  8
0
  5
4713
 10
222.048
 20
183.002
 30
0.000000
  70
    32
  0
VERTEX
  8
0
  5
4714
 10
222.048
 20
182.980
 30
0.000000
  70
    32
  0
VERTEX
  8
0
  5
4715
 10
222.048
 20
182.957
 30
0.000000
  70
    32
  0
VERTEX
  8
0
  5
4716
 10
222.049
 20
182.935
 30
0.000000
  70
    32
  0
VERTEX
  8
0
  5
4717
 10
222.049
 20
182.912
 30
0.000000
  70
    32
  0
VERTEX
  8
0
  5
4718
 10
222.049
 20
182.890
 30
0.000000
  70
    32
  0
VERTEX
  8
0
  5
4719
 10
222.050
 20
182.867
 30
0.000000
  70
    32
  0
VERTEX
  8
0
  5
471A
 10
222.050
 20
182.844
 30
0.000000
  70
    32
  0
VERTEX
  8
0
  5
471B
 10
222.051
 20
182.822
 30
0.000000
  70
    32
  0
VERTEX
  8
0
  5
471C
 10
222.052
 20
182.799
 30
0.000000
  70
    32
  0
VERTEX
  8
0
  5
471D
 10
222.053
 20
182.777
 30
0.000000
  70
    32
  0
VERTEX
  8
0
  5
471E
 10
222.054
 20
182.754
 30
0.000000
  70
    32
  0
VERTEX
  8
0
  5
471F
 10
222.055
 20
182.732
 30
0.000000
  70
    32
  0
VERTEX
  8
0
  5
4720
 10
222.056
 20
182.709
 30
0.000000
  70
    32
  0
VERTEX
  8
0
  5
4721
 10
222.058
 20
182.687
 30
0.000000
  70
    32
  0
VERTEX
  8
0
  5
4722
 10
222.059
 20
182.664
 30
0.000000
  70
    32
  0
VERTEX
  8
0
  5
4723
 10
222.061
 20
182.641
 30
0.000000
  70
    32
  0
VERTEX
  8
0
  5
4724
 10
222.062
 20
182.619
 30
0.000000
  70
    32
  0
VERTEX
  8
0
  5
4725
 10
222.064
 20
182.596
 30
0.000000
  70
    32
  0
VERTEX
  8
0
  5
4726
 10
222.066
 20
182.574
 30
0.000000
  70
    32
  0
VERTEX
  8
0
  5
4727
 10
222.068
 20
182.551
 30
0.000000
  70
    32
  0
VERTEX
  8
0
  5
4728
 10
222.070
 20
182.529
 30
0.000000
  70
    32
  0
VERTEX
  8
0
  5
4729
 10
222.072
 20
182.506
 30
0.000000
  70
    32
  0
VERTEX
  8
0
  5
472A
 10
222.074
 20
182.484
 30
0.000000
  70
    32
  0
VERTEX
  8
0
  5
472B
 10
222.077
 20
182.461
 30
0.000000
  70
    32
  0
VERTEX
  8
0
  5
472C
 10
222.079
 20
182.438
 30
0.000000
  70
    32
  0
VERTEX
  8
0
  5
472D
 10
222.082
 20
182.416
 30
0.000000
  70
    32
  0
VERTEX
  8
0
  5
472E
 10
222.084
 20
182.393
 30
0.000000
  70
    32
  0
VERTEX
  8
0
  5
472F
 10
222.087
 20
182.371
 30
0.000000
  70
    32
  0
VERTEX
  8
0
  5
4730
 10
222.090
 20
182.348
 30
0.000000
  70
    32
  0
VERTEX
  8
0
  5
4731
 10
222.093
 20
182.326
 30
0.000000
  70
    32
  0
VERTEX
  8
0
  5
4732
 10
222.096
 20
182.303
 30
0.000000
  70
    32
  0
VERTEX
  8
0
  5
4733
 10
222.099
 20
182.281
 30
0.000000
  70
    32
  0
VERTEX
  8
0
  5
4734
 10
222.102
 20
182.258
 30
0.000000
  70
    32
  0
VERTEX
  8
0
  5
4735
 10
222.105
 20
182.236
 30
0.000000
  70
    32
  0
VERTEX
  8
0
  5
4736
 10
222.109
 20
182.213
 30
0.000000
  70
    32
  0
VERTEX
  8
0
  5
4737
 10
222.112
 20
182.190
 30
0.000000
  70
    32
  0
VERTEX
  8
0
  5
4738
 10
222.116
 20
182.168
 30
0.000000
  70
    32
  0
VERTEX
  8
0
  5
4739
 10
222.120
 20
182.145
 30
0.000000
  70
    32
  0
VERTEX
  8
0
  5
473A
 10
222.124
 20
182.123
 30
0.000000
  70
    32
  0
VERTEX
  8
0
  5
473B
 10
222.128
 20
182.100
 30
0.000000
  70
    32
  0
VERTEX
  8
0
  5
473C
 10
222.132
 20
182.078
 30
0.000000
  70
    32
  0
VERTEX
  8
0
  5
473D
 10
222.136
 20
182.055
 30
0.000000
  70
    32
  0
VERTEX
  8
0
  5
473E
 10
222.140
 20
182.033
 30
0.000000
  70
    32
  0
VERTEX
  8
0
  5
473F
 10
222.144
 20
182.010
 30
0.000000
  70
    32
  0
VERTEX
  8
0
  5
4740
 10
222.149
 20
181.988
 30
0.000000
  70
    32
  0
VERTEX
  8
0
  5
4741
 10
222.153
 20
181.965
 30
0.000000
  70
    32
  0
VERTEX
  8
0
  5
4742
 10
222.158
 20
181.943
 30
0.000000
  70
    32
  0
VERTEX
  8
0
  5
4743
 10
222.163
 20
181.920
 30
0.000000
  70
    32
  0
VERTEX
  8
0
  5
4744
 10
222.168
 20
181.898
 30
0.000000
  70
    32
  0
VERTEX
  8
0
  5
4745
 10
222.172
 20
181.875
 30
0.000000
  70
    32
  0
VERTEX
  8
0
  5
4746
 10
222.177
 20
181.853
 30
0.000000
  70
    32
  0
VERTEX
  8
0
  5
4747
 10
222.183
 20
181.830
 30
0.000000
  70
    32
  0
VERTEX
  8
0
  5
4748
 10
222.188
 20
181.808
 30
0.000000
  70
    32
  0
VERTEX
  8
0
  5
4749
 10
222.193
 20
181.785
 30
0.000000
  70
    32
  0
VERTEX
  8
0
  5
474A
 10
222.199
 20
181.763
 30
0.000000
  70
    32
  0
VERTEX
  8
0
  5
474B
 10
222.204
 20
181.740
 30
0.000000
  70
    32
  0
VERTEX
  8
0
  5
474C
 10
222.210
 20
181.718
 30
0.000000
  70
    32
  0
VERTEX
  8
0
  5
474D
 10
222.215
 20
181.695
 30
0.000000
  70
    32
  0
VERTEX
  8
0
  5
474E
 10
222.221
 20
181.673
 30
0.000000
  70
    32
  0
VERTEX
  8
0
  5
474F
 10
222.227
 20
181.651
 30
0.000000
  70
    32
  0
VERTEX
  8
0
  5
4750
 10
222.233
 20
181.628
 30
0.000000
  70
    32
  0
VERTEX
  8
0
  5
4751
 10
222.239
 20
181.606
 30
0.000000
  70
    32
  0
VERTEX
  8
0
  5
4752
 10
222.246
 20
181.583
 30
0.000000
  70
    32
  0
VERTEX
  8
0
  5
4753
 10
222.252
 20
181.561
 30
0.000000
  70
    32
  0
VERTEX
  8
0
  5
4754
 10
222.258
 20
181.538
 30
0.000000
  70
    32
  0
VERTEX
  8
0
  5
4755
 10
222.265
 20
181.516
 30
0.000000
  70
    32
  0
VERTEX
  8
0
  5
4756
 10
222.271
 20
181.493
 30
0.000000
  70
    32
  0
VERTEX
  8
0
  5
4757
 10
222.278
 20
181.471
 30
0.000000
  70
    32
  0
VERTEX
  8
0
  5
4758
 10
222.285
 20
181.449
 30
0.000000
  70
    32
  0
VERTEX
  8
0
  5
4759
 10
222.292
 20
181.426
 30
0.000000
  70
    32
  0
VERTEX
  8
0
  5
475A
 10
222.299
 20
181.404
 30
0.000000
  70
    32
  0
VERTEX
  8
0
  5
475B
 10
222.306
 20
181.381
 30
0.000000
  70
    32
  0
VERTEX
  8
0
  5
475C
 10
222.313
 20
181.359
 30
0.000000
  70
    32
  0
VERTEX
  8
0
  5
475D
 10
222.321
 20
181.336
 30
0.000000
  70
    32
  0
VERTEX
  8
0
  5
475E
 10
222.328
 20
181.314
 30
0.000000
  70
    32
  0
VERTEX
  8
0
  5
475F
 10
222.336
 20
181.292
 30
0.000000
  70
    32
  0
VERTEX
  8
0
  5
4760
 10
222.343
 20
181.269
 30
0.000000
  70
    32
  0
VERTEX
  8
0
  5
4761
 10
222.351
 20
181.247
 30
0.000000
  70
    32
  0
VERTEX
  8
0
  5
4762
 10
222.359
 20
181.224
 30
0.000000
  70
    32
  0
VERTEX
  8
0
  5
4763
 10
222.367
 20
181.202
 30
0.000000
  70
    32
  0
VERTEX
  8
0
  5
4764
 10
222.375
 20
181.180
 30
0.000000
  70
    32
  0
VERTEX
  8
0
  5
4765
 10
222.383
 20
181.157
 30
0.000000
  70
    32
  0
VERTEX
  8
0
  5
4766
 10
222.391
 20
181.135
 30
0.000000
  70
    32
  0
VERTEX
  8
0
  5
4767
 10
222.399
 20
181.113
 30
0.000000
  70
    32
  0
VERTEX
  8
0
  5
4768
 10
222.408
 20
181.090
 30
0.000000
  70
    32
  0
VERTEX
  8
0
  5
4769
 10
222.416
 20
181.068
 30
0.000000
  70
    32
  0
VERTEX
  8
0
  5
476A
 10
222.425
 20
181.046
 30
0.000000
  70
    32
  0
VERTEX
  8
0
  5
476B
 10
222.434
 20
181.023
 30
0.000000
  70
    32
  0
VERTEX
  8
0
  5
476C
 10
222.442
 20
181.001
 30
0.000000
  70
    32
  0
VERTEX
  8
0
  5
476D
 10
222.451
 20
180.979
 30
0.000000
  70
    32
  0
VERTEX
  8
0
  5
476E
 10
222.460
 20
180.956
 30
0.000000
  70
    32
  0
VERTEX
  8
0
  5
476F
 10
222.469
 20
180.934
 30
0.000000
  70
    32
  0
VERTEX
  8
0
  5
4770
 10
222.479
 20
180.912
 30
0.000000
  70
    32
  0
VERTEX
  8
0
  5
4771
 10
222.488
 20
180.889
 30
0.000000
  70
    32
  0
VERTEX
  8
0
  5
4772
 10
222.497
 20
180.867
 30
0.000000
  70
    32
  0
VERTEX
  8
0
  5
4773
 10
222.507
 20
180.845
 30
0.000000
  70
    32
  0
VERTEX
  8
0
  5
4774
 10
222.516
 20
180.822
 30
0.000000
  70
    32
  0
SEQEND
  8
0
  5
4775
  0
POLYLINE
  5
3EFB
  8
0
 10
223.36496303208679
 20
183.70172803548664
 30
0.0
 66
     1
 70
     8
  0
VERTEX
  8
0
  5
4776
 10
223.365
 20
183.702
 30
0.000000
  70
    32
  0
VERTEX
  8
0
  5
4777
 10
223.360
 20
183.678
 30
0.000000
  70
    32
  0
VERTEX
  8
0
  5
4778
 10
223.355
 20
183.654
 30
0.000000
  70
    32
  0
VERTEX
  8
0
  5
4779
 10
223.350
 20
183.630
 30
0.000000
  70
    32
  0
VERTEX
  8
0
  5
477A
 10
223.346
 20
183.606
 30
0.000000
  70
    32
  0
VERTEX
  8
0
  5
477B
 10
223.342
 20
183.582
 30
0.000000
  70
    32
  0
VERTEX
  8
0
  5
477C
 10
223.338
 20
183.559
 30
0.000000
  70
    32
  0
VERTEX
  8
0
  5
477D
 10
223.335
 20
183.535
 30
0.000000
  70
    32
  0
VERTEX
  8
0
  5
477E
 10
223.332
 20
183.511
 30
0.000000
  70
    32
  0
VERTEX
  8
0
  5
477F
 10
223.330
 20
183.487
 30
0.000000
  70
    32
  0
VERTEX
  8
0
  5
4780
 10
223.328
 20
183.463
 30
0.000000
  70
    32
  0
VERTEX
  8
0
  5
4781
 10
223.326
 20
183.439
 30
0.000000
  70
    32
  0
VERTEX
  8
0
  5
4782
 10
223.325
 20
183.415
 30
0.000000
  70
    32
  0
VERTEX
  8
0
  5
4783
 10
223.324
 20
183.391
 30
0.000000
  70
    32
  0
VERTEX
  8
0
  5
4784
 10
223.324
 20
183.367
 30
0.000000
  70
    32
  0
VERTEX
  8
0
  5
4785
 10
223.324
 20
183.343
 30
0.000000
  70
    32
  0
VERTEX
  8
0
  5
4786
 10
223.324
 20
183.319
 30
0.000000
  70
    32
  0
VERTEX
  8
0
  5
4787
 10
223.324
 20
183.295
 30
0.000000
  70
    32
  0
VERTEX
  8
0
  5
4788
 10
223.325
 20
183.271
 30
0.000000
  70
    32
  0
VERTEX
  8
0
  5
4789
 10
223.327
 20
183.248
 30
0.000000
  70
    32
  0
VERTEX
  8
0
  5
478A
 10
223.328
 20
183.224
 30
0.000000
  70
    32
  0
VERTEX
  8
0
  5
478B
 10
223.331
 20
183.200
 30
0.000000
  70
    32
  0
VERTEX
  8
0
  5
478C
 10
223.333
 20
183.176
 30
0.000000
  70
    32
  0
VERTEX
  8
0
  5
478D
 10
223.336
 20
183.152
 30
0.000000
  70
    32
  0
VERTEX
  8
0
  5
478E
 10
223.339
 20
183.128
 30
0.000000
  70
    32
  0
VERTEX
  8
0
  5
478F
 10
223.343
 20
183.104
 30
0.000000
  70
    32
  0
VERTEX
  8
0
  5
4790
 10
223.347
 20
183.080
 30
0.000000
  70
    32
  0
VERTEX
  8
0
  5
4791
 10
223.351
 20
183.056
 30
0.000000
  70
    32
  0
VERTEX
  8
0
  5
4792
 10
223.356
 20
183.032
 30
0.000000
  70
    32
  0
VERTEX
  8
0
  5
4793
 10
223.361
 20
183.009
 30
0.000000
  70
    32
  0
VERTEX
  8
0
  5
4794
 10
223.366
 20
182.985
 30
0.000000
  70
    32
  0
VERTEX
  8
0
  5
4795
 10
223.372
 20
182.961
 30
0.000000
  70
    32
  0
VERTEX
  8
0
  5
4796
 10
223.378
 20
182.937
 30
0.000000
  70
    32
  0
VERTEX
  8
0
  5
4797
 10
223.385
 20
182.913
 30
0.000000
  70
    32
  0
VERTEX
  8
0
  5
4798
 10
223.392
 20
182.890
 30
0.000000
  70
    32
  0
VERTEX
  8
0
  5
4799
 10
223.399
 20
182.866
 30
0.000000
  70
    32
  0
VERTEX
  8
0
  5
479A
 10
223.407
 20
182.842
 30
0.000000
  70
    32
  0
VERTEX
  8
0
  5
479B
 10
223.415
 20
182.818
 30
0.000000
  70
    32
  0
VERTEX
  8
0
  5
479C
 10
223.423
 20
182.795
 30
0.000000
  70
    32
  0
VERTEX
  8
0
  5
479D
 10
223.432
 20
182.771
 30
0.000000
  70
    32
  0
VERTEX
  8
0
  5
479E
 10
223.441
 20
182.747
 30
0.000000
  70
    32
  0
VERTEX
  8
0
  5
479F
 10
223.451
 20
182.723
 30
0.000000
  70
    32
  0
VERTEX
  8
0
  5
47A0
 10
223.461
 20
182.700
 30
0.000000
  70
    32
  0
VERTEX
  8
0
  5
47A1
 10
223.471
 20
182.676
 30
0.000000
  70
    32
  0
VERTEX
  8
0
  5
47A2
 10
223.482
 20
182.653
 30
0.000000
  70
    32
  0
VERTEX
  8
0
  5
47A3
 10
223.493
 20
182.629
 30
0.000000
  70
    32
  0
VERTEX
  8
0
  5
47A4
 10
223.504
 20
182.605
 30
0.000000
  70
    32
  0
VERTEX
  8
0
  5
47A5
 10
223.516
 20
182.582
 30
0.000000
  70
    32
  0
VERTEX
  8
0
  5
47A6
 10
223.528
 20
182.558
 30
0.000000
  70
    32
  0
VERTEX
  8
0
  5
47A7
 10
223.540
 20
182.535
 30
0.000000
  70
    32
  0
VERTEX
  8
0
  5
47A8
 10
223.553
 20
182.511
 30
0.000000
  70
    32
  0
VERTEX
  8
0
  5
47A9
 10
223.566
 20
182.488
 30
0.000000
  70
    32
  0
VERTEX
  8
0
  5
47AA
 10
223.580
 20
182.465
 30
0.000000
  70
    32
  0
VERTEX
  8
0
  5
47AB
 10
223.594
 20
182.441
 30
0.000000
  70
    32
  0
VERTEX
  8
0
  5
47AC
 10
223.608
 20
182.418
 30
0.000000
  70
    32
  0
VERTEX
  8
0
  5
47AD
 10
223.623
 20
182.394
 30
0.000000
  70
    32
  0
VERTEX
  8
0
  5
47AE
 10
223.638
 20
182.371
 30
0.000000
  70
    32
  0
VERTEX
  8
0
  5
47AF
 10
223.653
 20
182.348
 30
0.000000
  70
    32
  0
VERTEX
  8
0
  5
47B0
 10
223.669
 20
182.325
 30
0.000000
  70
    32
  0
VERTEX
  8
0
  5
47B1
 10
223.685
 20
182.302
 30
0.000000
  70
    32
  0
VERTEX
  8
0
  5
47B2
 10
223.702
 20
182.278
 30
0.000000
  70
    32
  0
VERTEX
  8
0
  5
47B3
 10
223.719
 20
182.255
 30
0.000000
  70
    32
  0
VERTEX
  8
0
  5
47B4
 10
223.736
 20
182.232
 30
0.000000
  70
    32
  0
VERTEX
  8
0
  5
47B5
 10
223.753
 20
182.209
 30
0.000000
  70
    32
  0
VERTEX
  8
0
  5
47B6
 10
223.771
 20
182.186
 30
0.000000
  70
    32
  0
VERTEX
  8
0
  5
47B7
 10
223.790
 20
182.163
 30
0.000000
  70
    32
  0
VERTEX
  8
0
  5
47B8
 10
223.808
 20
182.140
 30
0.000000
  70
    32
  0
VERTEX
  8
0
  5
47B9
 10
223.827
 20
182.117
 30
0.000000
  70
    32
  0
VERTEX
  8
0
  5
47BA
 10
223.847
 20
182.094
 30
0.000000
  70
    32
  0
VERTEX
  8
0
  5
47BB
 10
223.866
 20
182.072
 30
0.000000
  70
    32
  0
VERTEX
  8
0
  5
47BC
 10
223.887
 20
182.049
 30
0.000000
  70
    32
  0
VERTEX
  8
0
  5
47BD
 10
223.907
 20
182.026
 30
0.000000
  70
    32
  0
VERTEX
  8
0
  5
47BE
 10
223.928
 20
182.003
 30
0.000000
  70
    32
  0
VERTEX
  8
0
  5
47BF
 10
223.949
 20
181.981
 30
0.000000
  70
    32
  0
VERTEX
  8
0
  5
47C0
 10
223.970
 20
181.958
 30
0.000000
  70
    32
  0
VERTEX
  8
0
  5
47C1
 10
223.992
 20
181.935
 30
0.000000
  70
    32
  0
VERTEX
  8
0
  5
47C2
 10
224.015
 20
181.913
 30
0.000000
  70
    32
  0
VERTEX
  8
0
  5
47C3
 10
224.037
 20
181.890
 30
0.000000
  70
    32
  0
VERTEX
  8
0
  5
47C4
 10
224.060
 20
181.868
 30
0.000000
  70
    32
  0
VERTEX
  8
0
  5
47C5
 10
224.083
 20
181.846
 30
0.000000
  70
    32
  0
VERTEX
  8
0
  5
47C6
 10
224.107
 20
181.823
 30
0.000000
  70
    32
  0
VERTEX
  8
0
  5
47C7
 10
224.131
 20
181.801
 30
0.000000
  70
    32
  0
VERTEX
  8
0
  5
47C8
 10
224.155
 20
181.779
 30
0.000000
  70
    32
  0
VERTEX
  8
0
  5
47C9
 10
224.180
 20
181.757
 30
0.000000
  70
    32
  0
VERTEX
  8
0
  5
47CA
 10
224.205
 20
181.735
 30
0.000000
  70
    32
  0
VERTEX
  8
0
  5
47CB
 10
224.230
 20
181.712
 30
0.000000
  70
    32
  0
VERTEX
  8
0
  5
47CC
 10
224.256
 20
181.690
 30
0.000000
  70
    32
  0
VERTEX
  8
0
  5
47CD
 10
224.282
 20
181.668
 30
0.000000
  70
    32
  0
VERTEX
  8
0
  5
47CE
 10
224.308
 20
181.647
 30
0.000000
  70
    32
  0
VERTEX
  8
0
  5
47CF
 10
224.335
 20
181.625
 30
0.000000
  70
    32
  0
VERTEX
  8
0
  5
47D0
 10
224.362
 20
181.603
 30
0.000000
  70
    32
  0
VERTEX
  8
0
  5
47D1
 10
224.389
 20
181.581
 30
0.000000
  70
    32
  0
VERTEX
  8
0
  5
47D2
 10
224.417
 20
181.559
 30
0.000000
  70
    32
  0
VERTEX
  8
0
  5
47D3
 10
224.445
 20
181.538
 30
0.000000
  70
    32
  0
VERTEX
  8
0
  5
47D4
 10
224.474
 20
181.516
 30
0.000000
  70
    32
  0
VERTEX
  8
0
  5
47D5
 10
224.502
 20
181.495
 30
0.000000
  70
    32
  0
VERTEX
  8
0
  5
47D6
 10
224.531
 20
181.473
 30
0.000000
  70
    32
  0
VERTEX
  8
0
  5
47D7
 10
224.561
 20
181.452
 30
0.000000
  70
    32
  0
VERTEX
  8
0
  5
47D8
 10
224.591
 20
181.431
 30
0.000000
  70
    32
  0
VERTEX
  8
0
  5
47D9
 10
224.621
 20
181.409
 30
0.000000
  70
    32
  0
VERTEX
  8
0
  5
47DA
 10
224.651
 20
181.388
 30
0.000000
  70
    32
  0
VERTEX
  8
0
  5
47DB
 10
224.682
 20
181.367
 30
0.000000
  70
    32
  0
VERTEX
  8
0
  5
47DC
 10
224.713
 20
181.346
 30
0.000000
  70
    32
  0
VERTEX
  8
0
  5
47DD
 10
224.744
 20
181.325
 30
0.000000
  70
    32
  0
VERTEX
  8
0
  5
47DE
 10
224.776
 20
181.304
 30
0.000000
  70
    32
  0
VERTEX
  8
0
  5
47DF
 10
224.808
 20
181.283
 30
0.000000
  70
    32
  0
VERTEX
  8
0
  5
47E0
 10
224.841
 20
181.262
 30
0.000000
  70
    32
  0
VERTEX
  8
0
  5
47E1
 10
224.873
 20
181.241
 30
0.000000
  70
    32
  0
VERTEX
  8
0
  5
47E2
 10
224.906
 20
181.221
 30
0.000000
  70
    32
  0
VERTEX
  8
0
  5
47E3
 10
224.940
 20
181.200
 30
0.000000
  70
    32
  0
VERTEX
  8
0
  5
47E4
 10
224.973
 20
181.180
 30
0.000000
  70
    32
  0
VERTEX
  8
0
  5
47E5
 10
225.007
 20
181.159
 30
0.000000
  70
    32
  0
VERTEX
  8
0
  5
47E6
 10
225.042
 20
181.139
 30
0.000000
  70
    32
  0
VERTEX
  8
0
  5
47E7
 10
225.076
 20
181.118
 30
0.000000
  70
    32
  0
VERTEX
  8
0
  5
47E8
 10
225.111
 20
181.098
 30
0.000000
  70
    32
  0
VERTEX
  8
0
  5
47E9
 10
225.147
 20
181.078
 30
0.000000
  70
    32
  0
VERTEX
  8
0
  5
47EA
 10
225.182
 20
181.058
 30
0.000000
  70
    32
  0
VERTEX
  8
0
  5
47EB
 10
225.218
 20
181.038
 30
0.000000
  70
    32
  0
VERTEX
  8
0
  5
47EC
 10
225.254
 20
181.018
 30
0.000000
  70
    32
  0
VERTEX
  8
0
  5
47ED
 10
225.291
 20
180.998
 30
0.000000
  70
    32
  0
VERTEX
  8
0
  5
47EE
 10
225.328
 20
180.978
 30
0.000000
  70
    32
  0
VERTEX
  8
0
  5
47EF
 10
225.365
 20
180.958
 30
0.000000
  70
    32
  0
VERTEX
  8
0
  5
47F0
 10
225.402
 20
180.939
 30
0.000000
  70
    32
  0
VERTEX
  8
0
  5
47F1
 10
225.440
 20
180.919
 30
0.000000
  70
    32
  0
VERTEX
  8
0
  5
47F2
 10
225.478
 20
180.900
 30
0.000000
  70
    32
  0
VERTEX
  8
0
  5
47F3
 10
225.516
 20
180.880
 30
0.000000
  70
    32
  0
VERTEX
  8
0
  5
47F4
 10
225.555
 20
180.861
 30
0.000000
  70
    32
  0
VERTEX
  8
0
  5
47F5
 10
225.594
 20
180.842
 30
0.000000
  70
    32
  0
VERTEX
  8
0
  5
47F6
 10
225.633
 20
180.822
 30
0.000000
  70
    32
  0
SEQEND
  8
0
  5
47F7
  0
LINE
  5
3EFC
  8
0
 10
224.92077156902511
 20
182.81437210745
 30
0.0
 11
224.358230847925
 21
182.81437210745
 31
0.0
  0
ARC
  5
3EFD
  8
0
 10
223.36246069042511
 20
182.76504582864999
 30
0.0
 40
0.9969911174389491
 50
2.8358746659002532
 51
89.856183033102013
  0
LINE
  5
3EFE
  8
0
 10
223.364963214825
 20
183.70172880595001
 30
0.0
 11
223.364963214825
 21
183.76203380534989
 31
0.0
  0
LINE
  5
3EFF
  8
0
 10
222.0964147896251
 20
183.76203380534989
 30
0.0
 11
222.0964147896251
 21
183.70172880595001
 31
0.0
  0
LINE
  5
3F00
  8
0
 10
222.0964147896251
 20
183.76203380534989
 30
0.0
 11
223.92393612690631
 21
183.76203380534989
 31
0.0
  0
LINE
  5
3F01
  8
0
 10
220.47516752032499
 20
171.28820471475001
 30
0.0
 11
238.0248322338249
 21
171.28820471475001
 31
0.0
  0
ARC
  5
3F02
  8
0
 10
226.22683073719239
 20
182.1186322276011
 30
0.0
 40
5.176966474025825
 50
177.09037349014719
 51
204.94828818723829
  0
LINE
  5
3F03
  8
0
 10
237.5779948384251
 20
179.8143697530499
 30
0.0
 11
221.65712203832501
 21
179.8143697530499
 31
0.0
  0
POLYLINE
  5
3F04
  8
0
 66
     1
 10
0.0
 20
0.0
 30
0.0
 70
   128
  0
VERTEX
  5
44B3
  8
0
 10
224.358230847925
 20
182.81437210745
 30
0.0
  0
VERTEX
  5
44B4
  8
0
 10
224.322125799925
 20
182.44426079104991
 30
0.0
  0
VERTEX
  5
44B5
  8
0
 10
224.33050071822501
 20
182.3769410700499
 30
0.0
  0
SEQEND
  5
44B6
  8
0
  0
LINE
  5
3F05
  8
0
 10
40.947663784025053
 20
167.81170420345001
 30
0.0
 11
50.000000000025011
 21
168.28611619764999
 31
0.0
  0
LINE
  5
3F06
  8
0
 10
40.947663784025053
 20
167.81170314059119
 30
0.0
 11
40.947663784025053
 21
99.712373092750013
 31
0.0
  0
LINE
  5
3F07
  8
0
 10
59.999999776525101
 20
105.76203778385
 30
0.0
 11
40.000000223525028
 21
105.76203778385
 31
0.0
  0
LINE
  5
3F08
  8
0
 10
59.999999776525101
 20
161.76203764975011
 30
0.0
 11
40.000000223525028
 21
161.76203764975
 31
0.0
  0
ARC
  5
3F09
  8
0
 10
41.000000000025011
 20
166.81307361944999
 30
0.0
 40
1.0
 50
92.999999999999076
 51
180.0
  0
LINE
  5
3F0A
  8
0
 10
40.000000223525028
 20
100.71100234985001
 30
0.0
 11
40.000000223525028
 21
166.813742200028
 31
0.0
  0
LINE
  5
3F0B
  8
0
 10
50.000000000025011
 20
168.28611619764999
 30
0.0
 11
59.052336216024969
 21
167.81170420345001
 31
0.0
  0
LINE
  5
3F0C
  8
0
 10
59.052336216024969
 20
99.712373092750013
 30
0.0
 11
59.052336216024969
 21
167.81170314059131
 31
0.0
  0
ARC
  5
3F0D
  8
0
 10
59.000000000025011
 20
166.81307361944999
 30
0.0
 40
1.0000000000000271
 50
0.0
 51
87.000000000000924
  0
LINE
  5
3F0E
  8
0
 10
59.999999776525101
 20
166.8137421999015
 30
0.0
 11
59.999999776525101
 21
100.71100234985001
 31
0.0
  0
ARC
  5
3F0F
  8
0
 10
115.47448266342511
 20
171.26203726234999
 30
0.0
 40
0.5
 50
176.9999999999996
 51
270.0
  0
LINE
  5
3F10
  8
0
 10
115.57922876342511
 20
182.81437321864999
 30
0.0
 11
114.9751678960251
 21
171.28820524045
 31
0.0
  0
ARC
  5
3F11
  8
0
 10
116.57785829812509
 20
182.76203726234999
 30
0.0
 40
1.0
 50
90.0
 51
176.9999999999996
  0
ARC
  5
3F12
  8
0
 10
147.52551809662509
 20
171.26203726234999
 30
0.0
 40
0.5000000000000271
 50
270.0
 51
2.999999999999952
  0
LINE
  5
3F13
  8
0
 10
148.024832864025
 20
171.28820524045
 30
0.0
 11
147.5779953345251
 21
179.81437321864999
 31
0.0
  0
ARC
  5
3F14
  8
0
 10
146.57936579972511
 20
179.76203726234999
 30
0.0
 40
1.0
 50
2.999999999999952
 51
90.0
  0
POLYLINE
  5
3F15
  8
0
 66
     1
 10
0.0
 20
0.0
 30
0.0
 70
   128
  0
VERTEX
  5
44B7
  8
0
 10
136.38687271522511
 20
171.28820524045
 30
0.0
  0
VERTEX
  5
44B8
  8
0
 10
136.3854310838251
 20
171.18705388455001
 30
0.0
  0
VERTEX
  5
44B9
  8
0
 10
136.37810583382509
 20
171.08897873385001
 30
0.0
  0
VERTEX
  5
44BA
  8
0
 10
136.36519748492501
 20
170.99800333704999
 30
0.0
  0
VERTEX
  5
44BB
  8
0
 10
136.347235604025
 20
170.91785997455
 30
0.0
  0
VERTEX
  5
44BC
  8
0
 10
136.32495708032499
 20
170.85183654065
 30
0.0
  0
VERTEX
  5
44BD
  8
0
 10
136.2992758938251
 20
170.80264165725001
 30
0.0
  0
VERTEX
  5
44BE
  8
0
 10
136.271245619225
 20
170.77229355255
 30
0.0
  0
VERTEX
  5
44BF
  8
0
 10
136.24201620322501
 20
170.76203726234999
 30
0.0
  0
SEQEND
  5
44C0
  8
0
  0
LINE
  5
3F16
  8
0
 10
136.38687271522511
 20
171.28820524045
 30
0.0
 11
136.257240406725
 21
179.81437321864999
 31
0.0
  0
LINE
  5
3F17
  8
0
 10
123.92326128432509
 20
183.70172988314999
 30
0.0
 11
131.83430721742511
 21
180.82234464154999
 31
0.0
  0
ARC
  5
3F18
  8
0
 10
123.581241140925
 20
182.76203726234999
 30
0.0
 40
1.0
 50
69.999999999999972
 51
90.0
  0
LINE
  5
3F19
  8
0
 10
116.57785829812509
 20
183.76203726234999
 30
0.0
 11
123.581241140925
 21
183.76203726234999
 31
0.0
  0
LINE
  5
3F1A
  8
0
 10
139.00000038002511
 20
170.76203726234991
 30
0.0
 11
115.47448266342511
 21
170.76203726234999
 31
0.0
  0
LINE
  5
3F1B
  8
0
 10
131.83430721742511
 20
180.82234464154999
 30
0.0
 11
132.176327360725
 21
180.76203726234999
 31
0.0
  0
LINE
  5
3F1C
  8
0
 10
132.176327360725
 20
180.76203726234999
 30
0.0
 11
146.57936579972511
 21
180.76203726234999
 31
0.0
  0
POLYLINE
  5
3F1D
  8
0
 66
     1
 10
0.0
 20
0.0
 30
0.0
 70
   128
  0
VERTEX
  5
44C1
  8
0
 10
136.257240406725
 20
179.81437321864999
 30
0.0
  0
VERTEX
  5
44C2
  8
0
 10
136.2491729161251
 20
180.00184172704999
 30
0.0
  0
VERTEX
  5
44C3
  8
0
 10
136.23098935332499
 20
180.18069699994999
 30
0.0
  0
VERTEX
  5
44C4
  8
0
 10
136.20334283062499
 20
180.34451495925001
 30
0.0
  0
VERTEX
  5
44C5
  8
0
 10
136.1672263488251
 20
180.48741163335001
 30
0.0
  0
VERTEX
  5
44C6
  8
0
 10
136.12393713062511
 20
180.60425449605
 30
0.0
  0
VERTEX
  5
44C7
  8
0
 10
136.07503002702501
 20
180.69084681525001
 30
0.0
  0
VERTEX
  5
44C8
  8
0
 10
136.0222616709251
 20
180.74407839004999
 30
0.0
  0
VERTEX
  5
44C9
  8
0
 10
135.96752738262509
 20
180.76203726234999
 30
0.0
  0
SEQEND
  5
44CA
  8
0
  0
ARC
  5
3F1E
  8
0
 10
138.62039217002501
 20
171.15896927905001
 30
0.0
 40
0.6397885449376483
 50
168.34618311039799
 51
218.34617300590011
  0
LINE
  5
3F1F
  8
0
 10
137.9937922590251
 20
171.28820524045
 30
0.0
 11
138.10550164142509
 21
179.81437321864999
 31
0.0
  0
ARC
  5
3F20
  8
0
 10
139.22703189252499
 20
180.02562916695001
 30
0.0
 40
1.1412533373283611
 50
139.814632850598
 51
190.6674712739981
  0
LINE
  5
3F21
  8
0
 10
148.00000038002511
 20
170.76203726234999
 30
0.0
 11
141.00000038002511
 21
170.76203726234999
 31
0.0
  0
LINE
  5
3F22
  8
0
 10
139.00000038002511
 20
170.73933798605
 30
0.0
 11
141.00000038002511
 21
170.73933798605
 31
0.0
  0
LINE
  5
3F23
  8
0
 10
141.0000002660251
 20
180.16203828155
 30
0.0
 11
139.00000017102511
 21
180.16203828155
 31
0.0
  0
LINE
  5
3F24
  8
0
 10
123.550208069425
 20
182.81437395514999
 30
0.0
 11
115.57922880197199
 21
182.81437395514999
 31
0.0
  0
POLYLINE
  5
3F25
  8
0
 66
     1
 10
0.0
 20
0.0
 30
0.0
 70
   128
  0
VERTEX
  5
44CB
  8
0
 10
131.66618698092509
 20
179.93498905005001
 30
0.0
  0
VERTEX
  5
44CC
  8
0
 10
129.79558647422499
 20
180.59869049495001
 30
0.0
  0
VERTEX
  5
44CD
  8
0
 10
126.6849001571251
 20
181.70231519645
 30
0.0
  0
VERTEX
  5
44CE
  8
0
 10
123.550208069425
 20
182.81437395514999
 30
0.0
  0
SEQEND
  5
44CF
  8
0
  0
LINE
  5
3F26
  8
0
 10
132.367905013225
 20
179.81437160075001
 30
0.0
 11
131.66618698092509
 21
179.93498905005001
 31
0.0
  0
LINE
  5
3F27
  8
0
 10
139.00000038002511
 20
179.81437160075001
 30
0.0
 11
132.367905013225
 21
179.81437160075001
 31
0.0
  0
LINE
  5
3F28
  8
0
 10
114.9751679653082
 20
171.28820656245
 30
0.0
 11
139.00000033252499
 21
171.28820656245
 31
0.0
  0
LINE
  5
3F29
  8
0
 10
141.00000042752501
 20
171.28820656245
 30
0.0
 11
148.02483261382511
 21
171.28820656245
 31
0.0
  0
LINE
  5
3F2A
  8
0
 10
147.5779952183251
 20
179.81437160075001
 30
0.0
 11
141.00000042752501
 21
179.81437160075001
 31
0.0
  0
ARC
  5
3F2B
  8
0
 10
140.00000000002501
 20
230.0
 30
0.0
 40
8.0255177166425664
 50
255.52248781410029
 51
262.83777184540082
  0
ARC
  5
3F2C
  8
0
 10
137.25000000002501
 20
219.34929579800001
 30
0.0
 40
2.974482283357446
 50
75.522487814100344
 51
106.86457823439839
  0
ARC
  5
3F2D
  8
0
 10
124.775243742925
 20
260.5
 30
0.0
 40
40.025517716642561
 50
258.19323203439978
 51
286.86457823439849
  0
ARC
  5
3F2E
  8
0
 10
129.02150539692499
 20
229.3125
 30
0.0
 40
2.974482283357446
 50
0.0
 51
3.5833216985013419
  0
ARC
  5
3F2F
  8
0
 10
129.02150539692499
 20
229.3125
 30
0.0
 40
2.974482283357446
 50
307.30210036999858
 51
0.0
  0
ARC
  5
3F30
  8
0
 10
124.779382472625
 20
234.88065886039999
 30
0.0
 40
9.9744822833574354
 50
257.21992864389807
 51
307.30210036999858
  0
ARC
  5
3F31
  8
0
 10
119.249149789225
 20
210.5
 30
0.0
 40
15.025517716642581
 50
77.219928643901454
 51
99.96296171269897
  0
ARC
  5
3F32
  8
0
 10
117.0000000000327
 20
223.30395740488649
 30
0.0
 40
2.0255177166572209
 50
99.962961712847772
 51
258.1932320341902
  0
ARC
  5
3F33
  8
0
 10
119.249149789225
 20
210.5
 30
0.0
 40
13.422142081888641
 50
77.219928643901454
 51
99.96296171269897
  0
ARC
  5
3F34
  8
0
 10
124.779382472625
 20
234.88065886039999
 30
0.0
 40
11.57785791811137
 50
257.21992864389807
 51
264.0600768052991
  0
ARC
  5
3F35
  8
0
 10
124.775243742925
 20
260.5
 30
0.0
 40
38.42214208188863
 50
258.19323203439978
 51
268.21919488049969
  0
ARC
  5
3F36
  8
0
 10
117.000000000025
 20
223.30395740489999
 30
0.0
 40
0.4221420818886323
 50
99.96296171269897
 51
258.19323203439978
  0
LINE
  5
3F37
  8
0
 10
123.92326090432501
 20
223.36496303210001
 30
0.0
 11
123.581240760925
 21
223.36496303210001
 31
0.0
  0
LINE
  5
3F38
  8
0
 10
123.581240760925
 20
222.09641476319999
 30
0.0
 11
123.92326090432501
 21
222.09641476319999
 31
0.0
  0
POLYLINE
  5
3F39
  8
0
 10
123.92326090425904
 20
222.09641476256363
 30
0.0
 66
     1
 70
     8
  0
VERTEX
  8
0
  5
47F8
 10
123.923
 20
222.096
 30
0.000000
  70
    32
  0
VERTEX
  8
0
  5
47F9
 10
123.985
 20
222.093
 30
0.000000
  70
    32
  0
VERTEX
  8
0
  5
47FA
 10
124.047
 20
222.090
 30
0.000000
  70
    32
  0
VERTEX
  8
0
  5
47FB
 10
124.109
 20
222.088
 30
0.000000
  70
    32
  0
VERTEX
  8
0
  5
47FC
 10
124.171
 20
222.085
 30
0.000000
  70
    32
  0
VERTEX
  8
0
  5
47FD
 10
124.233
 20
222.082
 30
0.000000
  70
    32
  0
VERTEX
  8
0
  5
47FE
 10
124.295
 20
222.080
 30
0.000000
  70
    32
  0
VERTEX
  8
0
  5
47FF
 10
124.357
 20
222.077
 30
0.000000
  70
    32
  0
VERTEX
  8
0
  5
4800
 10
124.419
 20
222.075
 30
0.000000
  70
    32
  0
VERTEX
  8
0
  5
4801
 10
124.481
 20
222.072
 30
0.000000
  70
    32
  0
VERTEX
  8
0
  5
4802
 10
124.543
 20
222.070
 30
0.000000
  70
    32
  0
VERTEX
  8
0
  5
4803
 10
124.605
 20
222.068
 30
0.000000
  70
    32
  0
VERTEX
  8
0
  5
4804
 10
124.667
 20
222.066
 30
0.000000
  70
    32
  0
VERTEX
  8
0
  5
4805
 10
124.729
 20
222.064
 30
0.000000
  70
    32
  0
VERTEX
  8
0
  5
4806
 10
124.791
 20
222.063
 30
0.000000
  70
    32
  0
VERTEX
  8
0
  5
4807
 10
124.853
 20
222.061
 30
0.000000
  70
    32
  0
VERTEX
  8
0
  5
4808
 10
124.915
 20
222.059
 30
0.000000
  70
    32
  0
VERTEX
  8
0
  5
4809
 10
124.977
 20
222.058
 30
0.000000
  70
    32
  0
VERTEX
  8
0
  5
480A
 10
125.039
 20
222.057
 30
0.000000
  70
    32
  0
VERTEX
  8
0
  5
480B
 10
125.101
 20
222.055
 30
0.000000
  70
    32
  0
VERTEX
  8
0
  5
480C
 10
125.163
 20
222.054
 30
0.000000
  70
    32
  0
VERTEX
  8
0
  5
480D
 10
125.225
 20
222.053
 30
0.000000
  70
    32
  0
VERTEX
  8
0
  5
480E
 10
125.287
 20
222.052
 30
0.000000
  70
    32
  0
VERTEX
  8
0
  5
480F
 10
125.349
 20
222.051
 30
0.000000
  70
    32
  0
VERTEX
  8
0
  5
4810
 10
125.411
 20
222.051
 30
0.000000
  70
    32
  0
VERTEX
  8
0
  5
4811
 10
125.473
 20
222.050
 30
0.000000
  70
    32
  0
VERTEX
  8
0
  5
4812
 10
125.535
 20
222.049
 30
0.000000
  70
    32
  0
VERTEX
  8
0
  5
4813
 10
125.597
 20
222.049
 30
0.000000
  70
    32
  0
VERTEX
  8
0
  5
4814
 10
125.659
 20
222.049
 30
0.000000
  70
    32
  0
VERTEX
  8
0
  5
4815
 10
125.721
 20
222.048
 30
0.000000
  70
    32
  0
VERTEX
  8
0
  5
4816
 10
125.783
 20
222.048
 30
0.000000
  70
    32
  0
VERTEX
  8
0
  5
4817
 10
125.845
 20
222.048
 30
0.000000
  70
    32
  0
VERTEX
  8
0
  5
4818
 10
125.907
 20
222.048
 30
0.000000
  70
    32
  0
VERTEX
  8
0
  5
4819
 10
125.969
 20
222.048
 30
0.000000
  70
    32
  0
VERTEX
  8
0
  5
481A
 10
126.031
 20
222.049
 30
0.000000
  70
    32
  0
VERTEX
  8
0
  5
481B
 10
126.093
 20
222.049
 30
0.000000
  70
    32
  0
VERTEX
  8
0
  5
481C
 10
126.155
 20
222.049
 30
0.000000
  70
    32
  0
VERTEX
  8
0
  5
481D
 10
126.217
 20
222.050
 30
0.000000
  70
    32
  0
VERTEX
  8
0
  5
481E
 10
126.279
 20
222.050
 30
0.000000
  70
    32
  0
VERTEX
  8
0
  5
481F
 10
126.341
 20
222.051
 30
0.000000
  70
    32
  0
VERTEX
  8
0
  5
4820
 10
126.403
 20
222.052
 30
0.000000
  70
    32
  0
VERTEX
  8
0
  5
4821
 10
126.465
 20
222.053
 30
0.000000
  70
    32
  0
VERTEX
  8
0
  5
4822
 10
126.527
 20
222.054
 30
0.000000
  70
    32
  0
VERTEX
  8
0
  5
4823
 10
126.588
 20
222.055
 30
0.000000
  70
    32
  0
VERTEX
  8
0
  5
4824
 10
126.650
 20
222.056
 30
0.000000
  70
    32
  0
VERTEX
  8
0
  5
4825
 10
126.712
 20
222.058
 30
0.000000
  70
    32
  0
VERTEX
  8
0
  5
4826
 10
126.774
 20
222.059
 30
0.000000
  70
    32
  0
VERTEX
  8
0
  5
4827
 10
126.836
 20
222.061
 30
0.000000
  70
    32
  0
VERTEX
  8
0
  5
4828
 10
126.898
 20
222.062
 30
0.000000
  70
    32
  0
VERTEX
  8
0
  5
4829
 10
126.960
 20
222.064
 30
0.000000
  70
    32
  0
VERTEX
  8
0
  5
482A
 10
127.022
 20
222.066
 30
0.000000
  70
    32
  0
VERTEX
  8
0
  5
482B
 10
127.084
 20
222.068
 30
0.000000
  70
    32
  0
VERTEX
  8
0
  5
482C
 10
127.146
 20
222.070
 30
0.000000
  70
    32
  0
VERTEX
  8
0
  5
482D
 10
127.208
 20
222.072
 30
0.000000
  70
    32
  0
VERTEX
  8
0
  5
482E
 10
127.270
 20
222.074
 30
0.000000
  70
    32
  0
VERTEX
  8
0
  5
482F
 10
127.332
 20
222.077
 30
0.000000
  70
    32
  0
VERTEX
  8
0
  5
4830
 10
127.394
 20
222.079
 30
0.000000
  70
    32
  0
VERTEX
  8
0
  5
4831
 10
127.456
 20
222.082
 30
0.000000
  70
    32
  0
VERTEX
  8
0
  5
4832
 10
127.518
 20
222.084
 30
0.000000
  70
    32
  0
VERTEX
  8
0
  5
4833
 10
127.580
 20
222.087
 30
0.000000
  70
    32
  0
VERTEX
  8
0
  5
4834
 10
127.642
 20
222.090
 30
0.000000
  70
    32
  0
VERTEX
  8
0
  5
4835
 10
127.704
 20
222.093
 30
0.000000
  70
    32
  0
VERTEX
  8
0
  5
4836
 10
127.766
 20
222.096
 30
0.000000
  70
    32
  0
VERTEX
  8
0
  5
4837
 10
127.828
 20
222.099
 30
0.000000
  70
    32
  0
VERTEX
  8
0
  5
4838
 10
127.890
 20
222.102
 30
0.000000
  70
    32
  0
VERTEX
  8
0
  5
4839
 10
127.952
 20
222.105
 30
0.000000
  70
    32
  0
VERTEX
  8
0
  5
483A
 10
128.013
 20
222.109
 30
0.000000
  70
    32
  0
VERTEX
  8
0
  5
483B
 10
128.075
 20
222.112
 30
0.000000
  70
    32
  0
VERTEX
  8
0
  5
483C
 10
128.137
 20
222.116
 30
0.000000
  70
    32
  0
VERTEX
  8
0
  5
483D
 10
128.199
 20
222.120
 30
0.000000
  70
    32
  0
VERTEX
  8
0
  5
483E
 10
128.261
 20
222.124
 30
0.000000
  70
    32
  0
VERTEX
  8
0
  5
483F
 10
128.323
 20
222.128
 30
0.000000
  70
    32
  0
VERTEX
  8
0
  5
4840
 10
128.385
 20
222.132
 30
0.000000
  70
    32
  0
VERTEX
  8
0
  5
4841
 10
128.447
 20
222.136
 30
0.000000
  70
    32
  0
VERTEX
  8
0
  5
4842
 10
128.508
 20
222.140
 30
0.000000
  70
    32
  0
VERTEX
  8
0
  5
4843
 10
128.570
 20
222.144
 30
0.000000
  70
    32
  0
VERTEX
  8
0
  5
4844
 10
128.632
 20
222.149
 30
0.000000
  70
    32
  0
VERTEX
  8
0
  5
4845
 10
128.694
 20
222.153
 30
0.000000
  70
    32
  0
VERTEX
  8
0
  5
4846
 10
128.756
 20
222.158
 30
0.000000
  70
    32
  0
VERTEX
  8
0
  5
4847
 10
128.818
 20
222.163
 30
0.000000
  70
    32
  0
VERTEX
  8
0
  5
4848
 10
128.879
 20
222.168
 30
0.000000
  70
    32
  0
VERTEX
  8
0
  5
4849
 10
128.941
 20
222.172
 30
0.000000
  70
    32
  0
VERTEX
  8
0
  5
484A
 10
129.003
 20
222.177
 30
0.000000
  70
    32
  0
VERTEX
  8
0
  5
484B
 10
129.065
 20
222.183
 30
0.000000
  70
    32
  0
VERTEX
  8
0
  5
484C
 10
129.127
 20
222.188
 30
0.000000
  70
    32
  0
VERTEX
  8
0
  5
484D
 10
129.188
 20
222.193
 30
0.000000
  70
    32
  0
VERTEX
  8
0
  5
484E
 10
129.250
 20
222.199
 30
0.000000
  70
    32
  0
VERTEX
  8
0
  5
484F
 10
129.312
 20
222.204
 30
0.000000
  70
    32
  0
VERTEX
  8
0
  5
4850
 10
129.374
 20
222.210
 30
0.000000
  70
    32
  0
VERTEX
  8
0
  5
4851
 10
129.435
 20
222.215
 30
0.000000
  70
    32
  0
VERTEX
  8
0
  5
4852
 10
129.497
 20
222.221
 30
0.000000
  70
    32
  0
VERTEX
  8
0
  5
4853
 10
129.559
 20
222.227
 30
0.000000
  70
    32
  0
VERTEX
  8
0
  5
4854
 10
129.621
 20
222.233
 30
0.000000
  70
    32
  0
VERTEX
  8
0
  5
4855
 10
129.682
 20
222.239
 30
0.000000
  70
    32
  0
VERTEX
  8
0
  5
4856
 10
129.744
 20
222.246
 30
0.000000
  70
    32
  0
VERTEX
  8
0
  5
4857
 10
129.806
 20
222.252
 30
0.000000
  70
    32
  0
VERTEX
  8
0
  5
4858
 10
129.867
 20
222.258
 30
0.000000
  70
    32
  0
VERTEX
  8
0
  5
4859
 10
129.929
 20
222.265
 30
0.000000
  70
    32
  0
VERTEX
  8
0
  5
485A
 10
129.991
 20
222.271
 30
0.000000
  70
    32
  0
VERTEX
  8
0
  5
485B
 10
130.052
 20
222.278
 30
0.000000
  70
    32
  0
VERTEX
  8
0
  5
485C
 10
130.114
 20
222.285
 30
0.000000
  70
    32
  0
VERTEX
  8
0
  5
485D
 10
130.175
 20
222.292
 30
0.000000
  70
    32
  0
VERTEX
  8
0
  5
485E
 10
130.237
 20
222.299
 30
0.000000
  70
    32
  0
VERTEX
  8
0
  5
485F
 10
130.299
 20
222.306
 30
0.000000
  70
    32
  0
VERTEX
  8
0
  5
4860
 10
130.360
 20
222.313
 30
0.000000
  70
    32
  0
VERTEX
  8
0
  5
4861
 10
130.422
 20
222.321
 30
0.000000
  70
    32
  0
VERTEX
  8
0
  5
4862
 10
130.483
 20
222.328
 30
0.000000
  70
    32
  0
VERTEX
  8
0
  5
4863
 10
130.545
 20
222.336
 30
0.000000
  70
    32
  0
VERTEX
  8
0
  5
4864
 10
130.606
 20
222.343
 30
0.000000
  70
    32
  0
VERTEX
  8
0
  5
4865
 10
130.668
 20
222.351
 30
0.000000
  70
    32
  0
VERTEX
  8
0
  5
4866
 10
130.729
 20
222.359
 30
0.000000
  70
    32
  0
VERTEX
  8
0
  5
4867
 10
130.791
 20
222.367
 30
0.000000
  70
    32
  0
VERTEX
  8
0
  5
4868
 10
130.852
 20
222.375
 30
0.000000
  70
    32
  0
VERTEX
  8
0
  5
4869
 10
130.914
 20
222.383
 30
0.000000
  70
    32
  0
VERTEX
  8
0
  5
486A
 10
130.975
 20
222.391
 30
0.000000
  70
    32
  0
VERTEX
  8
0
  5
486B
 10
131.037
 20
222.399
 30
0.000000
  70
    32
  0
VERTEX
  8
0
  5
486C
 10
131.098
 20
222.408
 30
0.000000
  70
    32
  0
VERTEX
  8
0
  5
486D
 10
131.160
 20
222.416
 30
0.000000
  70
    32
  0
VERTEX
  8
0
  5
486E
 10
131.221
 20
222.425
 30
0.000000
  70
    32
  0
VERTEX
  8
0
  5
486F
 10
131.282
 20
222.434
 30
0.000000
  70
    32
  0
VERTEX
  8
0
  5
4870
 10
131.344
 20
222.442
 30
0.000000
  70
    32
  0
VERTEX
  8
0
  5
4871
 10
131.405
 20
222.451
 30
0.000000
  70
    32
  0
VERTEX
  8
0
  5
4872
 10
131.467
 20
222.460
 30
0.000000
  70
    32
  0
VERTEX
  8
0
  5
4873
 10
131.528
 20
222.469
 30
0.000000
  70
    32
  0
VERTEX
  8
0
  5
4874
 10
131.589
 20
222.479
 30
0.000000
  70
    32
  0
VERTEX
  8
0
  5
4875
 10
131.650
 20
222.488
 30
0.000000
  70
    32
  0
VERTEX
  8
0
  5
4876
 10
131.712
 20
222.497
 30
0.000000
  70
    32
  0
VERTEX
  8
0
  5
4877
 10
131.773
 20
222.507
 30
0.000000
  70
    32
  0
VERTEX
  8
0
  5
4878
 10
131.834
 20
222.516
 30
0.000000
  70
    32
  0
SEQEND
  8
0
  5
4879
  0
POLYLINE
  5
3F3A
  8
0
 10
123.92326090424029
 20
223.36496303186959
 30
0.0
 66
     1
 70
     8
  0
VERTEX
  8
0
  5
487A
 10
123.923
 20
223.365
 30
0.000000
  70
    32
  0
VERTEX
  8
0
  5
487B
 10
123.989
 20
223.360
 30
0.000000
  70
    32
  0
VERTEX
  8
0
  5
487C
 10
124.054
 20
223.355
 30
0.000000
  70
    32
  0
VERTEX
  8
0
  5
487D
 10
124.120
 20
223.350
 30
0.000000
  70
    32
  0
VERTEX
  8
0
  5
487E
 10
124.186
 20
223.346
 30
0.000000
  70
    32
  0
VERTEX
  8
0
  5
487F
 10
124.251
 20
223.342
 30
0.000000
  70
    32
  0
VERTEX
  8
0
  5
4880
 10
124.317
 20
223.338
 30
0.000000
  70
    32
  0
VERTEX
  8
0
  5
4881
 10
124.382
 20
223.335
 30
0.000000
  70
    32
  0
VERTEX
  8
0
  5
4882
 10
124.448
 20
223.332
 30
0.000000
  70
    32
  0
VERTEX
  8
0
  5
4883
 10
124.514
 20
223.330
 30
0.000000
  70
    32
  0
VERTEX
  8
0
  5
4884
 10
124.580
 20
223.328
 30
0.000000
  70
    32
  0
VERTEX
  8
0
  5
4885
 10
124.645
 20
223.326
 30
0.000000
  70
    32
  0
VERTEX
  8
0
  5
4886
 10
124.711
 20
223.325
 30
0.000000
  70
    32
  0
VERTEX
  8
0
  5
4887
 10
124.777
 20
223.324
 30
0.000000
  70
    32
  0
VERTEX
  8
0
  5
4888
 10
124.842
 20
223.324
 30
0.000000
  70
    32
  0
VERTEX
  8
0
  5
4889
 10
124.908
 20
223.324
 30
0.000000
  70
    32
  0
VERTEX
  8
0
  5
488A
 10
124.974
 20
223.324
 30
0.000000
  70
    32
  0
VERTEX
  8
0
  5
488B
 10
125.040
 20
223.324
 30
0.000000
  70
    32
  0
VERTEX
  8
0
  5
488C
 10
125.105
 20
223.325
 30
0.000000
  70
    32
  0
VERTEX
  8
0
  5
488D
 10
125.171
 20
223.327
 30
0.000000
  70
    32
  0
VERTEX
  8
0
  5
488E
 10
125.237
 20
223.328
 30
0.000000
  70
    32
  0
VERTEX
  8
0
  5
488F
 10
125.303
 20
223.331
 30
0.000000
  70
    32
  0
VERTEX
  8
0
  5
4890
 10
125.368
 20
223.333
 30
0.000000
  70
    32
  0
VERTEX
  8
0
  5
4891
 10
125.434
 20
223.336
 30
0.000000
  70
    32
  0
VERTEX
  8
0
  5
4892
 10
125.500
 20
223.339
 30
0.000000
  70
    32
  0
VERTEX
  8
0
  5
4893
 10
125.565
 20
223.343
 30
0.000000
  70
    32
  0
VERTEX
  8
0
  5
4894
 10
125.631
 20
223.347
 30
0.000000
  70
    32
  0
VERTEX
  8
0
  5
4895
 10
125.696
 20
223.351
 30
0.000000
  70
    32
  0
VERTEX
  8
0
  5
4896
 10
125.762
 20
223.356
 30
0.000000
  70
    32
  0
VERTEX
  8
0
  5
4897
 10
125.828
 20
223.361
 30
0.000000
  70
    32
  0
VERTEX
  8
0
  5
4898
 10
125.893
 20
223.366
 30
0.000000
  70
    32
  0
VERTEX
  8
0
  5
4899
 10
125.959
 20
223.372
 30
0.000000
  70
    32
  0
VERTEX
  8
0
  5
489A
 10
126.024
 20
223.378
 30
0.000000
  70
    32
  0
VERTEX
  8
0
  5
489B
 10
126.089
 20
223.385
 30
0.000000
  70
    32
  0
VERTEX
  8
0
  5
489C
 10
126.155
 20
223.392
 30
0.000000
  70
    32
  0
VERTEX
  8
0
  5
489D
 10
126.220
 20
223.399
 30
0.000000
  70
    32
  0
VERTEX
  8
0
  5
489E
 10
126.285
 20
223.407
 30
0.000000
  70
    32
  0
VERTEX
  8
0
  5
489F
 10
126.351
 20
223.415
 30
0.000000
  70
    32
  0
VERTEX
  8
0
  5
48A0
 10
126.416
 20
223.423
 30
0.000000
  70
    32
  0
VERTEX
  8
0
  5
48A1
 10
126.481
 20
223.432
 30
0.000000
  70
    32
  0
VERTEX
  8
0
  5
48A2
 10
126.546
 20
223.441
 30
0.000000
  70
    32
  0
VERTEX
  8
0
  5
48A3
 10
126.611
 20
223.451
 30
0.000000
  70
    32
  0
VERTEX
  8
0
  5
48A4
 10
126.676
 20
223.461
 30
0.000000
  70
    32
  0
VERTEX
  8
0
  5
48A5
 10
126.741
 20
223.471
 30
0.000000
  70
    32
  0
VERTEX
  8
0
  5
48A6
 10
126.806
 20
223.482
 30
0.000000
  70
    32
  0
VERTEX
  8
0
  5
48A7
 10
126.871
 20
223.493
 30
0.000000
  70
    32
  0
VERTEX
  8
0
  5
48A8
 10
126.935
 20
223.504
 30
0.000000
  70
    32
  0
VERTEX
  8
0
  5
48A9
 10
127.000
 20
223.516
 30
0.000000
  70
    32
  0
VERTEX
  8
0
  5
48AA
 10
127.065
 20
223.528
 30
0.000000
  70
    32
  0
VERTEX
  8
0
  5
48AB
 10
127.129
 20
223.540
 30
0.000000
  70
    32
  0
VERTEX
  8
0
  5
48AC
 10
127.194
 20
223.553
 30
0.000000
  70
    32
  0
VERTEX
  8
0
  5
48AD
 10
127.258
 20
223.566
 30
0.000000
  70
    32
  0
VERTEX
  8
0
  5
48AE
 10
127.322
 20
223.580
 30
0.000000
  70
    32
  0
VERTEX
  8
0
  5
48AF
 10
127.387
 20
223.594
 30
0.000000
  70
    32
  0
VERTEX
  8
0
  5
48B0
 10
127.451
 20
223.608
 30
0.000000
  70
    32
  0
VERTEX
  8
0
  5
48B1
 10
127.515
 20
223.623
 30
0.000000
  70
    32
  0
VERTEX
  8
0
  5
48B2
 10
127.579
 20
223.638
 30
0.000000
  70
    32
  0
VERTEX
  8
0
  5
48B3
 10
127.643
 20
223.653
 30
0.000000
  70
    32
  0
VERTEX
  8
0
  5
48B4
 10
127.707
 20
223.669
 30
0.000000
  70
    32
  0
VERTEX
  8
0
  5
48B5
 10
127.770
 20
223.685
 30
0.000000
  70
    32
  0
VERTEX
  8
0
  5
48B6
 10
127.834
 20
223.702
 30
0.000000
  70
    32
  0
VERTEX
  8
0
  5
48B7
 10
127.898
 20
223.719
 30
0.000000
  70
    32
  0
VERTEX
  8
0
  5
48B8
 10
127.961
 20
223.736
 30
0.000000
  70
    32
  0
VERTEX
  8
0
  5
48B9
 10
128.024
 20
223.753
 30
0.000000
  70
    32
  0
VERTEX
  8
0
  5
48BA
 10
128.088
 20
223.771
 30
0.000000
  70
    32
  0
VERTEX
  8
0
  5
48BB
 10
128.151
 20
223.790
 30
0.000000
  70
    32
  0
VERTEX
  8
0
  5
48BC
 10
128.214
 20
223.808
 30
0.000000
  70
    32
  0
VERTEX
  8
0
  5
48BD
 10
128.277
 20
223.827
 30
0.000000
  70
    32
  0
VERTEX
  8
0
  5
48BE
 10
128.339
 20
223.847
 30
0.000000
  70
    32
  0
VERTEX
  8
0
  5
48BF
 10
128.402
 20
223.866
 30
0.000000
  70
    32
  0
VERTEX
  8
0
  5
48C0
 10
128.465
 20
223.887
 30
0.000000
  70
    32
  0
VERTEX
  8
0
  5
48C1
 10
128.527
 20
223.907
 30
0.000000
  70
    32
  0
VERTEX
  8
0
  5
48C2
 10
128.590
 20
223.928
 30
0.000000
  70
    32
  0
VERTEX
  8
0
  5
48C3
 10
128.652
 20
223.949
 30
0.000000
  70
    32
  0
VERTEX
  8
0
  5
48C4
 10
128.714
 20
223.970
 30
0.000000
  70
    32
  0
VERTEX
  8
0
  5
48C5
 10
128.776
 20
223.992
 30
0.000000
  70
    32
  0
VERTEX
  8
0
  5
48C6
 10
128.838
 20
224.015
 30
0.000000
  70
    32
  0
VERTEX
  8
0
  5
48C7
 10
128.900
 20
224.037
 30
0.000000
  70
    32
  0
VERTEX
  8
0
  5
48C8
 10
128.961
 20
224.060
 30
0.000000
  70
    32
  0
VERTEX
  8
0
  5
48C9
 10
129.023
 20
224.083
 30
0.000000
  70
    32
  0
VERTEX
  8
0
  5
48CA
 10
129.084
 20
224.107
 30
0.000000
  70
    32
  0
VERTEX
  8
0
  5
48CB
 10
129.145
 20
224.131
 30
0.000000
  70
    32
  0
VERTEX
  8
0
  5
48CC
 10
129.206
 20
224.155
 30
0.000000
  70
    32
  0
VERTEX
  8
0
  5
48CD
 10
129.267
 20
224.180
 30
0.000000
  70
    32
  0
VERTEX
  8
0
  5
48CE
 10
129.328
 20
224.205
 30
0.000000
  70
    32
  0
VERTEX
  8
0
  5
48CF
 10
129.389
 20
224.230
 30
0.000000
  70
    32
  0
VERTEX
  8
0
  5
48D0
 10
129.449
 20
224.256
 30
0.000000
  70
    32
  0
VERTEX
  8
0
  5
48D1
 10
129.510
 20
224.282
 30
0.000000
  70
    32
  0
VERTEX
  8
0
  5
48D2
 10
129.570
 20
224.308
 30
0.000000
  70
    32
  0
VERTEX
  8
0
  5
48D3
 10
129.630
 20
224.335
 30
0.000000
  70
    32
  0
VERTEX
  8
0
  5
48D4
 10
129.690
 20
224.362
 30
0.000000
  70
    32
  0
VERTEX
  8
0
  5
48D5
 10
129.750
 20
224.389
 30
0.000000
  70
    32
  0
VERTEX
  8
0
  5
48D6
 10
129.809
 20
224.417
 30
0.000000
  70
    32
  0
VERTEX
  8
0
  5
48D7
 10
129.869
 20
224.445
 30
0.000000
  70
    32
  0
VERTEX
  8
0
  5
48D8
 10
129.928
 20
224.474
 30
0.000000
  70
    32
  0
VERTEX
  8
0
  5
48D9
 10
129.987
 20
224.502
 30
0.000000
  70
    32
  0
VERTEX
  8
0
  5
48DA
 10
130.046
 20
224.531
 30
0.000000
  70
    32
  0
VERTEX
  8
0
  5
48DB
 10
130.105
 20
224.561
 30
0.000000
  70
    32
  0
VERTEX
  8
0
  5
48DC
 10
130.163
 20
224.591
 30
0.000000
  70
    32
  0
VERTEX
  8
0
  5
48DD
 10
130.222
 20
224.621
 30
0.000000
  70
    32
  0
VERTEX
  8
0
  5
48DE
 10
130.280
 20
224.651
 30
0.000000
  70
    32
  0
VERTEX
  8
0
  5
48DF
 10
130.338
 20
224.682
 30
0.000000
  70
    32
  0
VERTEX
  8
0
  5
48E0
 10
130.396
 20
224.713
 30
0.000000
  70
    32
  0
VERTEX
  8
0
  5
48E1
 10
130.454
 20
224.744
 30
0.000000
  70
    32
  0
VERTEX
  8
0
  5
48E2
 10
130.511
 20
224.776
 30
0.000000
  70
    32
  0
VERTEX
  8
0
  5
48E3
 10
130.569
 20
224.808
 30
0.000000
  70
    32
  0
VERTEX
  8
0
  5
48E4
 10
130.626
 20
224.841
 30
0.000000
  70
    32
  0
VERTEX
  8
0
  5
48E5
 10
130.683
 20
224.873
 30
0.000000
  70
    32
  0
VERTEX
  8
0
  5
48E6
 10
130.740
 20
224.906
 30
0.000000
  70
    32
  0
VERTEX
  8
0
  5
48E7
 10
130.796
 20
224.940
 30
0.000000
  70
    32
  0
VERTEX
  8
0
  5
48E8
 10
130.853
 20
224.973
 30
0.000000
  70
    32
  0
VERTEX
  8
0
  5
48E9
 10
130.909
 20
225.007
 30
0.000000
  70
    32
  0
VERTEX
  8
0
  5
48EA
 10
130.965
 20
225.042
 30
0.000000
  70
    32
  0
VERTEX
  8
0
  5
48EB
 10
131.021
 20
225.076
 30
0.000000
  70
    32
  0
VERTEX
  8
0
  5
48EC
 10
131.077
 20
225.111
 30
0.000000
  70
    32
  0
VERTEX
  8
0
  5
48ED
 10
131.132
 20
225.147
 30
0.000000
  70
    32
  0
VERTEX
  8
0
  5
48EE
 10
131.187
 20
225.182
 30
0.000000
  70
    32
  0
VERTEX
  8
0
  5
48EF
 10
131.243
 20
225.218
 30
0.000000
  70
    32
  0
VERTEX
  8
0
  5
48F0
 10
131.297
 20
225.254
 30
0.000000
  70
    32
  0
VERTEX
  8
0
  5
48F1
 10
131.352
 20
225.291
 30
0.000000
  70
    32
  0
VERTEX
  8
0
  5
48F2
 10
131.406
 20
225.328
 30
0.000000
  70
    32
  0
VERTEX
  8
0
  5
48F3
 10
131.461
 20
225.365
 30
0.000000
  70
    32
  0
VERTEX
  8
0
  5
48F4
 10
131.515
 20
225.402
 30
0.000000
  70
    32
  0
VERTEX
  8
0
  5
48F5
 10
131.569
 20
225.440
 30
0.000000
  70
    32
  0
VERTEX
  8
0
  5
48F6
 10
131.622
 20
225.478
 30
0.000000
  70
    32
  0
VERTEX
  8
0
  5
48F7
 10
131.676
 20
225.516
 30
0.000000
  70
    32
  0
VERTEX
  8
0
  5
48F8
 10
131.729
 20
225.555
 30
0.000000
  70
    32
  0
VERTEX
  8
0
  5
48F9
 10
131.782
 20
225.594
 30
0.000000
  70
    32
  0
VERTEX
  8
0
  5
48FA
 10
131.834
 20
225.633
 30
0.000000
  70
    32
  0
SEQEND
  8
0
  5
48FB
  0
LINE
  5
3F3B
  8
0
 10
131.834306837425
 20
222.51630510210001
 30
0.0
 11
132.17632698072501
 21
222.6372029151
 31
0.0
  0
LINE
  5
3F3C
  8
0
 10
131.93931224982501
 20
225.79372492600001
 30
0.0
 11
131.834306837425
 21
225.63337632919999
 31
0.0
  0
LINE
  5
3F3D
  8
0
 10
132.17632698072501
 20
226.215871048
 30
0.0
 11
131.93931224982501
 21
225.79372492600001
 31
0.0
  0
ARC
  5
3F3E
  8
0
 10
140.00000000002501
 20
230.0
 30
0.0
 40
6.5793654197377451
 50
278.74228744330031
 51
183.58332169850129
  0
ARC
  5
3F3F
  8
0
 10
140.00000000002501
 20
230.0
 30
0.0
 40
6.5793654197377442
 50
255.52248781410029
 51
261.25771255669969
  0
ARC
  5
3F40
  8
0
 10
140.00000000002501
 20
227.0
 30
0.0
 40
1.0
 50
0.0
 51
180.0
  0
ARC
  5
3F41
  8
0
 10
137.25000000002501
 20
219.34929579800001
 30
0.0
 40
4.4206345802622611
 50
75.522487814100344
 51
106.86457823439839
  0
ARC
  5
3F42
  8
0
 10
124.775243742925
 20
260.5
 30
0.0
 40
38.579365419737748
 50
281.06021090439941
 51
286.86457823439849
  0
ARC
  5
3F43
  8
0
 10
129.02150539692499
 20
229.3125
 30
0.0
 40
4.4206345802622549
 50
315.53333156520029
 51
3.5833216985013419
  0
LINE
  5
3F44
  8
0
 10
139.0000000000251
 20
219.99999999999989
 30
0.0
 11
139.00000000002501
 21
227.0
 31
0.0
  0
LINE
  5
3F45
  8
0
 10
141.0000000000249
 20
219.99999999999989
 30
0.0
 11
141.00000000002501
 21
227.0
 31
0.0
  0
ARC
  5
3F46
  8
0
 10
140.00000000002501
 20
230.0
 30
0.0
 40
8.0248324840198482
 50
277.15841872750099
 51
183.58332169850129
  0
LINE
  5
3F47
  8
0
 10
139.00000000002501
 20
222.37072844740001
 30
0.0
 11
141.00000000002501
 21
222.37072844740001
 31
0.0
  0
POLYLINE
  5
3F48
  8
0
 10
141.00000000002501
 20
221.45150417889113
 30
0.0
 66
     1
 70
     8
  0
VERTEX
  8
0
  5
48FC
 10
141.000
 20
221.452
 30
0.000000
  70
    32
  0
VERTEX
  8
0
  5
48FD
 10
141.306
 20
221.493
 30
0.000000
  70
    32
  0
VERTEX
  8
0
  5
48FE
 10
141.611
 20
221.545
 30
0.000000
  70
    32
  0
VERTEX
  8
0
  5
48FF
 10
141.913
 20
221.609
 30
0.000000
  70
    32
  0
VERTEX
  8
0
  5
4900
 10
142.213
 20
221.683
 30
0.000000
  70
    32
  0
VERTEX
  8
0
  5
4901
 10
142.510
 20
221.767
 30
0.000000
  70
    32
  0
VERTEX
  8
0
  5
4902
 10
142.804
 20
221.863
 30
0.000000
  70
    32
  0
VERTEX
  8
0
  5
4903
 10
143.094
 20
221.969
 30
0.000000
  70
    32
  0
VERTEX
  8
0
  5
4904
 10
143.380
 20
222.085
 30
0.000000
  70
    32
  0
VERTEX
  8
0
  5
4905
 10
143.662
 20
222.211
 30
0.000000
  70
    32
  0
VERTEX
  8
0
  5
4906
 10
143.939
 20
222.348
 30
0.000000
  70
    32
  0
VERTEX
  8
0
  5
4907
 10
144.211
 20
222.494
 30
0.000000
  70
    32
  0
VERTEX
  8
0
  5
4908
 10
144.478
 20
222.650
 30
0.000000
  70
    32
  0
VERTEX
  8
0
  5
4909
 10
144.739
 20
222.816
 30
0.000000
  70
    32
  0
VERTEX
  8
0
  5
490A
 10
144.993
 20
222.990
 30
0.000000
  70
    32
  0
VERTEX
  8
0
  5
490B
 10
145.242
 20
223.174
 30
0.000000
  70
    32
  0
VERTEX
  8
0
  5
490C
 10
145.483
 20
223.367
 30
0.000000
  70
    32
  0
VERTEX
  8
0
  5
490D
 10
145.718
 20
223.568
 30
0.000000
  70
    32
  0
VERTEX
  8
0
  5
490E
 10
145.945
 20
223.777
 30
0.000000
  70
    32
  0
VERTEX
  8
0
  5
490F
 10
146.164
 20
223.994
 30
0.000000
  70
    32
  0
VERTEX
  8
0
  5
4910
 10
146.376
 20
224.220
 30
0.000000
  70
    32
  0
VERTEX
  8
0
  5
4911
 10
146.579
 20
224.452
 30
0.000000
  70
    32
  0
VERTEX
  8
0
  5
4912
 10
146.774
 20
224.692
 30
0.000000
  70
    32
  0
VERTEX
  8
0
  5
4913
 10
146.960
 20
224.938
 30
0.000000
  70
    32
  0
VERTEX
  8
0
  5
4914
 10
147.137
 20
225.192
 30
0.000000
  70
    32
  0
VERTEX
  8
0
  5
4915
 10
147.305
 20
225.451
 30
0.000000
  70
    32
  0
VERTEX
  8
0
  5
4916
 10
147.463
 20
225.716
 30
0.000000
  70
    32
  0
VERTEX
  8
0
  5
4917
 10
147.612
 20
225.987
 30
0.000000
  70
    32
  0
VERTEX
  8
0
  5
4918
 10
147.751
 20
226.262
 30
0.000000
  70
    32
  0
VERTEX
  8
0
  5
4919
 10
147.880
 20
226.543
 30
0.000000
  70
    32
  0
VERTEX
  8
0
  5
491A
 10
147.999
 20
226.828
 30
0.000000
  70
    32
  0
VERTEX
  8
0
  5
491B
 10
148.108
 20
227.117
 30
0.000000
  70
    32
  0
VERTEX
  8
0
  5
491C
 10
148.206
 20
227.410
 30
0.000000
  70
    32
  0
VERTEX
  8
0
  5
491D
 10
148.294
 20
227.707
 30
0.000000
  70
    32
  0
VERTEX
  8
0
  5
491E
 10
148.371
 20
228.006
 30
0.000000
  70
    32
  0
VERTEX
  8
0
  5
491F
 10
148.437
 20
228.307
 30
0.000000
  70
    32
  0
VERTEX
  8
0
  5
4920
 10
148.492
 20
228.611
 30
0.000000
  70
    32
  0
VERTEX
  8
0
  5
4921
 10
148.536
 20
228.917
 30
0.000000
  70
    32
  0
VERTEX
  8
0
  5
4922
 10
148.569
 20
229.224
 30
0.000000
  70
    32
  0
VERTEX
  8
0
  5
4923
 10
148.592
 20
229.532
 30
0.000000
  70
    32
  0
VERTEX
  8
0
  5
4924
 10
148.603
 20
229.841
 30
0.000000
  70
    32
  0
VERTEX
  8
0
  5
4925
 10
148.603
 20
230.150
 30
0.000000
  70
    32
  0
VERTEX
  8
0
  5
4926
 10
148.592
 20
230.459
 30
0.000000
  70
    32
  0
VERTEX
  8
0
  5
4927
 10
148.570
 20
230.767
 30
0.000000
  70
    32
  0
VERTEX
  8
0
  5
4928
 10
148.537
 20
231.074
 30
0.000000
  70
    32
  0
VERTEX
  8
0
  5
4929
 10
148.493
 20
231.380
 30
0.000000
  70
    32
  0
VERTEX
  8
0
  5
492A
 10
148.437
 20
231.684
 30
0.000000
  70
    32
  0
VERTEX
  8
0
  5
492B
 10
148.371
 20
231.985
 30
0.000000
  70
    32
  0
VERTEX
  8
0
  5
492C
 10
148.295
 20
232.285
 30
0.000000
  70
    32
  0
VERTEX
  8
0
  5
492D
 10
148.207
 20
232.581
 30
0.000000
  70
    32
  0
VERTEX
  8
0
  5
492E
 10
148.109
 20
232.874
 30
0.000000
  70
    32
  0
VERTEX
  8
0
  5
492F
 10
148.001
 20
233.163
 30
0.000000
  70
    32
  0
VERTEX
  8
0
  5
4930
 10
147.882
 20
233.448
 30
0.000000
  70
    32
  0
VERTEX
  8
0
  5
4931
 10
147.753
 20
233.729
 30
0.000000
  70
    32
  0
VERTEX
  8
0
  5
4932
 10
147.614
 20
234.005
 30
0.000000
  70
    32
  0
VERTEX
  8
0
  5
4933
 10
147.465
 20
234.275
 30
0.000000
  70
    32
  0
VERTEX
  8
0
  5
4934
 10
147.307
 20
234.541
 30
0.000000
  70
    32
  0
VERTEX
  8
0
  5
4935
 10
147.139
 20
234.800
 30
0.000000
  70
    32
  0
VERTEX
  8
0
  5
4936
 10
146.962
 20
235.053
 30
0.000000
  70
    32
  0
VERTEX
  8
0
  5
4937
 10
146.776
 20
235.300
 30
0.000000
  70
    32
  0
VERTEX
  8
0
  5
4938
 10
146.582
 20
235.540
 30
0.000000
  70
    32
  0
VERTEX
  8
0
  5
4939
 10
146.378
 20
235.772
 30
0.000000
  70
    32
  0
VERTEX
  8
0
  5
493A
 10
146.167
 20
235.998
 30
0.000000
  70
    32
  0
VERTEX
  8
0
  5
493B
 10
145.948
 20
236.215
 30
0.000000
  70
    32
  0
VERTEX
  8
0
  5
493C
 10
145.721
 20
236.425
 30
0.000000
  70
    32
  0
VERTEX
  8
0
  5
493D
 10
145.486
 20
236.626
 30
0.000000
  70
    32
  0
VERTEX
  8
0
  5
493E
 10
145.245
 20
236.818
 30
0.000000
  70
    32
  0
VERTEX
  8
0
  5
493F
 10
144.997
 20
237.002
 30
0.000000
  70
    32
  0
VERTEX
  8
0
  5
4940
 10
144.742
 20
237.177
 30
0.000000
  70
    32
  0
VERTEX
  8
0
  5
4941
 10
144.481
 20
237.343
 30
0.000000
  70
    32
  0
VERTEX
  8
0
  5
4942
 10
144.215
 20
237.499
 30
0.000000
  70
    32
  0
VERTEX
  8
0
  5
4943
 10
143.943
 20
237.645
 30
0.000000
  70
    32
  0
VERTEX
  8
0
  5
4944
 10
143.665
 20
237.782
 30
0.000000
  70
    32
  0
VERTEX
  8
0
  5
4945
 10
143.384
 20
237.908
 30
0.000000
  70
    32
  0
VERTEX
  8
0
  5
4946
 10
143.098
 20
238.025
 30
0.000000
  70
    32
  0
VERTEX
  8
0
  5
4947
 10
142.807
 20
238.131
 30
0.000000
  70
    32
  0
VERTEX
  8
0
  5
4948
 10
142.514
 20
238.226
 30
0.000000
  70
    32
  0
VERTEX
  8
0
  5
4949
 10
142.217
 20
238.311
 30
0.000000
  70
    32
  0
VERTEX
  8
0
  5
494A
 10
141.917
 20
238.386
 30
0.000000
  70
    32
  0
VERTEX
  8
0
  5
494B
 10
141.614
 20
238.449
 30
0.000000
  70
    32
  0
VERTEX
  8
0
  5
494C
 10
141.310
 20
238.501
 30
0.000000
  70
    32
  0
VERTEX
  8
0
  5
494D
 10
141.004
 20
238.543
 30
0.000000
  70
    32
  0
VERTEX
  8
0
  5
494E
 10
140.697
 20
238.573
 30
0.000000
  70
    32
  0
VERTEX
  8
0
  5
494F
 10
140.388
 20
238.593
 30
0.000000
  70
    32
  0
VERTEX
  8
0
  5
4950
 10
140.079
 20
238.601
 30
0.000000
  70
    32
  0
VERTEX
  8
0
  5
4951
 10
139.771
 20
238.599
 30
0.000000
  70
    32
  0
VERTEX
  8
0
  5
4952
 10
139.462
 20
238.585
 30
0.000000
  70
    32
  0
VERTEX
  8
0
  5
4953
 10
139.154
 20
238.560
 30
0.000000
  70
    32
  0
VERTEX
  8
0
  5
4954
 10
138.847
 20
238.524
 30
0.000000
  70
    32
  0
VERTEX
  8
0
  5
4955
 10
138.542
 20
238.477
 30
0.000000
  70
    32
  0
VERTEX
  8
0
  5
4956
 10
138.239
 20
238.419
 30
0.000000
  70
    32
  0
VERTEX
  8
0
  5
4957
 10
137.937
 20
238.351
 30
0.000000
  70
    32
  0
VERTEX
  8
0
  5
4958
 10
137.639
 20
238.271
 30
0.000000
  70
    32
  0
VERTEX
  8
0
  5
4959
 10
137.343
 20
238.181
 30
0.000000
  70
    32
  0
VERTEX
  8
0
  5
495A
 10
137.051
 20
238.081
 30
0.000000
  70
    32
  0
VERTEX
  8
0
  5
495B
 10
136.763
 20
237.970
 30
0.000000
  70
    32
  0
VERTEX
  8
0
  5
495C
 10
136.479
 20
237.848
 30
0.000000
  70
    32
  0
VERTEX
  8
0
  5
495D
 10
136.199
 20
237.717
 30
0.000000
  70
    32
  0
VERTEX
  8
0
  5
495E
 10
135.925
 20
237.575
 30
0.000000
  70
    32
  0
VERTEX
  8
0
  5
495F
 10
135.655
 20
237.424
 30
0.000000
  70
    32
  0
VERTEX
  8
0
  5
4960
 10
135.392
 20
237.264
 30
0.000000
  70
    32
  0
VERTEX
  8
0
  5
4961
 10
135.134
 20
237.093
 30
0.000000
  70
    32
  0
VERTEX
  8
0
  5
4962
 10
134.882
 20
236.914
 30
0.000000
  70
    32
  0
VERTEX
  8
0
  5
4963
 10
134.637
 20
236.726
 30
0.000000
  70
    32
  0
VERTEX
  8
0
  5
4964
 10
134.399
 20
236.529
 30
0.000000
  70
    32
  0
VERTEX
  8
0
  5
4965
 10
134.168
 20
236.324
 30
0.000000
  70
    32
  0
VERTEX
  8
0
  5
4966
 10
133.945
 20
236.111
 30
0.000000
  70
    32
  0
VERTEX
  8
0
  5
4967
 10
133.729
 20
235.889
 30
0.000000
  70
    32
  0
VERTEX
  8
0
  5
4968
 10
133.522
 20
235.660
 30
0.000000
  70
    32
  0
VERTEX
  8
0
  5
4969
 10
133.323
 20
235.424
 30
0.000000
  70
    32
  0
VERTEX
  8
0
  5
496A
 10
133.132
 20
235.181
 30
0.000000
  70
    32
  0
VERTEX
  8
0
  5
496B
 10
132.951
 20
234.931
 30
0.000000
  70
    32
  0
VERTEX
  8
0
  5
496C
 10
132.778
 20
234.675
 30
0.000000
  70
    32
  0
VERTEX
  8
0
  5
496D
 10
132.615
 20
234.413
 30
0.000000
  70
    32
  0
VERTEX
  8
0
  5
496E
 10
132.461
 20
234.145
 30
0.000000
  70
    32
  0
VERTEX
  8
0
  5
496F
 10
132.317
 20
233.871
 30
0.000000
  70
    32
  0
VERTEX
  8
0
  5
4970
 10
132.183
 20
233.593
 30
0.000000
  70
    32
  0
VERTEX
  8
0
  5
4971
 10
132.059
 20
233.310
 30
0.000000
  70
    32
  0
VERTEX
  8
0
  5
4972
 10
131.945
 20
233.023
 30
0.000000
  70
    32
  0
VERTEX
  8
0
  5
4973
 10
131.842
 20
232.732
 30
0.000000
  70
    32
  0
VERTEX
  8
0
  5
4974
 10
131.749
 20
232.437
 30
0.000000
  70
    32
  0
VERTEX
  8
0
  5
4975
 10
131.667
 20
232.140
 30
0.000000
  70
    32
  0
VERTEX
  8
0
  5
4976
 10
131.595
 20
231.839
 30
0.000000
  70
    32
  0
VERTEX
  8
0
  5
4977
 10
131.534
 20
231.536
 30
0.000000
  70
    32
  0
VERTEX
  8
0
  5
4978
 10
131.485
 20
231.231
 30
0.000000
  70
    32
  0
VERTEX
  8
0
  5
4979
 10
131.446
 20
230.925
 30
0.000000
  70
    32
  0
VERTEX
  8
0
  5
497A
 10
131.418
 20
230.617
 30
0.000000
  70
    32
  0
VERTEX
  8
0
  5
497B
 10
131.401
 20
230.309
 30
0.000000
  70
    32
  0
VERTEX
  8
0
  5
497C
 10
131.396
 20
230.000
 30
0.000000
  70
    32
  0
SEQEND
  8
0
  5
497D
  0
POLYLINE
  5
3F49
  8
0
 10
136.3840763265228
 20
222.19494714107179
 30
0.0
 66
     1
 70
     8
  0
VERTEX
  8
0
  5
497E
 10
136.384
 20
222.195
 30
0.000000
  70
    32
  0
VERTEX
  8
0
  5
497F
 10
136.403
 20
222.186
 30
0.000000
  70
    32
  0
VERTEX
  8
0
  5
4980
 10
136.423
 20
222.177
 30
0.000000
  70
    32
  0
VERTEX
  8
0
  5
4981
 10
136.442
 20
222.168
 30
0.000000
  70
    32
  0
VERTEX
  8
0
  5
4982
 10
136.462
 20
222.159
 30
0.000000
  70
    32
  0
VERTEX
  8
0
  5
4983
 10
136.481
 20
222.151
 30
0.000000
  70
    32
  0
VERTEX
  8
0
  5
4984
 10
136.501
 20
222.142
 30
0.000000
  70
    32
  0
VERTEX
  8
0
  5
4985
 10
136.520
 20
222.133
 30
0.000000
  70
    32
  0
VERTEX
  8
0
  5
4986
 10
136.540
 20
222.125
 30
0.000000
  70
    32
  0
VERTEX
  8
0
  5
4987
 10
136.559
 20
222.116
 30
0.000000
  70
    32
  0
VERTEX
  8
0
  5
4988
 10
136.579
 20
222.108
 30
0.000000
  70
    32
  0
VERTEX
  8
0
  5
4989
 10
136.598
 20
222.099
 30
0.000000
  70
    32
  0
VERTEX
  8
0
  5
498A
 10
136.618
 20
222.091
 30
0.000000
  70
    32
  0
VERTEX
  8
0
  5
498B
 10
136.637
 20
222.083
 30
0.000000
  70
    32
  0
VERTEX
  8
0
  5
498C
 10
136.657
 20
222.074
 30
0.000000
  70
    32
  0
VERTEX
  8
0
  5
498D
 10
136.677
 20
222.066
 30
0.000000
  70
    32
  0
VERTEX
  8
0
  5
498E
 10
136.696
 20
222.058
 30
0.000000
  70
    32
  0
VERTEX
  8
0
  5
498F
 10
136.716
 20
222.050
 30
0.000000
  70
    32
  0
VERTEX
  8
0
  5
4990
 10
136.736
 20
222.041
 30
0.000000
  70
    32
  0
VERTEX
  8
0
  5
4991
 10
136.756
 20
222.033
 30
0.000000
  70
    32
  0
VERTEX
  8
0
  5
4992
 10
136.775
 20
222.025
 30
0.000000
  70
    32
  0
VERTEX
  8
0
  5
4993
 10
136.795
 20
222.017
 30
0.000000
  70
    32
  0
VERTEX
  8
0
  5
4994
 10
136.815
 20
222.009
 30
0.000000
  70
    32
  0
VERTEX
  8
0
  5
4995
 10
136.835
 20
222.002
 30
0.000000
  70
    32
  0
VERTEX
  8
0
  5
4996
 10
136.855
 20
221.994
 30
0.000000
  70
    32
  0
VERTEX
  8
0
  5
4997
 10
136.874
 20
221.986
 30
0.000000
  70
    32
  0
VERTEX
  8
0
  5
4998
 10
136.894
 20
221.978
 30
0.000000
  70
    32
  0
VERTEX
  8
0
  5
4999
 10
136.914
 20
221.971
 30
0.000000
  70
    32
  0
VERTEX
  8
0
  5
499A
 10
136.934
 20
221.963
 30
0.000000
  70
    32
  0
VERTEX
  8
0
  5
499B
 10
136.954
 20
221.955
 30
0.000000
  70
    32
  0
VERTEX
  8
0
  5
499C
 10
136.974
 20
221.948
 30
0.000000
  70
    32
  0
VERTEX
  8
0
  5
499D
 10
136.994
 20
221.940
 30
0.000000
  70
    32
  0
VERTEX
  8
0
  5
499E
 10
137.014
 20
221.933
 30
0.000000
  70
    32
  0
VERTEX
  8
0
  5
499F
 10
137.034
 20
221.926
 30
0.000000
  70
    32
  0
VERTEX
  8
0
  5
49A0
 10
137.054
 20
221.918
 30
0.000000
  70
    32
  0
VERTEX
  8
0
  5
49A1
 10
137.074
 20
221.911
 30
0.000000
  70
    32
  0
VERTEX
  8
0
  5
49A2
 10
137.094
 20
221.904
 30
0.000000
  70
    32
  0
VERTEX
  8
0
  5
49A3
 10
137.114
 20
221.897
 30
0.000000
  70
    32
  0
VERTEX
  8
0
  5
49A4
 10
137.134
 20
221.890
 30
0.000000
  70
    32
  0
VERTEX
  8
0
  5
49A5
 10
137.154
 20
221.882
 30
0.000000
  70
    32
  0
VERTEX
  8
0
  5
49A6
 10
137.175
 20
221.875
 30
0.000000
  70
    32
  0
VERTEX
  8
0
  5
49A7
 10
137.195
 20
221.868
 30
0.000000
  70
    32
  0
VERTEX
  8
0
  5
49A8
 10
137.215
 20
221.861
 30
0.000000
  70
    32
  0
VERTEX
  8
0
  5
49A9
 10
137.235
 20
221.855
 30
0.000000
  70
    32
  0
VERTEX
  8
0
  5
49AA
 10
137.255
 20
221.848
 30
0.000000
  70
    32
  0
VERTEX
  8
0
  5
49AB
 10
137.275
 20
221.841
 30
0.000000
  70
    32
  0
VERTEX
  8
0
  5
49AC
 10
137.296
 20
221.834
 30
0.000000
  70
    32
  0
VERTEX
  8
0
  5
49AD
 10
137.316
 20
221.828
 30
0.000000
  70
    32
  0
VERTEX
  8
0
  5
49AE
 10
137.336
 20
221.821
 30
0.000000
  70
    32
  0
VERTEX
  8
0
  5
49AF
 10
137.357
 20
221.814
 30
0.000000
  70
    32
  0
VERTEX
  8
0
  5
49B0
 10
137.377
 20
221.808
 30
0.000000
  70
    32
  0
VERTEX
  8
0
  5
49B1
 10
137.397
 20
221.801
 30
0.000000
  70
    32
  0
VERTEX
  8
0
  5
49B2
 10
137.417
 20
221.795
 30
0.000000
  70
    32
  0
VERTEX
  8
0
  5
49B3
 10
137.438
 20
221.789
 30
0.000000
  70
    32
  0
VERTEX
  8
0
  5
49B4
 10
137.458
 20
221.782
 30
0.000000
  70
    32
  0
VERTEX
  8
0
  5
49B5
 10
137.479
 20
221.776
 30
0.000000
  70
    32
  0
VERTEX
  8
0
  5
49B6
 10
137.499
 20
221.770
 30
0.000000
  70
    32
  0
VERTEX
  8
0
  5
49B7
 10
137.519
 20
221.764
 30
0.000000
  70
    32
  0
VERTEX
  8
0
  5
49B8
 10
137.540
 20
221.757
 30
0.000000
  70
    32
  0
VERTEX
  8
0
  5
49B9
 10
137.560
 20
221.751
 30
0.000000
  70
    32
  0
VERTEX
  8
0
  5
49BA
 10
137.581
 20
221.745
 30
0.000000
  70
    32
  0
VERTEX
  8
0
  5
49BB
 10
137.601
 20
221.739
 30
0.000000
  70
    32
  0
VERTEX
  8
0
  5
49BC
 10
137.622
 20
221.733
 30
0.000000
  70
    32
  0
VERTEX
  8
0
  5
49BD
 10
137.642
 20
221.728
 30
0.000000
  70
    32
  0
VERTEX
  8
0
  5
49BE
 10
137.663
 20
221.722
 30
0.000000
  70
    32
  0
VERTEX
  8
0
  5
49BF
 10
137.683
 20
221.716
 30
0.000000
  70
    32
  0
VERTEX
  8
0
  5
49C0
 10
137.704
 20
221.710
 30
0.000000
  70
    32
  0
VERTEX
  8
0
  5
49C1
 10
137.724
 20
221.705
 30
0.000000
  70
    32
  0
VERTEX
  8
0
  5
49C2
 10
137.745
 20
221.699
 30
0.000000
  70
    32
  0
VERTEX
  8
0
  5
49C3
 10
137.765
 20
221.693
 30
0.000000
  70
    32
  0
VERTEX
  8
0
  5
49C4
 10
137.786
 20
221.688
 30
0.000000
  70
    32
  0
VERTEX
  8
0
  5
49C5
 10
137.807
 20
221.683
 30
0.000000
  70
    32
  0
VERTEX
  8
0
  5
49C6
 10
137.827
 20
221.677
 30
0.000000
  70
    32
  0
VERTEX
  8
0
  5
49C7
 10
137.848
 20
221.672
 30
0.000000
  70
    32
  0
VERTEX
  8
0
  5
49C8
 10
137.869
 20
221.666
 30
0.000000
  70
    32
  0
VERTEX
  8
0
  5
49C9
 10
137.889
 20
221.661
 30
0.000000
  70
    32
  0
VERTEX
  8
0
  5
49CA
 10
137.910
 20
221.656
 30
0.000000
  70
    32
  0
VERTEX
  8
0
  5
49CB
 10
137.931
 20
221.651
 30
0.000000
  70
    32
  0
VERTEX
  8
0
  5
49CC
 10
137.951
 20
221.646
 30
0.000000
  70
    32
  0
VERTEX
  8
0
  5
49CD
 10
137.972
 20
221.641
 30
0.000000
  70
    32
  0
VERTEX
  8
0
  5
49CE
 10
137.993
 20
221.636
 30
0.000000
  70
    32
  0
VERTEX
  8
0
  5
49CF
 10
138.014
 20
221.631
 30
0.000000
  70
    32
  0
VERTEX
  8
0
  5
49D0
 10
138.034
 20
221.626
 30
0.000000
  70
    32
  0
VERTEX
  8
0
  5
49D1
 10
138.055
 20
221.621
 30
0.000000
  70
    32
  0
VERTEX
  8
0
  5
49D2
 10
138.076
 20
221.616
 30
0.000000
  70
    32
  0
VERTEX
  8
0
  5
49D3
 10
138.097
 20
221.611
 30
0.000000
  70
    32
  0
VERTEX
  8
0
  5
49D4
 10
138.117
 20
221.607
 30
0.000000
  70
    32
  0
VERTEX
  8
0
  5
49D5
 10
138.138
 20
221.602
 30
0.000000
  70
    32
  0
VERTEX
  8
0
  5
49D6
 10
138.159
 20
221.598
 30
0.000000
  70
    32
  0
VERTEX
  8
0
  5
49D7
 10
138.180
 20
221.593
 30
0.000000
  70
    32
  0
VERTEX
  8
0
  5
49D8
 10
138.201
 20
221.588
 30
0.000000
  70
    32
  0
VERTEX
  8
0
  5
49D9
 10
138.222
 20
221.584
 30
0.000000
  70
    32
  0
VERTEX
  8
0
  5
49DA
 10
138.243
 20
221.580
 30
0.000000
  70
    32
  0
VERTEX
  8
0
  5
49DB
 10
138.263
 20
221.575
 30
0.000000
  70
    32
  0
VERTEX
  8
0
  5
49DC
 10
138.284
 20
221.571
 30
0.000000
  70
    32
  0
VERTEX
  8
0
  5
49DD
 10
138.305
 20
221.567
 30
0.000000
  70
    32
  0
VERTEX
  8
0
  5
49DE
 10
138.326
 20
221.563
 30
0.000000
  70
    32
  0
VERTEX
  8
0
  5
49DF
 10
138.347
 20
221.559
 30
0.000000
  70
    32
  0
VERTEX
  8
0
  5
49E0
 10
138.368
 20
221.554
 30
0.000000
  70
    32
  0
VERTEX
  8
0
  5
49E1
 10
138.389
 20
221.550
 30
0.000000
  70
    32
  0
VERTEX
  8
0
  5
49E2
 10
138.410
 20
221.546
 30
0.000000
  70
    32
  0
VERTEX
  8
0
  5
49E3
 10
138.431
 20
221.543
 30
0.000000
  70
    32
  0
VERTEX
  8
0
  5
49E4
 10
138.452
 20
221.539
 30
0.000000
  70
    32
  0
VERTEX
  8
0
  5
49E5
 10
138.473
 20
221.535
 30
0.000000
  70
    32
  0
VERTEX
  8
0
  5
49E6
 10
138.494
 20
221.531
 30
0.000000
  70
    32
  0
VERTEX
  8
0
  5
49E7
 10
138.515
 20
221.527
 30
0.000000
  70
    32
  0
VERTEX
  8
0
  5
49E8
 10
138.536
 20
221.524
 30
0.000000
  70
    32
  0
VERTEX
  8
0
  5
49E9
 10
138.557
 20
221.520
 30
0.000000
  70
    32
  0
VERTEX
  8
0
  5
49EA
 10
138.578
 20
221.517
 30
0.000000
  70
    32
  0
VERTEX
  8
0
  5
49EB
 10
138.599
 20
221.513
 30
0.000000
  70
    32
  0
VERTEX
  8
0
  5
49EC
 10
138.620
 20
221.510
 30
0.000000
  70
    32
  0
VERTEX
  8
0
  5
49ED
 10
138.641
 20
221.506
 30
0.000000
  70
    32
  0
VERTEX
  8
0
  5
49EE
 10
138.662
 20
221.503
 30
0.000000
  70
    32
  0
VERTEX
  8
0
  5
49EF
 10
138.683
 20
221.500
 30
0.000000
  70
    32
  0
VERTEX
  8
0
  5
49F0
 10
138.704
 20
221.496
 30
0.000000
  70
    32
  0
VERTEX
  8
0
  5
49F1
 10
138.725
 20
221.493
 30
0.000000
  70
    32
  0
VERTEX
  8
0
  5
49F2
 10
138.746
 20
221.490
 30
0.000000
  70
    32
  0
VERTEX
  8
0
  5
49F3
 10
138.767
 20
221.487
 30
0.000000
  70
    32
  0
VERTEX
  8
0
  5
49F4
 10
138.789
 20
221.484
 30
0.000000
  70
    32
  0
VERTEX
  8
0
  5
49F5
 10
138.810
 20
221.481
 30
0.000000
  70
    32
  0
VERTEX
  8
0
  5
49F6
 10
138.831
 20
221.478
 30
0.000000
  70
    32
  0
VERTEX
  8
0
  5
49F7
 10
138.852
 20
221.475
 30
0.000000
  70
    32
  0
VERTEX
  8
0
  5
49F8
 10
138.873
 20
221.472
 30
0.000000
  70
    32
  0
VERTEX
  8
0
  5
49F9
 10
138.894
 20
221.470
 30
0.000000
  70
    32
  0
VERTEX
  8
0
  5
49FA
 10
138.915
 20
221.467
 30
0.000000
  70
    32
  0
VERTEX
  8
0
  5
49FB
 10
138.936
 20
221.464
 30
0.000000
  70
    32
  0
VERTEX
  8
0
  5
49FC
 10
138.958
 20
221.462
 30
0.000000
  70
    32
  0
VERTEX
  8
0
  5
49FD
 10
138.979
 20
221.459
 30
0.000000
  70
    32
  0
VERTEX
  8
0
  5
49FE
 10
139.000
 20
221.457
 30
0.000000
  70
    32
  0
SEQEND
  8
0
  5
49FF
  0
POLYLINE
  5
3F4A
  8
0
 10
131.39576401231884
 20
230.00000000003283
 30
0.0
 66
     1
 70
     8
  0
VERTEX
  8
0
  5
4A00
 10
131.396
 20
230.000
 30
0.000000
  70
    32
  0
VERTEX
  8
0
  5
4A01
 10
131.396
 20
229.984
 30
0.000000
  70
    32
  0
VERTEX
  8
0
  5
4A02
 10
131.396
 20
229.967
 30
0.000000
  70
    32
  0
VERTEX
  8
0
  5
4A03
 10
131.396
 20
229.951
 30
0.000000
  70
    32
  0
VERTEX
  8
0
  5
4A04
 10
131.396
 20
229.934
 30
0.000000
  70
    32
  0
VERTEX
  8
0
  5
4A05
 10
131.396
 20
229.918
 30
0.000000
  70
    32
  0
VERTEX
  8
0
  5
4A06
 10
131.396
 20
229.902
 30
0.000000
  70
    32
  0
VERTEX
  8
0
  5
4A07
 10
131.397
 20
229.885
 30
0.000000
  70
    32
  0
VERTEX
  8
0
  5
4A08
 10
131.397
 20
229.869
 30
0.000000
  70
    32
  0
VERTEX
  8
0
  5
4A09
 10
131.397
 20
229.852
 30
0.000000
  70
    32
  0
VERTEX
  8
0
  5
4A0A
 10
131.397
 20
229.836
 30
0.000000
  70
    32
  0
VERTEX
  8
0
  5
4A0B
 10
131.398
 20
229.820
 30
0.000000
  70
    32
  0
VERTEX
  8
0
  5
4A0C
 10
131.398
 20
229.803
 30
0.000000
  70
    32
  0
VERTEX
  8
0
  5
4A0D
 10
131.398
 20
229.787
 30
0.000000
  70
    32
  0
VERTEX
  8
0
  5
4A0E
 10
131.399
 20
229.770
 30
0.000000
  70
    32
  0
VERTEX
  8
0
  5
4A0F
 10
131.399
 20
229.754
 30
0.000000
  70
    32
  0
VERTEX
  8
0
  5
4A10
 10
131.400
 20
229.738
 30
0.000000
  70
    32
  0
VERTEX
  8
0
  5
4A11
 10
131.400
 20
229.721
 30
0.000000
  70
    32
  0
VERTEX
  8
0
  5
4A12
 10
131.401
 20
229.705
 30
0.000000
  70
    32
  0
VERTEX
  8
0
  5
4A13
 10
131.401
 20
229.689
 30
0.000000
  70
    32
  0
VERTEX
  8
0
  5
4A14
 10
131.402
 20
229.672
 30
0.000000
  70
    32
  0
VERTEX
  8
0
  5
4A15
 10
131.403
 20
229.656
 30
0.000000
  70
    32
  0
VERTEX
  8
0
  5
4A16
 10
131.403
 20
229.639
 30
0.000000
  70
    32
  0
VERTEX
  8
0
  5
4A17
 10
131.404
 20
229.623
 30
0.000000
  70
    32
  0
VERTEX
  8
0
  5
4A18
 10
131.405
 20
229.607
 30
0.000000
  70
    32
  0
VERTEX
  8
0
  5
4A19
 10
131.406
 20
229.590
 30
0.000000
  70
    32
  0
VERTEX
  8
0
  5
4A1A
 10
131.406
 20
229.574
 30
0.000000
  70
    32
  0
VERTEX
  8
0
  5
4A1B
 10
131.407
 20
229.558
 30
0.000000
  70
    32
  0
VERTEX
  8
0
  5
4A1C
 10
131.408
 20
229.541
 30
0.000000
  70
    32
  0
VERTEX
  8
0
  5
4A1D
 10
131.409
 20
229.525
 30
0.000000
  70
    32
  0
VERTEX
  8
0
  5
4A1E
 10
131.410
 20
229.508
 30
0.000000
  70
    32
  0
VERTEX
  8
0
  5
4A1F
 10
131.411
 20
229.492
 30
0.000000
  70
    32
  0
VERTEX
  8
0
  5
4A20
 10
131.412
 20
229.476
 30
0.000000
  70
    32
  0
VERTEX
  8
0
  5
4A21
 10
131.413
 20
229.459
 30
0.000000
  70
    32
  0
VERTEX
  8
0
  5
4A22
 10
131.414
 20
229.443
 30
0.000000
  70
    32
  0
VERTEX
  8
0
  5
4A23
 10
131.415
 20
229.427
 30
0.000000
  70
    32
  0
VERTEX
  8
0
  5
4A24
 10
131.416
 20
229.410
 30
0.000000
  70
    32
  0
VERTEX
  8
0
  5
4A25
 10
131.417
 20
229.394
 30
0.000000
  70
    32
  0
VERTEX
  8
0
  5
4A26
 10
131.418
 20
229.378
 30
0.000000
  70
    32
  0
VERTEX
  8
0
  5
4A27
 10
131.420
 20
229.361
 30
0.000000
  70
    32
  0
VERTEX
  8
0
  5
4A28
 10
131.421
 20
229.345
 30
0.000000
  70
    32
  0
VERTEX
  8
0
  5
4A29
 10
131.422
 20
229.328
 30
0.000000
  70
    32
  0
VERTEX
  8
0
  5
4A2A
 10
131.424
 20
229.312
 30
0.000000
  70
    32
  0
VERTEX
  8
0
  5
4A2B
 10
131.425
 20
229.296
 30
0.000000
  70
    32
  0
VERTEX
  8
0
  5
4A2C
 10
131.426
 20
229.279
 30
0.000000
  70
    32
  0
VERTEX
  8
0
  5
4A2D
 10
131.428
 20
229.263
 30
0.000000
  70
    32
  0
VERTEX
  8
0
  5
4A2E
 10
131.429
 20
229.247
 30
0.000000
  70
    32
  0
VERTEX
  8
0
  5
4A2F
 10
131.430
 20
229.230
 30
0.000000
  70
    32
  0
VERTEX
  8
0
  5
4A30
 10
131.432
 20
229.214
 30
0.000000
  70
    32
  0
VERTEX
  8
0
  5
4A31
 10
131.433
 20
229.198
 30
0.000000
  70
    32
  0
VERTEX
  8
0
  5
4A32
 10
131.435
 20
229.181
 30
0.000000
  70
    32
  0
VERTEX
  8
0
  5
4A33
 10
131.437
 20
229.165
 30
0.000000
  70
    32
  0
VERTEX
  8
0
  5
4A34
 10
131.438
 20
229.149
 30
0.000000
  70
    32
  0
VERTEX
  8
0
  5
4A35
 10
131.440
 20
229.133
 30
0.000000
  70
    32
  0
VERTEX
  8
0
  5
4A36
 10
131.442
 20
229.116
 30
0.000000
  70
    32
  0
VERTEX
  8
0
  5
4A37
 10
131.443
 20
229.100
 30
0.000000
  70
    32
  0
VERTEX
  8
0
  5
4A38
 10
131.445
 20
229.084
 30
0.000000
  70
    32
  0
VERTEX
  8
0
  5
4A39
 10
131.447
 20
229.067
 30
0.000000
  70
    32
  0
VERTEX
  8
0
  5
4A3A
 10
131.449
 20
229.051
 30
0.000000
  70
    32
  0
VERTEX
  8
0
  5
4A3B
 10
131.450
 20
229.035
 30
0.000000
  70
    32
  0
VERTEX
  8
0
  5
4A3C
 10
131.452
 20
229.018
 30
0.000000
  70
    32
  0
VERTEX
  8
0
  5
4A3D
 10
131.454
 20
229.002
 30
0.000000
  70
    32
  0
VERTEX
  8
0
  5
4A3E
 10
131.456
 20
228.986
 30
0.000000
  70
    32
  0
VERTEX
  8
0
  5
4A3F
 10
131.458
 20
228.970
 30
0.000000
  70
    32
  0
VERTEX
  8
0
  5
4A40
 10
131.460
 20
228.953
 30
0.000000
  70
    32
  0
VERTEX
  8
0
  5
4A41
 10
131.462
 20
228.937
 30
0.000000
  70
    32
  0
VERTEX
  8
0
  5
4A42
 10
131.464
 20
228.921
 30
0.000000
  70
    32
  0
VERTEX
  8
0
  5
4A43
 10
131.466
 20
228.904
 30
0.000000
  70
    32
  0
VERTEX
  8
0
  5
4A44
 10
131.468
 20
228.888
 30
0.000000
  70
    32
  0
VERTEX
  8
0
  5
4A45
 10
131.470
 20
228.872
 30
0.000000
  70
    32
  0
VERTEX
  8
0
  5
4A46
 10
131.473
 20
228.856
 30
0.000000
  70
    32
  0
VERTEX
  8
0
  5
4A47
 10
131.475
 20
228.839
 30
0.000000
  70
    32
  0
VERTEX
  8
0
  5
4A48
 10
131.477
 20
228.823
 30
0.000000
  70
    32
  0
VERTEX
  8
0
  5
4A49
 10
131.479
 20
228.807
 30
0.000000
  70
    32
  0
VERTEX
  8
0
  5
4A4A
 10
131.482
 20
228.791
 30
0.000000
  70
    32
  0
VERTEX
  8
0
  5
4A4B
 10
131.484
 20
228.775
 30
0.000000
  70
    32
  0
VERTEX
  8
0
  5
4A4C
 10
131.486
 20
228.758
 30
0.000000
  70
    32
  0
VERTEX
  8
0
  5
4A4D
 10
131.489
 20
228.742
 30
0.000000
  70
    32
  0
VERTEX
  8
0
  5
4A4E
 10
131.491
 20
228.726
 30
0.000000
  70
    32
  0
VERTEX
  8
0
  5
4A4F
 10
131.493
 20
228.710
 30
0.000000
  70
    32
  0
VERTEX
  8
0
  5
4A50
 10
131.496
 20
228.693
 30
0.000000
  70
    32
  0
VERTEX
  8
0
  5
4A51
 10
131.498
 20
228.677
 30
0.000000
  70
    32
  0
VERTEX
  8
0
  5
4A52
 10
131.501
 20
228.661
 30
0.000000
  70
    32
  0
VERTEX
  8
0
  5
4A53
 10
131.504
 20
228.645
 30
0.000000
  70
    32
  0
VERTEX
  8
0
  5
4A54
 10
131.506
 20
228.629
 30
0.000000
  70
    32
  0
VERTEX
  8
0
  5
4A55
 10
131.509
 20
228.612
 30
0.000000
  70
    32
  0
VERTEX
  8
0
  5
4A56
 10
131.511
 20
228.596
 30
0.000000
  70
    32
  0
VERTEX
  8
0
  5
4A57
 10
131.514
 20
228.580
 30
0.000000
  70
    32
  0
VERTEX
  8
0
  5
4A58
 10
131.517
 20
228.564
 30
0.000000
  70
    32
  0
VERTEX
  8
0
  5
4A59
 10
131.520
 20
228.548
 30
0.000000
  70
    32
  0
VERTEX
  8
0
  5
4A5A
 10
131.522
 20
228.532
 30
0.000000
  70
    32
  0
VERTEX
  8
0
  5
4A5B
 10
131.525
 20
228.515
 30
0.000000
  70
    32
  0
VERTEX
  8
0
  5
4A5C
 10
131.528
 20
228.499
 30
0.000000
  70
    32
  0
VERTEX
  8
0
  5
4A5D
 10
131.531
 20
228.483
 30
0.000000
  70
    32
  0
VERTEX
  8
0
  5
4A5E
 10
131.534
 20
228.467
 30
0.000000
  70
    32
  0
VERTEX
  8
0
  5
4A5F
 10
131.537
 20
228.451
 30
0.000000
  70
    32
  0
VERTEX
  8
0
  5
4A60
 10
131.540
 20
228.435
 30
0.000000
  70
    32
  0
VERTEX
  8
0
  5
4A61
 10
131.543
 20
228.419
 30
0.000000
  70
    32
  0
VERTEX
  8
0
  5
4A62
 10
131.546
 20
228.403
 30
0.000000
  70
    32
  0
VERTEX
  8
0
  5
4A63
 10
131.549
 20
228.386
 30
0.000000
  70
    32
  0
VERTEX
  8
0
  5
4A64
 10
131.552
 20
228.370
 30
0.000000
  70
    32
  0
VERTEX
  8
0
  5
4A65
 10
131.555
 20
228.354
 30
0.000000
  70
    32
  0
VERTEX
  8
0
  5
4A66
 10
131.558
 20
228.338
 30
0.000000
  70
    32
  0
VERTEX
  8
0
  5
4A67
 10
131.561
 20
228.322
 30
0.000000
  70
    32
  0
VERTEX
  8
0
  5
4A68
 10
131.565
 20
228.306
 30
0.000000
  70
    32
  0
VERTEX
  8
0
  5
4A69
 10
131.568
 20
228.290
 30
0.000000
  70
    32
  0
VERTEX
  8
0
  5
4A6A
 10
131.571
 20
228.274
 30
0.000000
  70
    32
  0
VERTEX
  8
0
  5
4A6B
 10
131.575
 20
228.258
 30
0.000000
  70
    32
  0
VERTEX
  8
0
  5
4A6C
 10
131.578
 20
228.242
 30
0.000000
  70
    32
  0
VERTEX
  8
0
  5
4A6D
 10
131.581
 20
228.226
 30
0.000000
  70
    32
  0
VERTEX
  8
0
  5
4A6E
 10
131.585
 20
228.210
 30
0.000000
  70
    32
  0
VERTEX
  8
0
  5
4A6F
 10
131.588
 20
228.194
 30
0.000000
  70
    32
  0
VERTEX
  8
0
  5
4A70
 10
131.592
 20
228.178
 30
0.000000
  70
    32
  0
VERTEX
  8
0
  5
4A71
 10
131.595
 20
228.162
 30
0.000000
  70
    32
  0
VERTEX
  8
0
  5
4A72
 10
131.599
 20
228.146
 30
0.000000
  70
    32
  0
VERTEX
  8
0
  5
4A73
 10
131.602
 20
228.130
 30
0.000000
  70
    32
  0
VERTEX
  8
0
  5
4A74
 10
131.606
 20
228.114
 30
0.000000
  70
    32
  0
VERTEX
  8
0
  5
4A75
 10
131.609
 20
228.098
 30
0.000000
  70
    32
  0
VERTEX
  8
0
  5
4A76
 10
131.613
 20
228.082
 30
0.000000
  70
    32
  0
VERTEX
  8
0
  5
4A77
 10
131.617
 20
228.066
 30
0.000000
  70
    32
  0
VERTEX
  8
0
  5
4A78
 10
131.620
 20
228.050
 30
0.000000
  70
    32
  0
VERTEX
  8
0
  5
4A79
 10
131.624
 20
228.034
 30
0.000000
  70
    32
  0
VERTEX
  8
0
  5
4A7A
 10
131.628
 20
228.018
 30
0.000000
  70
    32
  0
VERTEX
  8
0
  5
4A7B
 10
131.632
 20
228.002
 30
0.000000
  70
    32
  0
VERTEX
  8
0
  5
4A7C
 10
131.635
 20
227.986
 30
0.000000
  70
    32
  0
VERTEX
  8
0
  5
4A7D
 10
131.639
 20
227.970
 30
0.000000
  70
    32
  0
VERTEX
  8
0
  5
4A7E
 10
131.643
 20
227.954
 30
0.000000
  70
    32
  0
VERTEX
  8
0
  5
4A7F
 10
131.647
 20
227.938
 30
0.000000
  70
    32
  0
VERTEX
  8
0
  5
4A80
 10
131.651
 20
227.922
 30
0.000000
  70
    32
  0
SEQEND
  8
0
  5
4A81
  0
LINE
  5
3F4B
  8
0
 10
130.9115937082251
 20
220.94766356049999
 30
0.0
 11
139.0000000000251
 21
220.94766356049999
 31
0.0
  0
LINE
  5
3F4C
  8
2
 10
59.999999776525101
 20
135.8534629701297
 30
0.0
 11
54.000000000025011
 21
135.85346297012961
 31
0.0
  0
LINE
  5
3F4D
  8
2
 10
46.000000000025011
 20
135.85346297012961
 30
0.0
 11
40.000000223525028
 21
135.85346297012961
 31
0.0
  0
LINE
  5
3F4E
  8
2
 10
59.999999776525101
 20
114.6706134021703
 30
0.0
 11
54.000000000025011
 21
114.6706134021703
 31
0.0
  0
LINE
  5
3F4F
  8
2
 10
46.000000000025011
 20
114.6706134021703
 30
0.0
 11
40.000000223525028
 21
114.6706134021703
 31
0.0
  0
LINE
  5
3F50
  8
2
 10
46.000000000025011
 20
114.6706134021703
 30
0.0
 11
46.000000000025011
 21
135.8534629701297
 31
0.0
  0
LINE
  5
3F51
  8
2
 10
54.000000000025011
 20
114.6706134021703
 30
0.0
 11
54.000000000025011
 21
135.8534629701297
 31
0.0
  0
LINE
  5
3F52
  8
2
 10
52.500000223525028
 20
139.5365888354321
 30
0.0
 11
40.000000223525028
 21
139.5365888354321
 31
0.0
  0
LINE
  5
3F53
  8
2
 10
52.500000223525028
 20
144.9874875368678
 30
0.0
 11
40.000000223525028
 21
144.9874875368678
 31
0.0
  0
LINE
  5
3F54
  8
2
 10
59.999999776525101
 20
147.3534629701297
 30
0.0
 11
52.500000223525028
 21
147.3534629701297
 31
0.0
  0
LINE
  5
3F55
  8
2
 10
59.999999776525101
 20
137.17061340217029
 30
0.0
 11
52.500000223525028
 21
137.17061340217029
 31
0.0
  0
LINE
  5
3F56
  8
2
 10
52.500000223525028
 20
147.3534629701297
 30
0.0
 11
52.500000223525028
 21
137.17061340217029
 31
0.0
  0
LINE
  5
3F57
  8
1
 10
38.000000223525042
 20
142.26203818614999
 30
0.0
 11
61.999999776525101
 21
142.26203818614999
 31
0.0
  0
LINE
  5
3F58
  8
1
 10
38.000000223525042
 20
125.26203818614999
 30
0.0
 11
61.999999776525101
 21
125.26203818614999
 31
0.0
  0
LINE
  5
3F59
  8
1
 10
135.0000000000249
 20
155.26203818614999
 30
0.0
 11
145.0000000000249
 21
155.26203818614999
 31
0.0
  0
LINE
  5
3F5A
  8
1
 10
127.40857521604531
 20
125.26203818614999
 30
0.0
 11
152.5914247840046
 21
125.26203818614999
 31
0.0
  0
LINE
  5
3F5B
  8
1
 10
115.90857521604519
 20
142.26203818614999
 30
0.0
 11
130.0914247840046
 21
142.26203818614999
 31
0.0
  0
LINE
  5
3F5C
  8
1
 10
149.90857521604531
 20
142.26203818614999
 30
0.0
 11
164.0914247840046
 21
142.26203818614999
 31
0.0
  0
LINE
  5
3F5D
  8
1
 10
157.00000000002501
 20
149.35346297012961
 30
0.0
 11
157.00000000002501
 21
135.17061340217029
 31
0.0
  0
LINE
  5
3F5E
  8
1
 10
123.000000000025
 20
149.35346297012961
 30
0.0
 11
123.000000000025
 21
135.17061340217029
 31
0.0
  0
LINE
  5
3F5F
  8
2
 10
220.00000022352489
 20
135.8534629701297
 30
0.0
 11
226.0000000000249
 21
135.85346297012961
 31
0.0
  0
LINE
  5
3F60
  8
2
 10
234.0000000000249
 20
135.85346297012961
 30
0.0
 11
239.99999977652499
 21
135.85346297012961
 31
0.0
  0
LINE
  5
3F61
  8
2
 10
220.00000022352489
 20
114.6706134021703
 30
0.0
 11
226.0000000000249
 21
114.6706134021703
 31
0.0
  0
LINE
  5
3F62
  8
2
 10
234.0000000000249
 20
114.6706134021703
 30
0.0
 11
239.99999977652499
 21
114.6706134021703
 31
0.0
  0
LINE
  5
3F63
  8
2
 10
234.0000000000249
 20
114.6706134021703
 30
0.0
 11
234.0000000000249
 21
135.8534629701297
 31
0.0
  0
LINE
  5
3F64
  8
2
 10
226.0000000000249
 20
114.6706134021703
 30
0.0
 11
226.0000000000249
 21
135.8534629701297
 31
0.0
  0
LINE
  5
3F65
  8
2
 10
227.49999977652499
 20
139.5365888354321
 30
0.0
 11
239.99999977652499
 21
139.5365888354321
 31
0.0
  0
LINE
  5
3F66
  8
2
 10
227.49999977652499
 20
144.9874875368678
 30
0.0
 11
239.99999977652499
 21
144.9874875368678
 31
0.0
  0
LINE
  5
3F67
  8
2
 10
220.00000022352489
 20
147.3534629701297
 30
0.0
 11
227.49999977652499
 21
147.3534629701297
 31
0.0
  0
LINE
  5
3F68
  8
2
 10
220.00000022352489
 20
137.17061340217029
 30
0.0
 11
227.49999977652499
 21
137.17061340217029
 31
0.0
  0
LINE
  5
3F69
  8
2
 10
227.49999977652499
 20
147.3534629701297
 30
0.0
 11
227.49999977652499
 21
137.17061340217029
 31
0.0
  0
LINE
  5
3F6A
  8
1
 10
241.99999977652499
 20
142.26203818614999
 30
0.0
 11
218.00000022352489
 21
142.26203818614999
 31
0.0
  0
LINE
  5
3F6B
  8
1
 10
241.99999977652499
 20
125.26203818614999
 30
0.0
 11
218.00000022352489
 21
125.26203818614999
 31
0.0
  0
CIRCLE
  5
3F6C
  8
0
 10
140.0000000000249
 20
155.26203818614999
 30
0.0
 40
3.0
  0
ARC
  5
3F6D
  8
5
 10
109.500000000025
 20
65.224756257085744
 30
0.0
 40
40.024832484019853
 50
352.49932531529271
 51
11.80676796561916
  0
ARC
  5
3F6E
  8
5
 10
135.1193411396188
 20
65.220617527434527
 30
0.0
 40
9.9751675159801678
 50
328.4420018636896
 51
12.78007135607743
  0
ARC
  5
3F6F
  8
5
 10
159.50000000002501
 20
70.750850210830507
 30
0.0
 40
15.024832484019861
 50
170.03703828726549
 51
192.78007135607791
  0
ARC
  5
3F70
  8
5
 10
146.6960425951489
 20
72.999999999999744
 30
0.0
 40
2.024832484019857
 50
11.80676796561916
 51
170.03703828726549
  0
ARC
  5
3F71
  8
5
 10
74.525517716667466
 20
171.26203818619189
 30
0.0
 40
0.5000000000000121
 50
270.0
 51
2.999999999999162
  0
LINE
  5
3F72
  8
5
 10
75.024833157683474
 20
171.28820471465519
 30
0.0
 11
74.420771747852427
 21
182.81437583267621
 31
0.0
  0
ARC
  5
3F73
  8
5
 10
73.422142081913535
 20
182.76203818619189
 30
0.0
 40
1.0
 50
3.0000000000007638
 51
90.0
  0
POLYLINE
  5
3F74
  8
5
 66
     1
 10
0.0
 20
0.0
 30
0.0
 70
   128
  0
VERTEX
  5
44D0
  8
5
 10
66.315415501619441
 20
182.81437583267621
 30
0.0
  0
VERTEX
  5
44D1
  8
5
 10
64.451167546237571
 20
182.0716945081943
 30
0.0
  0
VERTEX
  5
44D2
  8
5
 10
62.613783590520491
 20
181.33925400674281
 30
0.0
  0
VERTEX
  5
44D3
  8
5
 10
60.804789140845401
 20
180.6176727265113
 30
0.0
  0
VERTEX
  5
44D4
  8
5
 10
59.094370529080493
 20
179.93498720228609
 30
0.0
  0
SEQEND
  5
44D5
  8
5
  0
POLYLINE
  5
3F75
  8
5
 66
     1
 10
0.0
 20
0.0
 30
0.0
 70
   128
  0
VERTEX
  5
44D6
  8
5
 10
59.009081398697099
 20
181.12931494527959
 30
0.0
  0
VERTEX
  5
44D7
  8
5
 10
59.163242764795882
 20
181.18542559444839
 30
0.0
  0
VERTEX
  5
44D8
  8
5
 10
60.224928148115737
 20
181.57184623181749
 30
0.0
  0
VERTEX
  5
44D9
  8
5
 10
61.339277960384948
 20
181.97743721306259
 30
0.0
  0
VERTEX
  5
44DA
  8
5
 10
62.494251132036311
 20
182.3978101462119
 30
0.0
  0
VERTEX
  5
44DB
  8
5
 10
63.677368871892561
 20
182.8284313529723
 30
0.0
  0
VERTEX
  5
44DC
  8
5
 10
64.875847846294505
 20
183.2646404951804
 30
0.0
  0
VERTEX
  5
44DD
  8
5
 10
66.076739877487285
 20
183.70173253118929
 30
0.0
  0
SEQEND
  5
44DE
  8
5
  0
LINE
  5
3F76
  8
5
 10
59.094370529080493
 20
179.93498720228609
 30
0.0
 11
59.072061940224557
 21
179.92757462376611
 31
0.0
  0
LINE
  5
3F77
  8
5
 10
74.420771747852427
 20
182.81437583267621
 30
0.0
 11
66.315415501619441
 21
182.81437583267621
 31
0.0
  0
LINE
  5
3F78
  8
5
 10
67.427217215324504
 20
171.28820471465519
 30
0.0
 11
67.560841515685183
 21
182.81437583267621
 31
0.0
  0
LINE
  5
3F79
  8
5
 10
59.52483213155881
 20
171.28820471465531
 30
0.0
 11
75.024832560016023
 21
171.28820471465519
 31
0.0
  0
ARC
  5
3F7A
  8
5
 10
68.11296588022941
 20
171.15748010976071
 30
0.0
 40
0.6980975245219731
 50
169.20717111307761
 51
214.50359082744581
  0
LINE
  5
3F7B
  8
5
 10
74.525517716667466
 20
170.76203818619189
 30
0.0
 11
59.025612118568802
 21
170.76203727133361
 31
0.0
  0
ARC
  5
3F7C
  8
5
 10
72.513689767833213
 20
171.15538938080141
 30
0.0
 40
0.8471057828559307
 50
332.33194759756572
 51
9.0204620456458233
  0
LINE
  5
3F7D
  8
5
 10
73.350318893815142
 20
171.28820471465519
 30
0.0
 11
73.245809599782092
 21
182.81437583267621
 31
0.0
  0
ARC
  5
3F7E
  8
5
 10
71.769411737849566
 20
183.03478615835741
 30
0.0
 40
1.4927596452161609
 50
351.50906555270461
 51
29.15578268631516
  0
ARC
  5
3F7F
  8
5
 10
68.781340731730253
 20
183.029447823498
 30
0.0
 40
1.2393039569059521
 50
143.76276485442801
 51
189.99385570522961
  0
LINE
  5
3F80
  8
5
 10
66.418758779789073
 20
183.76203753054079
 30
0.0
 11
73.423287202763731
 21
183.76203753054079
 31
0.0
  0
ARC
  5
3F81
  8
5
 10
66.418759239097199
 20
182.76203818619189
 30
0.0
 40
1.0
 50
90.0
 51
110.0
  0
ARC
  5
3F82
  8
5
 10
150.650704202025
 20
227.25
 30
0.0
 40
2.974482283357446
 50
165.5224878141014
 51
196.8645782343965
  0
ARC
  5
3F83
  8
5
 10
109.500000000025
 20
214.7752437429001
 30
0.0
 40
40.025517716642561
 50
348.19323203440172
 51
16.864578234396578
  0
ARC
  5
3F84
  8
5
 10
140.68750000002501
 20
219.0215053969001
 30
0.0
 40
2.974482283357446
 50
37.302100369998328
 51
83.96935930900095
  0
ARC
  5
3F85
  8
5
 10
135.11934113962499
 20
214.77938247259999
 30
0.0
 40
9.9744822833574354
 50
347.21992864389608
 51
37.302100369998328
  0
ARC
  5
3F86
  8
5
 10
159.50000000002501
 20
209.2491497892
 30
0.0
 40
15.025517716642581
 50
167.2199286439029
 51
189.96296171270001
  0
ARC
  5
3F87
  8
5
 10
146.69604259513849
 20
207.0000000000077
 30
0.0
 40
2.0255177166572209
 50
189.96296171284911
 51
348.19323203418872
  0
ARC
  5
3F88
  8
5
 10
159.50000000002501
 20
209.2491497892
 30
0.0
 40
13.422142081888641
 50
167.2199286439029
 51
189.96296171270001
  0
ARC
  5
3F89
  8
5
 10
135.11934113962499
 20
214.77938247259999
 30
0.0
 40
11.57785791811137
 50
347.21992864389608
 51
354.06007680529967
  0
ARC
  5
3F8A
  8
5
 10
109.500000000025
 20
214.7752437429001
 30
0.0
 40
38.42214208188863
 50
348.19323203440172
 51
358.21919488049929
  0
ARC
  5
3F8B
  8
5
 10
146.69604259512499
 20
207.0
 30
0.0
 40
0.4221420818886323
 50
189.96296171270001
 51
348.19323203440172
  0
LINE
  5
3F8C
  8
5
 10
146.63503696792509
 20
213.92326090430001
 30
0.0
 11
146.63503696792509
 21
213.58124076089999
 31
0.0
  0
LINE
  5
3F8D
  8
5
 10
147.90358523682499
 20
213.58124076089999
 30
0.0
 11
147.90358523682499
 21
213.92326090430001
 31
0.0
  0
POLYLINE
  5
3F8E
  8
5
 10
147.90358523746136
 20
213.92326090423407
 30
0.0
 66
     1
 70
     8
  0
VERTEX
  8
5
  5
4A82
 10
147.904
 20
213.923
 30
0.000000
  70
    32
  0
VERTEX
  8
5
  5
4A83
 10
147.907
 20
213.985
 30
0.000000
  70
    32
  0
VERTEX
  8
5
  5
4A84
 10
147.910
 20
214.047
 30
0.000000
  70
    32
  0
VERTEX
  8
5
  5
4A85
 10
147.912
 20
214.109
 30
0.000000
  70
    32
  0
VERTEX
  8
5
  5
4A86
 10
147.915
 20
214.171
 30
0.000000
  70
    32
  0
VERTEX
  8
5
  5
4A87
 10
147.918
 20
214.233
 30
0.000000
  70
    32
  0
VERTEX
  8
5
  5
4A88
 10
147.920
 20
214.295
 30
0.000000
  70
    32
  0
VERTEX
  8
5
  5
4A89
 10
147.923
 20
214.357
 30
0.000000
  70
    32
  0
VERTEX
  8
5
  5
4A8A
 10
147.925
 20
214.419
 30
0.000000
  70
    32
  0
VERTEX
  8
5
  5
4A8B
 10
147.928
 20
214.481
 30
0.000000
  70
    32
  0
VERTEX
  8
5
  5
4A8C
 10
147.930
 20
214.543
 30
0.000000
  70
    32
  0
VERTEX
  8
5
  5
4A8D
 10
147.932
 20
214.605
 30
0.000000
  70
    32
  0
VERTEX
  8
5
  5
4A8E
 10
147.934
 20
214.667
 30
0.000000
  70
    32
  0
VERTEX
  8
5
  5
4A8F
 10
147.936
 20
214.729
 30
0.000000
  70
    32
  0
VERTEX
  8
5
  5
4A90
 10
147.937
 20
214.791
 30
0.000000
  70
    32
  0
VERTEX
  8
5
  5
4A91
 10
147.939
 20
214.853
 30
0.000000
  70
    32
  0
VERTEX
  8
5
  5
4A92
 10
147.941
 20
214.915
 30
0.000000
  70
    32
  0
VERTEX
  8
5
  5
4A93
 10
147.942
 20
214.977
 30
0.000000
  70
    32
  0
VERTEX
  8
5
  5
4A94
 10
147.943
 20
215.039
 30
0.000000
  70
    32
  0
VERTEX
  8
5
  5
4A95
 10
147.945
 20
215.101
 30
0.000000
  70
    32
  0
VERTEX
  8
5
  5
4A96
 10
147.946
 20
215.163
 30
0.000000
  70
    32
  0
VERTEX
  8
5
  5
4A97
 10
147.947
 20
215.225
 30
0.000000
  70
    32
  0
VERTEX
  8
5
  5
4A98
 10
147.948
 20
215.287
 30
0.000000
  70
    32
  0
VERTEX
  8
5
  5
4A99
 10
147.949
 20
215.349
 30
0.000000
  70
    32
  0
VERTEX
  8
5
  5
4A9A
 10
147.949
 20
215.411
 30
0.000000
  70
    32
  0
VERTEX
  8
5
  5
4A9B
 10
147.950
 20
215.473
 30
0.000000
  70
    32
  0
VERTEX
  8
5
  5
4A9C
 10
147.951
 20
215.535
 30
0.000000
  70
    32
  0
VERTEX
  8
5
  5
4A9D
 10
147.951
 20
215.597
 30
0.000000
  70
    32
  0
VERTEX
  8
5
  5
4A9E
 10
147.951
 20
215.659
 30
0.000000
  70
    32
  0
VERTEX
  8
5
  5
4A9F
 10
147.952
 20
215.721
 30
0.000000
  70
    32
  0
VERTEX
  8
5
  5
4AA0
 10
147.952
 20
215.783
 30
0.000000
  70
    32
  0
VERTEX
  8
5
  5
4AA1
 10
147.952
 20
215.845
 30
0.000000
  70
    32
  0
VERTEX
  8
5
  5
4AA2
 10
147.952
 20
215.907
 30
0.000000
  70
    32
  0
VERTEX
  8
5
  5
4AA3
 10
147.952
 20
215.969
 30
0.000000
  70
    32
  0
VERTEX
  8
5
  5
4AA4
 10
147.951
 20
216.031
 30
0.000000
  70
    32
  0
VERTEX
  8
5
  5
4AA5
 10
147.951
 20
216.093
 30
0.000000
  70
    32
  0
VERTEX
  8
5
  5
4AA6
 10
147.951
 20
216.155
 30
0.000000
  70
    32
  0
VERTEX
  8
5
  5
4AA7
 10
147.950
 20
216.217
 30
0.000000
  70
    32
  0
VERTEX
  8
5
  5
4AA8
 10
147.950
 20
216.279
 30
0.000000
  70
    32
  0
VERTEX
  8
5
  5
4AA9
 10
147.949
 20
216.341
 30
0.000000
  70
    32
  0
VERTEX
  8
5
  5
4AAA
 10
147.948
 20
216.403
 30
0.000000
  70
    32
  0
VERTEX
  8
5
  5
4AAB
 10
147.947
 20
216.465
 30
0.000000
  70
    32
  0
VERTEX
  8
5
  5
4AAC
 10
147.946
 20
216.527
 30
0.000000
  70
    32
  0
VERTEX
  8
5
  5
4AAD
 10
147.945
 20
216.588
 30
0.000000
  70
    32
  0
VERTEX
  8
5
  5
4AAE
 10
147.944
 20
216.650
 30
0.000000
  70
    32
  0
VERTEX
  8
5
  5
4AAF
 10
147.942
 20
216.712
 30
0.000000
  70
    32
  0
VERTEX
  8
5
  5
4AB0
 10
147.941
 20
216.774
 30
0.000000
  70
    32
  0
VERTEX
  8
5
  5
4AB1
 10
147.939
 20
216.836
 30
0.000000
  70
    32
  0
VERTEX
  8
5
  5
4AB2
 10
147.938
 20
216.898
 30
0.000000
  70
    32
  0
VERTEX
  8
5
  5
4AB3
 10
147.936
 20
216.960
 30
0.000000
  70
    32
  0
VERTEX
  8
5
  5
4AB4
 10
147.934
 20
217.022
 30
0.000000
  70
    32
  0
VERTEX
  8
5
  5
4AB5
 10
147.932
 20
217.084
 30
0.000000
  70
    32
  0
VERTEX
  8
5
  5
4AB6
 10
147.930
 20
217.146
 30
0.000000
  70
    32
  0
VERTEX
  8
5
  5
4AB7
 10
147.928
 20
217.208
 30
0.000000
  70
    32
  0
VERTEX
  8
5
  5
4AB8
 10
147.926
 20
217.270
 30
0.000000
  70
    32
  0
VERTEX
  8
5
  5
4AB9
 10
147.923
 20
217.332
 30
0.000000
  70
    32
  0
VERTEX
  8
5
  5
4ABA
 10
147.921
 20
217.394
 30
0.000000
  70
    32
  0
VERTEX
  8
5
  5
4ABB
 10
147.918
 20
217.456
 30
0.000000
  70
    32
  0
VERTEX
  8
5
  5
4ABC
 10
147.916
 20
217.518
 30
0.000000
  70
    32
  0
VERTEX
  8
5
  5
4ABD
 10
147.913
 20
217.580
 30
0.000000
  70
    32
  0
VERTEX
  8
5
  5
4ABE
 10
147.910
 20
217.642
 30
0.000000
  70
    32
  0
VERTEX
  8
5
  5
4ABF
 10
147.907
 20
217.704
 30
0.000000
  70
    32
  0
VERTEX
  8
5
  5
4AC0
 10
147.904
 20
217.766
 30
0.000000
  70
    32
  0
VERTEX
  8
5
  5
4AC1
 10
147.901
 20
217.828
 30
0.000000
  70
    32
  0
VERTEX
  8
5
  5
4AC2
 10
147.898
 20
217.890
 30
0.000000
  70
    32
  0
VERTEX
  8
5
  5
4AC3
 10
147.895
 20
217.952
 30
0.000000
  70
    32
  0
VERTEX
  8
5
  5
4AC4
 10
147.891
 20
218.013
 30
0.000000
  70
    32
  0
VERTEX
  8
5
  5
4AC5
 10
147.888
 20
218.075
 30
0.000000
  70
    32
  0
VERTEX
  8
5
  5
4AC6
 10
147.884
 20
218.137
 30
0.000000
  70
    32
  0
VERTEX
  8
5
  5
4AC7
 10
147.880
 20
218.199
 30
0.000000
  70
    32
  0
VERTEX
  8
5
  5
4AC8
 10
147.876
 20
218.261
 30
0.000000
  70
    32
  0
VERTEX
  8
5
  5
4AC9
 10
147.872
 20
218.323
 30
0.000000
  70
    32
  0
VERTEX
  8
5
  5
4ACA
 10
147.868
 20
218.385
 30
0.000000
  70
    32
  0
VERTEX
  8
5
  5
4ACB
 10
147.864
 20
218.447
 30
0.000000
  70
    32
  0
VERTEX
  8
5
  5
4ACC
 10
147.860
 20
218.508
 30
0.000000
  70
    32
  0
VERTEX
  8
5
  5
4ACD
 10
147.856
 20
218.570
 30
0.000000
  70
    32
  0
VERTEX
  8
5
  5
4ACE
 10
147.851
 20
218.632
 30
0.000000
  70
    32
  0
VERTEX
  8
5
  5
4ACF
 10
147.847
 20
218.694
 30
0.000000
  70
    32
  0
VERTEX
  8
5
  5
4AD0
 10
147.842
 20
218.756
 30
0.000000
  70
    32
  0
VERTEX
  8
5
  5
4AD1
 10
147.837
 20
218.818
 30
0.000000
  70
    32
  0
VERTEX
  8
5
  5
4AD2
 10
147.832
 20
218.879
 30
0.000000
  70
    32
  0
VERTEX
  8
5
  5
4AD3
 10
147.828
 20
218.941
 30
0.000000
  70
    32
  0
VERTEX
  8
5
  5
4AD4
 10
147.823
 20
219.003
 30
0.000000
  70
    32
  0
VERTEX
  8
5
  5
4AD5
 10
147.817
 20
219.065
 30
0.000000
  70
    32
  0
VERTEX
  8
5
  5
4AD6
 10
147.812
 20
219.127
 30
0.000000
  70
    32
  0
VERTEX
  8
5
  5
4AD7
 10
147.807
 20
219.188
 30
0.000000
  70
    32
  0
VERTEX
  8
5
  5
4AD8
 10
147.801
 20
219.250
 30
0.000000
  70
    32
  0
VERTEX
  8
5
  5
4AD9
 10
147.796
 20
219.312
 30
0.000000
  70
    32
  0
VERTEX
  8
5
  5
4ADA
 10
147.790
 20
219.374
 30
0.000000
  70
    32
  0
VERTEX
  8
5
  5
4ADB
 10
147.785
 20
219.435
 30
0.000000
  70
    32
  0
VERTEX
  8
5
  5
4ADC
 10
147.779
 20
219.497
 30
0.000000
  70
    32
  0
VERTEX
  8
5
  5
4ADD
 10
147.773
 20
219.559
 30
0.000000
  70
    32
  0
VERTEX
  8
5
  5
4ADE
 10
147.767
 20
219.621
 30
0.000000
  70
    32
  0
VERTEX
  8
5
  5
4ADF
 10
147.761
 20
219.682
 30
0.000000
  70
    32
  0
VERTEX
  8
5
  5
4AE0
 10
147.754
 20
219.744
 30
0.000000
  70
    32
  0
VERTEX
  8
5
  5
4AE1
 10
147.748
 20
219.806
 30
0.000000
  70
    32
  0
VERTEX
  8
5
  5
4AE2
 10
147.742
 20
219.867
 30
0.000000
  70
    32
  0
VERTEX
  8
5
  5
4AE3
 10
147.735
 20
219.929
 30
0.000000
  70
    32
  0
VERTEX
  8
5
  5
4AE4
 10
147.729
 20
219.991
 30
0.000000
  70
    32
  0
VERTEX
  8
5
  5
4AE5
 10
147.722
 20
220.052
 30
0.000000
  70
    32
  0
VERTEX
  8
5
  5
4AE6
 10
147.715
 20
220.114
 30
0.000000
  70
    32
  0
VERTEX
  8
5
  5
4AE7
 10
147.708
 20
220.175
 30
0.000000
  70
    32
  0
VERTEX
  8
5
  5
4AE8
 10
147.701
 20
220.237
 30
0.000000
  70
    32
  0
VERTEX
  8
5
  5
4AE9
 10
147.694
 20
220.299
 30
0.000000
  70
    32
  0
VERTEX
  8
5
  5
4AEA
 10
147.687
 20
220.360
 30
0.000000
  70
    32
  0
VERTEX
  8
5
  5
4AEB
 10
147.679
 20
220.422
 30
0.000000
  70
    32
  0
VERTEX
  8
5
  5
4AEC
 10
147.672
 20
220.483
 30
0.000000
  70
    32
  0
VERTEX
  8
5
  5
4AED
 10
147.664
 20
220.545
 30
0.000000
  70
    32
  0
VERTEX
  8
5
  5
4AEE
 10
147.657
 20
220.606
 30
0.000000
  70
    32
  0
VERTEX
  8
5
  5
4AEF
 10
147.649
 20
220.668
 30
0.000000
  70
    32
  0
VERTEX
  8
5
  5
4AF0
 10
147.641
 20
220.729
 30
0.000000
  70
    32
  0
VERTEX
  8
5
  5
4AF1
 10
147.633
 20
220.791
 30
0.000000
  70
    32
  0
VERTEX
  8
5
  5
4AF2
 10
147.625
 20
220.852
 30
0.000000
  70
    32
  0
VERTEX
  8
5
  5
4AF3
 10
147.617
 20
220.914
 30
0.000000
  70
    32
  0
VERTEX
  8
5
  5
4AF4
 10
147.609
 20
220.975
 30
0.000000
  70
    32
  0
VERTEX
  8
5
  5
4AF5
 10
147.601
 20
221.037
 30
0.000000
  70
    32
  0
VERTEX
  8
5
  5
4AF6
 10
147.592
 20
221.098
 30
0.000000
  70
    32
  0
VERTEX
  8
5
  5
4AF7
 10
147.584
 20
221.160
 30
0.000000
  70
    32
  0
VERTEX
  8
5
  5
4AF8
 10
147.575
 20
221.221
 30
0.000000
  70
    32
  0
VERTEX
  8
5
  5
4AF9
 10
147.566
 20
221.282
 30
0.000000
  70
    32
  0
VERTEX
  8
5
  5
4AFA
 10
147.558
 20
221.344
 30
0.000000
  70
    32
  0
VERTEX
  8
5
  5
4AFB
 10
147.549
 20
221.405
 30
0.000000
  70
    32
  0
VERTEX
  8
5
  5
4AFC
 10
147.540
 20
221.467
 30
0.000000
  70
    32
  0
VERTEX
  8
5
  5
4AFD
 10
147.531
 20
221.528
 30
0.000000
  70
    32
  0
VERTEX
  8
5
  5
4AFE
 10
147.521
 20
221.589
 30
0.000000
  70
    32
  0
VERTEX
  8
5
  5
4AFF
 10
147.512
 20
221.650
 30
0.000000
  70
    32
  0
VERTEX
  8
5
  5
4B00
 10
147.503
 20
221.712
 30
0.000000
  70
    32
  0
VERTEX
  8
5
  5
4B01
 10
147.493
 20
221.773
 30
0.000000
  70
    32
  0
VERTEX
  8
5
  5
4B02
 10
147.484
 20
221.834
 30
0.000000
  70
    32
  0
SEQEND
  8
5
  5
4B03
  0
POLYLINE
  5
3F8F
  8
5
 10
146.63503696815539
 20
213.92326090421528
 30
0.0
 66
     1
 70
     8
  0
VERTEX
  8
5
  5
4B04
 10
146.635
 20
213.923
 30
0.000000
  70
    32
  0
VERTEX
  8
5
  5
4B05
 10
146.640
 20
213.989
 30
0.000000
  70
    32
  0
VERTEX
  8
5
  5
4B06
 10
146.645
 20
214.054
 30
0.000000
  70
    32
  0
VERTEX
  8
5
  5
4B07
 10
146.650
 20
214.120
 30
0.000000
  70
    32
  0
VERTEX
  8
5
  5
4B08
 10
146.654
 20
214.186
 30
0.000000
  70
    32
  0
VERTEX
  8
5
  5
4B09
 10
146.658
 20
214.251
 30
0.000000
  70
    32
  0
VERTEX
  8
5
  5
4B0A
 10
146.662
 20
214.317
 30
0.000000
  70
    32
  0
VERTEX
  8
5
  5
4B0B
 10
146.665
 20
214.382
 30
0.000000
  70
    32
  0
VERTEX
  8
5
  5
4B0C
 10
146.668
 20
214.448
 30
0.000000
  70
    32
  0
VERTEX
  8
5
  5
4B0D
 10
146.670
 20
214.514
 30
0.000000
  70
    32
  0
VERTEX
  8
5
  5
4B0E
 10
146.672
 20
214.580
 30
0.000000
  70
    32
  0
VERTEX
  8
5
  5
4B0F
 10
146.674
 20
214.645
 30
0.000000
  70
    32
  0
VERTEX
  8
5
  5
4B10
 10
146.675
 20
214.711
 30
0.000000
  70
    32
  0
VERTEX
  8
5
  5
4B11
 10
146.676
 20
214.777
 30
0.000000
  70
    32
  0
VERTEX
  8
5
  5
4B12
 10
146.676
 20
214.842
 30
0.000000
  70
    32
  0
VERTEX
  8
5
  5
4B13
 10
146.676
 20
214.908
 30
0.000000
  70
    32
  0
VERTEX
  8
5
  5
4B14
 10
146.676
 20
214.974
 30
0.000000
  70
    32
  0
VERTEX
  8
5
  5
4B15
 10
146.676
 20
215.040
 30
0.000000
  70
    32
  0
VERTEX
  8
5
  5
4B16
 10
146.675
 20
215.105
 30
0.000000
  70
    32
  0
VERTEX
  8
5
  5
4B17
 10
146.673
 20
215.171
 30
0.000000
  70
    32
  0
VERTEX
  8
5
  5
4B18
 10
146.672
 20
215.237
 30
0.000000
  70
    32
  0
VERTEX
  8
5
  5
4B19
 10
146.669
 20
215.303
 30
0.000000
  70
    32
  0
VERTEX
  8
5
  5
4B1A
 10
146.667
 20
215.368
 30
0.000000
  70
    32
  0
VERTEX
  8
5
  5
4B1B
 10
146.664
 20
215.434
 30
0.000000
  70
    32
  0
VERTEX
  8
5
  5
4B1C
 10
146.661
 20
215.500
 30
0.000000
  70
    32
  0
VERTEX
  8
5
  5
4B1D
 10
146.657
 20
215.565
 30
0.000000
  70
    32
  0
VERTEX
  8
5
  5
4B1E
 10
146.653
 20
215.631
 30
0.000000
  70
    32
  0
VERTEX
  8
5
  5
4B1F
 10
146.649
 20
215.696
 30
0.000000
  70
    32
  0
VERTEX
  8
5
  5
4B20
 10
146.644
 20
215.762
 30
0.000000
  70
    32
  0
VERTEX
  8
5
  5
4B21
 10
146.639
 20
215.828
 30
0.000000
  70
    32
  0
VERTEX
  8
5
  5
4B22
 10
146.634
 20
215.893
 30
0.000000
  70
    32
  0
VERTEX
  8
5
  5
4B23
 10
146.628
 20
215.959
 30
0.000000
  70
    32
  0
VERTEX
  8
5
  5
4B24
 10
146.622
 20
216.024
 30
0.000000
  70
    32
  0
VERTEX
  8
5
  5
4B25
 10
146.615
 20
216.089
 30
0.000000
  70
    32
  0
VERTEX
  8
5
  5
4B26
 10
146.608
 20
216.155
 30
0.000000
  70
    32
  0
VERTEX
  8
5
  5
4B27
 10
146.601
 20
216.220
 30
0.000000
  70
    32
  0
VERTEX
  8
5
  5
4B28
 10
146.593
 20
216.285
 30
0.000000
  70
    32
  0
VERTEX
  8
5
  5
4B29
 10
146.585
 20
216.351
 30
0.000000
  70
    32
  0
VERTEX
  8
5
  5
4B2A
 10
146.577
 20
216.416
 30
0.000000
  70
    32
  0
VERTEX
  8
5
  5
4B2B
 10
146.568
 20
216.481
 30
0.000000
  70
    32
  0
VERTEX
  8
5
  5
4B2C
 10
146.559
 20
216.546
 30
0.000000
  70
    32
  0
VERTEX
  8
5
  5
4B2D
 10
146.549
 20
216.611
 30
0.000000
  70
    32
  0
VERTEX
  8
5
  5
4B2E
 10
146.539
 20
216.676
 30
0.000000
  70
    32
  0
VERTEX
  8
5
  5
4B2F
 10
146.529
 20
216.741
 30
0.000000
  70
    32
  0
VERTEX
  8
5
  5
4B30
 10
146.518
 20
216.806
 30
0.000000
  70
    32
  0
VERTEX
  8
5
  5
4B31
 10
146.507
 20
216.871
 30
0.000000
  70
    32
  0
VERTEX
  8
5
  5
4B32
 10
146.496
 20
216.935
 30
0.000000
  70
    32
  0
VERTEX
  8
5
  5
4B33
 10
146.484
 20
217.000
 30
0.000000
  70
    32
  0
VERTEX
  8
5
  5
4B34
 10
146.472
 20
217.065
 30
0.000000
  70
    32
  0
VERTEX
  8
5
  5
4B35
 10
146.460
 20
217.129
 30
0.000000
  70
    32
  0
VERTEX
  8
5
  5
4B36
 10
146.447
 20
217.194
 30
0.000000
  70
    32
  0
VERTEX
  8
5
  5
4B37
 10
146.434
 20
217.258
 30
0.000000
  70
    32
  0
VERTEX
  8
5
  5
4B38
 10
146.420
 20
217.322
 30
0.000000
  70
    32
  0
VERTEX
  8
5
  5
4B39
 10
146.406
 20
217.387
 30
0.000000
  70
    32
  0
VERTEX
  8
5
  5
4B3A
 10
146.392
 20
217.451
 30
0.000000
  70
    32
  0
VERTEX
  8
5
  5
4B3B
 10
146.377
 20
217.515
 30
0.000000
  70
    32
  0
VERTEX
  8
5
  5
4B3C
 10
146.362
 20
217.579
 30
0.000000
  70
    32
  0
VERTEX
  8
5
  5
4B3D
 10
146.347
 20
217.643
 30
0.000000
  70
    32
  0
VERTEX
  8
5
  5
4B3E
 10
146.331
 20
217.707
 30
0.000000
  70
    32
  0
VERTEX
  8
5
  5
4B3F
 10
146.315
 20
217.770
 30
0.000000
  70
    32
  0
VERTEX
  8
5
  5
4B40
 10
146.298
 20
217.834
 30
0.000000
  70
    32
  0
VERTEX
  8
5
  5
4B41
 10
146.281
 20
217.898
 30
0.000000
  70
    32
  0
VERTEX
  8
5
  5
4B42
 10
146.264
 20
217.961
 30
0.000000
  70
    32
  0
VERTEX
  8
5
  5
4B43
 10
146.247
 20
218.024
 30
0.000000
  70
    32
  0
VERTEX
  8
5
  5
4B44
 10
146.229
 20
218.088
 30
0.000000
  70
    32
  0
VERTEX
  8
5
  5
4B45
 10
146.210
 20
218.151
 30
0.000000
  70
    32
  0
VERTEX
  8
5
  5
4B46
 10
146.192
 20
218.214
 30
0.000000
  70
    32
  0
VERTEX
  8
5
  5
4B47
 10
146.173
 20
218.277
 30
0.000000
  70
    32
  0
VERTEX
  8
5
  5
4B48
 10
146.153
 20
218.339
 30
0.000000
  70
    32
  0
VERTEX
  8
5
  5
4B49
 10
146.134
 20
218.402
 30
0.000000
  70
    32
  0
VERTEX
  8
5
  5
4B4A
 10
146.113
 20
218.465
 30
0.000000
  70
    32
  0
VERTEX
  8
5
  5
4B4B
 10
146.093
 20
218.527
 30
0.000000
  70
    32
  0
VERTEX
  8
5
  5
4B4C
 10
146.072
 20
218.590
 30
0.000000
  70
    32
  0
VERTEX
  8
5
  5
4B4D
 10
146.051
 20
218.652
 30
0.000000
  70
    32
  0
VERTEX
  8
5
  5
4B4E
 10
146.030
 20
218.714
 30
0.000000
  70
    32
  0
VERTEX
  8
5
  5
4B4F
 10
146.008
 20
218.776
 30
0.000000
  70
    32
  0
VERTEX
  8
5
  5
4B50
 10
145.985
 20
218.838
 30
0.000000
  70
    32
  0
VERTEX
  8
5
  5
4B51
 10
145.963
 20
218.900
 30
0.000000
  70
    32
  0
VERTEX
  8
5
  5
4B52
 10
145.940
 20
218.961
 30
0.000000
  70
    32
  0
VERTEX
  8
5
  5
4B53
 10
145.917
 20
219.023
 30
0.000000
  70
    32
  0
VERTEX
  8
5
  5
4B54
 10
145.893
 20
219.084
 30
0.000000
  70
    32
  0
VERTEX
  8
5
  5
4B55
 10
145.869
 20
219.145
 30
0.000000
  70
    32
  0
VERTEX
  8
5
  5
4B56
 10
145.845
 20
219.206
 30
0.000000
  70
    32
  0
VERTEX
  8
5
  5
4B57
 10
145.820
 20
219.267
 30
0.000000
  70
    32
  0
VERTEX
  8
5
  5
4B58
 10
145.795
 20
219.328
 30
0.000000
  70
    32
  0
VERTEX
  8
5
  5
4B59
 10
145.770
 20
219.389
 30
0.000000
  70
    32
  0
VERTEX
  8
5
  5
4B5A
 10
145.744
 20
219.449
 30
0.000000
  70
    32
  0
VERTEX
  8
5
  5
4B5B
 10
145.718
 20
219.510
 30
0.000000
  70
    32
  0
VERTEX
  8
5
  5
4B5C
 10
145.692
 20
219.570
 30
0.000000
  70
    32
  0
VERTEX
  8
5
  5
4B5D
 10
145.665
 20
219.630
 30
0.000000
  70
    32
  0
VERTEX
  8
5
  5
4B5E
 10
145.638
 20
219.690
 30
0.000000
  70
    32
  0
VERTEX
  8
5
  5
4B5F
 10
145.611
 20
219.750
 30
0.000000
  70
    32
  0
VERTEX
  8
5
  5
4B60
 10
145.583
 20
219.809
 30
0.000000
  70
    32
  0
VERTEX
  8
5
  5
4B61
 10
145.555
 20
219.869
 30
0.000000
  70
    32
  0
VERTEX
  8
5
  5
4B62
 10
145.526
 20
219.928
 30
0.000000
  70
    32
  0
VERTEX
  8
5
  5
4B63
 10
145.498
 20
219.987
 30
0.000000
  70
    32
  0
VERTEX
  8
5
  5
4B64
 10
145.469
 20
220.046
 30
0.000000
  70
    32
  0
VERTEX
  8
5
  5
4B65
 10
145.439
 20
220.105
 30
0.000000
  70
    32
  0
VERTEX
  8
5
  5
4B66
 10
145.409
 20
220.163
 30
0.000000
  70
    32
  0
VERTEX
  8
5
  5
4B67
 10
145.379
 20
220.222
 30
0.000000
  70
    32
  0
VERTEX
  8
5
  5
4B68
 10
145.349
 20
220.280
 30
0.000000
  70
    32
  0
VERTEX
  8
5
  5
4B69
 10
145.318
 20
220.338
 30
0.000000
  70
    32
  0
VERTEX
  8
5
  5
4B6A
 10
145.287
 20
220.396
 30
0.000000
  70
    32
  0
VERTEX
  8
5
  5
4B6B
 10
145.256
 20
220.454
 30
0.000000
  70
    32
  0
VERTEX
  8
5
  5
4B6C
 10
145.224
 20
220.511
 30
0.000000
  70
    32
  0
VERTEX
  8
5
  5
4B6D
 10
145.192
 20
220.569
 30
0.000000
  70
    32
  0
VERTEX
  8
5
  5
4B6E
 10
145.159
 20
220.626
 30
0.000000
  70
    32
  0
VERTEX
  8
5
  5
4B6F
 10
145.127
 20
220.683
 30
0.000000
  70
    32
  0
VERTEX
  8
5
  5
4B70
 10
145.094
 20
220.740
 30
0.000000
  70
    32
  0
VERTEX
  8
5
  5
4B71
 10
145.060
 20
220.796
 30
0.000000
  70
    32
  0
VERTEX
  8
5
  5
4B72
 10
145.027
 20
220.853
 30
0.000000
  70
    32
  0
VERTEX
  8
5
  5
4B73
 10
144.993
 20
220.909
 30
0.000000
  70
    32
  0
VERTEX
  8
5
  5
4B74
 10
144.958
 20
220.965
 30
0.000000
  70
    32
  0
VERTEX
  8
5
  5
4B75
 10
144.924
 20
221.021
 30
0.000000
  70
    32
  0
VERTEX
  8
5
  5
4B76
 10
144.889
 20
221.077
 30
0.000000
  70
    32
  0
VERTEX
  8
5
  5
4B77
 10
144.853
 20
221.132
 30
0.000000
  70
    32
  0
VERTEX
  8
5
  5
4B78
 10
144.818
 20
221.187
 30
0.000000
  70
    32
  0
VERTEX
  8
5
  5
4B79
 10
144.782
 20
221.243
 30
0.000000
  70
    32
  0
VERTEX
  8
5
  5
4B7A
 10
144.746
 20
221.297
 30
0.000000
  70
    32
  0
VERTEX
  8
5
  5
4B7B
 10
144.709
 20
221.352
 30
0.000000
  70
    32
  0
VERTEX
  8
5
  5
4B7C
 10
144.672
 20
221.406
 30
0.000000
  70
    32
  0
VERTEX
  8
5
  5
4B7D
 10
144.635
 20
221.461
 30
0.000000
  70
    32
  0
VERTEX
  8
5
  5
4B7E
 10
144.598
 20
221.515
 30
0.000000
  70
    32
  0
VERTEX
  8
5
  5
4B7F
 10
144.560
 20
221.569
 30
0.000000
  70
    32
  0
VERTEX
  8
5
  5
4B80
 10
144.522
 20
221.622
 30
0.000000
  70
    32
  0
VERTEX
  8
5
  5
4B81
 10
144.484
 20
221.676
 30
0.000000
  70
    32
  0
VERTEX
  8
5
  5
4B82
 10
144.445
 20
221.729
 30
0.000000
  70
    32
  0
VERTEX
  8
5
  5
4B83
 10
144.406
 20
221.782
 30
0.000000
  70
    32
  0
VERTEX
  8
5
  5
4B84
 10
144.367
 20
221.834
 30
0.000000
  70
    32
  0
SEQEND
  8
5
  5
4B85
  0
LINE
  5
3F90
  8
5
 10
147.48369489792501
 20
221.83430683739999
 30
0.0
 11
147.36279708492509
 21
222.1763269807
 31
0.0
  0
LINE
  5
3F91
  8
5
 10
144.206275074025
 20
221.93931224980011
 30
0.0
 11
144.36662367082499
 21
221.83430683739999
 31
0.0
  0
LINE
  5
3F92
  8
5
 10
143.7841289520251
 20
222.1763269807
 30
0.0
 11
144.206275074025
 21
221.93931224980011
 31
0.0
  0
ARC
  5
3F93
  8
5
 10
143.00000000002501
 20
230.0
 30
0.0
 40
1.0
 50
90.0
 51
270.0
  0
ARC
  5
3F94
  8
5
 10
150.650704202025
 20
227.25
 30
0.0
 40
4.4206345802622611
 50
165.5224878141014
 51
196.8645782343965
  0
ARC
  5
3F95
  8
5
 10
109.500000000025
 20
214.7752437429001
 30
0.0
 40
38.579365419737748
 50
11.060210904399661
 51
16.864578234396578
  0
ARC
  5
3F96
  8
5
 10
140.68750000002501
 20
219.0215053969001
 30
0.0
 40
4.4206345802622549
 50
45.533331565200328
 51
85.946311108123297
  0
LINE
  5
3F97
  8
5
 10
148.5462246547288
 20
229.00000000000011
 30
0.0
 11
143.00000000002501
 21
229.0
 31
0.0
  0
LINE
  5
3F98
  8
5
 10
148.54563122906711
 20
231.0
 30
0.0
 11
143.00000000002501
 21
231.0
 31
0.0
  0
LINE
  5
3F99
  8
5
 10
147.629271552625
 20
229.0
 30
0.0
 11
147.629271552625
 21
231.0
 31
0.0
  0
ARC
  5
3F9A
  8
5
 10
149.02551733662489
 20
171.26203726234999
 30
0.0
 40
0.5
 50
270.0
 51
2.9999999999999729
  0
LINE
  5
3F9B
  8
5
 10
149.5248321040248
 20
171.28820524045
 30
0.0
 11
148.9435415142249
 21
182.37989043934999
 31
0.0
  0
ARC
  5
3F9C
  8
5
 10
144.97448190332489
 20
171.26203726234999
 30
0.0
 40
0.5
 50
176.9999999999996
 51
270.0
  0
LINE
  5
3F9D
  8
5
 10
145.07922800332491
 20
182.81437321864999
 30
0.0
 11
144.47516713592489
 21
171.28820524045
 31
0.0
  0
ARC
  5
3F9E
  8
5
 10
146.0778575381249
 20
182.76203726234999
 30
0.0
 40
1.0
 50
90.0
 51
176.9999999999996
  0
ARC
  5
3F9F
  8
5
 10
141.78980566382489
 20
185.47537591105001
 30
0.0
 40
5.158050431804992
 50
294.51192996630152
 51
308.59428925930212
  0
POLYLINE
  5
3FA0
  8
5
 66
     1
 10
0.0
 20
0.0
 30
0.0
 70
   128
  0
VERTEX
  5
44DF
  8
5
 10
143.92921167222491
 20
180.78226689245
 30
0.0
  0
VERTEX
  5
44E0
  8
5
 10
143.91999378462489
 20
180.77784061644999
 30
0.0
  0
VERTEX
  5
44E1
  8
5
 10
143.9037268342249
 20
180.77420826925001
 30
0.0
  0
SEQEND
  5
44E2
  8
5
  0
ARC
  5
3FA1
  8
5
 10
143.80227466762491
 20
181.31490063845001
 30
0.0
 40
0.5524256030257346
 50
267.84620781630042
 51
280.12184240070047
  0
ARC
  5
3FA2
  8
5
 10
148.18356191922501
 20
171.25743455534999
 30
0.0
 40
0.4954303486423485
 50
270.6618687189993
 51
3.5608756303003202
  0
ARC
  5
3FA3
  8
5
 10
145.19759613722479
 20
171.25874645425
 30
0.0
 40
0.4967258378280932
 50
176.60002563910001
 51
269.53093352049962
  0
LINE
  5
3FA4
  8
5
 10
148.67803577622499
 20
171.28820524045
 30
0.0
 11
148.08675488802481
 21
182.81437321864999
 31
0.0
  0
LINE
  5
3FA5
  8
5
 10
144.70174460912489
 20
171.28820524045
 30
0.0
 11
145.2966961180249
 21
182.81437321864999
 31
0.0
  0
ARC
  5
3FA6
  8
5
 10
147.0993089385249
 20
182.77380848634999
 30
0.0
 40
0.9882788071947546
 50
2.3524141679000281
 51
89.423472449701308
  0
ARC
  5
3FA7
  8
5
 10
146.287332078525
 20
182.77045336155001
 30
0.0
 40
0.9916090762371222
 50
90.408278862099365
 51
177.46145331640059
  0
POLYLINE
  5
3FA8
  8
5
 66
     1
 10
0.0
 20
0.0
 30
0.0
 70
   128
  0
VERTEX
  5
44E3
  8
5
 10
148.94354676893801
 20
182.37979017345
 30
0.0
  0
VERTEX
  5
44E4
  8
5
 10
148.93288129592489
 20
182.53624382285
 30
0.0
  0
VERTEX
  5
44E5
  8
5
 10
148.90173208072491
 20
182.81437321864999
 30
0.0
  0
SEQEND
  5
44E6
  8
5
  0
ARC
  5
3FA9
  8
5
 10
147.90336022072489
 20
182.76230878654999
 30
0.0
 40
0.9997285010847551
 50
2.985232794300015
 51
89.987125809300437
  0
LINE
  5
3FAA
  8
5
 10
146.0778575381249
 20
183.76203726234999
 30
0.0
 11
147.9035850668518
 21
183.76203726234999
 31
0.0
  0
LINE
  5
3FAB
  8
5
 10
143.55848071382491
 20
179.93498797705001
 30
0.0
 11
143.4119135665249
 21
179.87136110615
 31
0.0
  0
LINE
  5
3FAC
  8
5
 10
143.05410038642489
 20
171.28820524045
 30
0.0
 11
143.4119135665249
 21
179.87136110615
 31
0.0
  0
ARC
  5
3FAD
  8
5
 10
143.51305859112489
 20
171.22166129695
 30
0.0
 40
0.4637571886801002
 50
171.7502236357995
 51
262.34480638050019
  0
LINE
  5
3FAE
  8
5
 10
149.02551733662489
 20
170.76203726234999
 30
0.0
 11
143.45128095058629
 21
170.76203726234999
 31
0.0
  0
ARC
  5
3FAF
  8
5
 10
140.94928191492491
 20
185.04278105265001
 30
0.0
 40
5.7356314801354937
 50
297.05917370910038
 51
314.68012328699763
  0
ARC
  5
3FB0
  8
5
 10
144.20100851972489
 20
180.02523435814999
 30
0.0
 40
0.8039576001314781
 50
111.75485729619879
 51
191.03419054829789
  0
LINE
  5
3FB1
  8
5
 10
143.0541003864528
 20
171.28820524044991
 30
0.0
 11
149.52483210400331
 21
171.28820524045
 31
0.0
  0
LINE
  5
3FB2
  8
5
 10
148.90173166242491
 20
182.81437369804999
 30
0.0
 11
145.07922802849779
 21
182.81437369804991
 31
0.0
  0
LINE
  5
3FB3
  8
5
 10
231.00000004752511
 20
180.76203726234999
 30
0.0
 11
231.00000004752511
 21
170.76203726234999
 31
0.0
  0
LINE
  5
3FB4
  8
5
 10
228.999999952525
 20
180.76203726234999
 30
0.0
 11
228.999999952525
 21
170.76203726234999
 31
0.0
  0
ARC
  5
3FB5
  8
5
 10
205.47448266342511
 20
171.26203726234999
 30
0.0
 40
0.5
 50
176.9999999999996
 51
270.0
  0
LINE
  5
3FB6
  8
5
 10
205.57922876342511
 20
182.81437321864999
 30
0.0
 11
204.97516789602511
 21
171.28820524045
 31
0.0
  0
ARC
  5
3FB7
  8
5
 10
206.57785829812511
 20
182.76203726234999
 30
0.0
 40
1.0
 50
90.0
 51
176.9999999999996
  0
LINE
  5
3FB8
  8
5
 10
213.92326128432509
 20
183.70172988314999
 30
0.0
 11
220.99091811387129
 21
181.12931317115209
 31
0.0
  0
ARC
  5
3FB9
  8
5
 10
213.5812411409251
 20
182.76203726234999
 30
0.0
 40
1.0
 50
69.999999999999972
 51
90.0
  0
LINE
  5
3FBA
  8
5
 10
206.57785829812511
 20
183.76203726234999
 30
0.0
 11
213.5812411409251
 21
183.76203726234999
 31
0.0
  0
LINE
  5
3FBB
  8
5
 10
220.97312298338809
 20
170.76203726234991
 30
0.0
 11
205.47448266342511
 21
170.76203726234999
 31
0.0
  0
LINE
  5
3FBC
  8
5
 10
231.00000026602521
 20
180.16203828155
 30
0.0
 11
229.00000017102511
 21
180.16203828155
 31
0.0
  0
LINE
  5
3FBD
  8
5
 10
213.550208069425
 20
182.81437395514999
 30
0.0
 11
205.57922880197199
 21
182.81437395514999
 31
0.0
  0
POLYLINE
  5
3FBE
  8
5
 66
     1
 10
0.0
 20
0.0
 30
0.0
 70
   128
  0
VERTEX
  5
44E7
  8
5
 10
220.94179602307349
 20
180.19200775804049
 30
0.0
  0
VERTEX
  5
44E8
  8
5
 10
219.7955864742251
 20
180.59869049495001
 30
0.0
  0
VERTEX
  5
44E9
  8
5
 10
216.6849001571251
 20
181.70231519645
 30
0.0
  0
VERTEX
  5
44EA
  8
5
 10
213.550208069425
 20
182.81437395514999
 30
0.0
  0
SEQEND
  5
44EB
  8
5
  0
LINE
  5
3FBF
  8
5
 10
204.9751679653082
 20
171.28820656245
 30
0.0
 11
220.4751676171588
 21
171.28820656245
 31
0.0
  0
LINE
  5
400B
  8
2
 10
54.000000000025061
 20
115.26203818614989
 30
0.0
 11
46.000000000025061
 21
115.26203818614989
 31
0.0
  0
LINE
  5
400C
  8
2
 10
54.000000000025061
 20
135.26203818614999
 30
0.0
 11
46.000000000025061
 21
135.26203818614999
 31
0.0
  0
LINE
  5
400D
  8
2
 10
234.00000000002501
 20
115.26203818614989
 30
0.0
 11
226.0000000000251
 21
115.26203818614989
 31
0.0
  0
LINE
  5
400E
  8
2
 10
234.0000000000251
 20
135.26203818614999
 30
0.0
 11
226.00000000002501
 21
135.26203818614999
 31
0.0
  0
CIRCLE
  5
400F
  8
0
 10
140.00000000002501
 20
125.26203818614999
 30
0.0
 40
10.0
  0
ENDSEC
  0
EOF
