  0
SECTION
  2
HEADER
  9
$ACADVER
  1
AC1009
  9
$INSBASE
 10
0.0
 20
0.0
 30
0.0
  9
$EXTMIN
 10
0.0
 20
-2.960436562073669
 30
0.0
  9
$EXTMAX
 10
191.99999977650009
 20
219.73832021878181
 30
0.0
  9
$LIMMIN
 10
0.0
 20
0.0
  9
$LIMMAX
 10
375.0
 20
270.0
  9
$ORTHOMODE
 70
     1
  9
$REGENMODE
 70
     1
  9
$FILLMODE
 70
     1
  9
$QTEXTMODE
 70
     0
  9
$MIRRTEXT
 70
     0
  9
$DRAGMODE
 70
     2
  9
$LTSCALE
 40
5.0
  9
$OSMODE
 70
    37
  9
$ATTMODE
 70
     1
  9
$TEXTSIZE
 40
4.000000000000048
  9
$TRACEWID
 40
0.05
  9
$TEXTSTYLE
  7
STANDARD
  9
$CLAYER
  8
0
  9
$CELTYPE
  6
BYLAYER
  9
$CECOLOR
 62
   256
  9
$DIMSCALE
 40
1.0
  9
$DIMASZ
 40
3.0
  9
$DIMEXO
 40
2.0
  9
$DIMDLI
 40
0.38
  9
$DIMRND
 40
0.0
  9
$DIMDLE
 40
0.0
  9
$DIMEXE
 40
2.0
  9
$DIMTP
 40
0.0
  9
$DIMTM
 40
0.0
  9
$DIMTXT
 40
3.2000000000000002
  9
$DIMCEN
 40
0.0
  9
$DIMTSZ
 40
0.0
  9
$DIMTOL
 70
     0
  9
$DIMLIM
 70
     0
  9
$DIMTIH
 70
     0
  9
$DIMTOH
 70
     0
  9
$DIMSE1
 70
     0
  9
$DIMSE2
 70
     0
  9
$DIMTAD
 70
     1
  9
$DIMZIN
 70
     0
  9
$DIMBLK
  1

  9
$DIMASO
 70
     0
  9
$DIMSHO
 70
     0
  9
$DIMPOST
  1

  9
$DIMAPOST
  1

  9
$DIMALT
 70
     0
  9
$DIMALTD
 70
     2
  9
$DIMALTF
 40
25.399999999999999
  9
$DIMLFAC
 40
1.0
  9
$DIMTOFL
 70
     0
  9
$DIMTVP
 40
1.6000000000000001
  9
$DIMTIX
 70
     1
  9
$DIMSOXD
 70
     0
  9
$DIMSAH
 70
     0
  9
$DIMBLK1
  1

  9
$DIMBLK2
  1

  9
$DIMSTYLE
  2
STANDARD
  9
$DIMCLRD
 70
     4
  9
$DIMCLRE
 70
     4
  9
$DIMCLRT
 70
     4
  9
$DIMTFAC
 40
1.0
  9
$DIMGAP
 40
0.09
  9
$LUNITS
 70
     2
  9
$LUPREC
 70
     2
  9
$SKETCHINC
 40
0.1
  9
$FILLETRAD
 40
22.0
  9
$AUNITS
 70
     0
  9
$AUPREC
 70
     0
  9
$MENU
  1
E:\r13\win\SUPPORT\ACAD
  9
$ELEVATION
 40
0.0
  9
$PELEVATION
 40
0.0
  9
$THICKNESS
 40
0.0
  9
$LIMCHECK
 70
     0
  9
$BLIPMODE
 70
     0
  9
$CHAMFERA
 40
1.1999999999999991
  9
$CHAMFERB
 40
1.1999999999999991
  9
$SKPOLY
 70
     0
  9
$TDCREATE
 40
2449954.6020138888
  9
$TDUPDATE
 40
2457171.5686300579
  9
$TDINDWG
 40
0.3221728588
  9
$TDUSRTIMER
 40
0.3221728588
  9
$USRTIMER
 70
     1
  9
$ANGBASE
 50
0.0
  9
$ANGDIR
 70
     0
  9
$PDMODE
 70
     0
  9
$PDSIZE
 40
0.0
  9
$PLINEWID
 40
0.0
  9
$COORDS
 70
     1
  9
$SPLFRAME
 70
     0
  9
$SPLINETYPE
 70
     6
  9
$SPLINESEGS
 70
     8
  9
$ATTDIA
 70
     0
  9
$ATTREQ
 70
     1
  9
$HANDLING
 70
     1
  9
$HANDSEED
  5
3E23
  9
$SURFTAB1
 70
     6
  9
$SURFTAB2
 70
     6
  9
$SURFTYPE
 70
     6
  9
$SURFU
 70
     6
  9
$SURFV
 70
     6
  9
$UCSNAME
  2

  9
$UCSORG
 10
0.0
 20
0.0
 30
0.0
  9
$UCSXDIR
 10
1.0
 20
0.0
 30
0.0
  9
$UCSYDIR
 10
0.0
 20
1.0
 30
0.0
  9
$PUCSNAME
  2

  9
$PUCSORG
 10
0.0
 20
0.0
 30
0.0
  9
$PUCSXDIR
 10
1.0
 20
0.0
 30
0.0
  9
$PUCSYDIR
 10
0.0
 20
1.0
 30
0.0
  9
$USERI1
 70
     0
  9
$USERI2
 70
     1
  9
$USERI3
 70
     0
  9
$USERI4
 70
     0
  9
$USERI5
 70
     0
  9
$USERR1
 40
0.0
  9
$USERR2
 40
0.0
  9
$USERR3
 40
0.0
  9
$USERR4
 40
0.0
  9
$USERR5
 40
0.0
  9
$WORLDVIEW
 70
     1
  9
$SHADEDGE
 70
     3
  9
$SHADEDIF
 70
    70
  9
$TILEMODE
 70
     1
  9
$MAXACTVP
 70
    16
  9
$PLIMCHECK
 70
     0
  9
$PEXTMIN
 10
1.0000000000000000E+020
 20
1.0000000000000000E+020
 30
1.0000000000000000E+020
  9
$PEXTMAX
 10
-1.0000000000000000E+020
 20
-1.0000000000000000E+020
 30
-1.0000000000000000E+020
  9
$PLIMMIN
 10
0.0
 20
0.0
  9
$PLIMMAX
 10
12.0
 20
9.0
  9
$UNITMODE
 70
     0
  9
$VISRETAIN
 70
     0
  9
$PLINEGEN
 70
     0
  9
$PSLTSCALE
 70
     0
  0
ENDSEC
  0
SECTION
  2
TABLES
  0
TABLE
  2
VPORT
 70
     1
  0
VPORT
  2
*ACTIVE
 70
     0
 10
0.0
 20
0.0
 11
1.0
 21
1.0
 12
245.19230769230771
 22
135.0
 13
0.0
 23
0.0
 14
10.0
 24
10.0
 15
10.0
 25
10.0
 16
0.0
 26
0.0
 36
1.0
 17
0.0
 27
0.0
 37
0.0
 40
270.0
 41
1.816239316239316
 42
50.0
 43
0.0
 44
0.0
 50
0.0
 51
0.0
 71
     0
 72
   500
 73
     1
 74
     0
 75
     0
 76
     0
 77
     0
 78
     2
  0
ENDTAB
  0
TABLE
  2
LTYPE
 70
     5
  0
LTYPE
  2
CONTINUOUS
 70
     0
  3
Solid Line
 72
    65
 73
     0
 40
0.0
  0
LTYPE
  2
CENTER
 70
     0
  3
____ _ ____ _ ____ _ ____ _ ____ _ ____ _ ____
 72
    65
 73
     4
 40
2.0
 49
1.25
 49
-0.25
 49
0.25
 49
-0.25
  0
LTYPE
  2
HIDDEN
 70
     0
  3
_ _ _ _ _ _ _ _ _ _ _ _ _ _ _ _ _ _ _ _ _ _ _
 72
    65
 73
     2
 40
0.375
 49
0.25
 49
-0.125
  0
LTYPE
  2
PHANTOM
 70
     0
  3
_____ _ _ _____ _ _ _____ _ _ _____ _ _ ____
 72
    65
 73
     6
 40
2.5
 49
1.25
 49
-0.25
 49
0.25
 49
-0.25
 49
0.25
 49
-0.25
  0
LTYPE
  2
PHANTOM2
 70
     0
  3
___ _ _ ___ _ _ ___ _ _ ___ _ _
 72
    65
 73
     6
 40
1.25
 49
0.625
 49
-0.125
 49
0.125
 49
-0.125
 49
0.125
 49
-0.125
  0
ENDTAB
  0
TABLE
  2
LAYER
 70
     5
  0
LAYER
  2
0
 70
     0
 62
     7
  6
CONTINUOUS
  0
LAYER
  2
1
 70
     0
 62
     1
  6
CENTER
  0
LAYER
  2
3
 70
     0
 62
     3
  6
CONTINUOUS
  0
LAYER
  2
2
 70
     0
 62
     2
  6
HIDDEN
  0
LAYER
  2
5
 70
     0
 62
     3
  6
PHANTOM
  0
ENDTAB
  0
TABLE
  2
STYLE
 70
     2
  0
STYLE
  2
STANDARD
 70
     0
 40
0.0
 41
1.0
 50
0.0
 71
     0
 42
4.000000000000048
  3
SIMPLEX
  4
BIGFONT
  0
STYLE
  2
STANDARD1
 70
     0
 40
0.0
 41
1.0
 50
0.0
 71
     0
 42
3.0
  3
txt
  4

  0
ENDTAB
  0
TABLE
  2
VIEW
 70
     1
  0
VIEW
  2
ALL
 70
     0
 40
270.0
 10
220.78595317725751
 20
135.0
 41
441.57190635451502
 11
0.0
 21
0.0
 31
1.0
 12
0.0
 22
0.0
 32
0.0
 42
50.0
 43
0.0
 44
0.0
 50
0.0
 71
     0
  0
ENDTAB
  0
TABLE
  2
UCS
 70
     0
  0
ENDTAB
  0
TABLE
  2
APPID
 70
     4
  0
APPID
  2
ACAD
 70
     0
  0
APPID
  2
ACAD_EXEMPT_FROM_CAD_STANDARDS
 70
     0
  0
APPID
  2
ACAD_MLEADERVER
 70
     0
  0
APPID
  2
ACAD_NAV_VCDISPLAY
 70
     0
  0
ENDTAB
  0
TABLE
  2
DIMSTYLE
 70
     1
  0
DIMSTYLE
  2
STANDARD
 70
     0
  3

  4

  5

  6

  7

 40
1.0
 41
0.18
 42
0.0625
 43
0.38
 44
0.18
 45
0.0
 46
0.0
 47
0.0
 48
0.0
140
0.18
141
0.09
142
0.0
143
25.399999999999999
144
1.0
145
0.0
146
1.0
147
0.09
 71
     0
 72
     0
 73
     1
 74
     1
 75
     0
 76
     0
 77
     0
 78
     0
170
     0
171
     2
172
     0
173
     0
174
     0
175
     0
176
     0
177
     0
178
     0
  0
ENDTAB
  0
ENDSEC
  0
SECTION
  2
BLOCKS
  0
BLOCK
  8
0
  2
$MODEL_SPACE
 70
     0
 10
0.0
 20
0.0
 30
0.0
  3
$MODEL_SPACE
  1

  0
ENDBLK
  5
1126
  8
0
  0
BLOCK
 67
     1
  8
0
  2
$PAPER_SPACE
 70
     0
 10
0.0
 20
0.0
 30
0.0
  3
$PAPER_SPACE
  1

  0
ENDBLK
  5
1124
 67
     1
  8
0
  0
ENDSEC
  0
SECTION
  2
ENTITIES
  0
TEXT
  5
1F1A
  8
0
 62
     3
 10
0.0
 20
0.0
 30
0.0
 40
10.0
  1
QCSPL0408-BK
  7
STANDARD1
  0
ARC
  5
2191
  8
0
 10
29.02551771659995
 20
146.01203889640001
 30
0.0
 40
0.5
 50
270.0
 51
2.999999999999893
  0
LINE
  5
2192
  8
0
 10
29.524832483999951
 20
146.03820687449999
 30
0.0
 11
28.943541894199939
 21
157.12989207339999
 31
0.0
  0
ARC
  5
2193
  8
0
 10
24.974482283299949
 20
146.01203889640001
 30
0.0
 40
0.5
 50
177.0
 51
270.0
  0
LINE
  5
2194
  8
0
 10
25.079228383300009
 20
157.56437485270001
 30
0.0
 11
24.475167515899962
 21
146.03820687449999
 31
0.0
  0
ARC
  5
2195
  8
0
 10
26.077857918100001
 20
157.51203889640001
 30
0.0
 40
1.0
 50
90.0
 51
177.0
  0
ARC
  5
2198
  8
0
 10
21.789806043799949
 20
160.2253775451
 30
0.0
 40
5.158050431804992
 50
294.5119299663013
 51
308.5942892593016
  0
POLYLINE
  5
2199
  8
0
 66
     1
 10
0.0
 20
0.0
 30
0.0
 70
   128
  0
VERTEX
  5
3740
  8
0
 10
23.9292120522
 20
155.53226852649999
 30
0.0
  0
VERTEX
  5
3741
  8
0
 10
23.919994164599991
 20
155.52784225049999
 30
0.0
  0
VERTEX
  5
3742
  8
0
 10
23.903727214199989
 20
155.5242099033
 30
0.0
  0
SEQEND
  5
3743
  8
0
  0
ARC
  5
219A
  8
0
 10
23.802275047600009
 20
156.06490227250001
 30
0.0
 40
0.5524256030257346
 50
267.84620781630042
 51
280.12184240070047
  0
ARC
  5
219B
  8
0
 10
12.474482283299951
 20
146.01203889640001
 30
0.0
 40
0.5
 50
177.0
 51
270.0
  0
LINE
  5
219C
  8
0
 10
12.422005045499979
 20
154.56437485270001
 30
0.0
 11
11.975167515899949
 21
146.03820687449999
 31
0.0
  0
ARC
  5
219D
  8
0
 10
13.420634580199989
 20
154.51203889640001
 30
0.0
 40
1.0
 50
90.0
 51
177.0
  0
ARC
  5
219E
  8
0
 10
11.37209891259999
 20
143.0846337264
 30
0.0
 40
0.5000000000000121
 50
272.99999999999909
 51
357.2224133963004
  0
LINE
  5
219F
  8
0
 10
12.0
 20
145.51203889640001
 30
0.0
 11
11.87147122239997
 21
143.0595637239
 31
0.0
  0
ARC
  5
21A1
  8
0
 10
28.183562299199991
 20
146.00743618940001
 30
0.0
 40
0.4954303486423485
 50
270.6618687189993
 51
3.560875630299976
  0
ARC
  5
21A3
  8
0
 10
25.197596517199941
 20
146.0087480883
 30
0.0
 40
0.4967258378280932
 50
176.60002563909981
 51
269.53093352049962
  0
LINE
  5
21A5
  8
0
 10
28.678036156200001
 20
146.03820687449999
 30
0.0
 11
28.08675526799993
 21
157.56437485270001
 31
0.0
  0
LINE
  5
21A6
  8
0
 10
24.70174498909995
 20
146.03820687449999
 30
0.0
 11
25.29669649799996
 21
157.56437485270001
 31
0.0
  0
ARC
  5
21A8
  8
0
 10
27.099309318499991
 20
157.52381012039999
 30
0.0
 40
0.9882788071947546
 50
2.352414167899727
 51
89.423472449701308
  0
ARC
  5
21A9
  8
0
 10
26.287332458499979
 20
157.52045499560001
 30
0.0
 40
0.9916090762371222
 50
90.408278862099365
 51
177.46145331640039
  0
POLYLINE
  5
21AC
  8
0
 66
     1
 10
0.0
 20
0.0
 30
0.0
 70
   128
  0
VERTEX
  5
3744
  8
0
 10
28.943547148913069
 20
157.1297918075
 30
0.0
  0
VERTEX
  5
3745
  8
0
 10
28.932881675899981
 20
157.28624545689999
 30
0.0
  0
VERTEX
  5
3746
  8
0
 10
28.901732460699979
 20
157.56437485270001
 30
0.0
  0
SEQEND
  5
3747
  8
0
  0
ARC
  5
21AE
  8
0
 10
27.903360600699958
 20
157.51231042059999
 30
0.0
 40
0.9997285010847551
 50
2.9852327942997201
 51
89.987125809300437
  0
LINE
  5
21B0
  8
0
 10
26.077857918100001
 20
158.51203889640001
 30
0.0
 11
27.90358544682687
 21
158.51203889640001
 31
0.0
  0
LINE
  5
21B1
  8
0
 10
23.558481093799969
 20
154.68498961110001
 30
0.0
 11
23.411913946499961
 21
154.6213627402
 31
0.0
  0
LINE
  5
21B2
  8
0
 10
23.05410076639998
 20
146.03820687449999
 30
0.0
 11
23.411913946499961
 21
154.6213627402
 31
0.0
  0
ARC
  5
21B3
  8
0
 10
23.513058971100008
 20
145.971662931
 30
0.0
 40
0.4637571886801002
 50
171.7502236357999
 51
262.34480638050019
  0
LINE
  5
21B9
  8
0
 10
23.084594739499948
 20
154.56437485270001
 30
0.0
 11
20.47362468459994
 21
154.56437485270001
 31
0.0
  0
LINE
  5
21BA
  8
0
 10
23.411913946499961
 20
154.6213627402
 30
0.0
 11
23.084594739499948
 21
154.56437485270001
 31
0.0
  0
LINE
  5
21BE
  8
0
 10
20.411210338699959
 20
155.51203889640001
 30
0.0
 11
23.784128951999939
 21
155.51203889640001
 31
0.0
  0
LINE
  5
21BF
  8
0
 10
13.420634580199989
 20
155.51203889640001
 30
0.0
 11
20.411210338699959
 21
155.51203889640001
 31
0.0
  0
LINE
  5
21C8
  8
0
 10
29.052335956199951
 20
94.962373928400012
 30
0.0
 11
20.0
 21
94.487961103600014
 31
0.0
  0
ARC
  5
21D0
  8
0
 10
29.0
 20
95.961003463100013
 30
0.0
 40
0.9999999999999968
 50
272.99999999999909
 51
0.0
  0
ARC
  5
21D2
  8
0
 10
28.568583712199938
 20
143.09048255740001
 30
0.0
 40
0.5027377070600985
 50
183.2580966334996
 51
267.13145799569901
  0
LINE
  5
21D5
  8
0
 10
27.937253933199941
 20
145.51203889640001
 30
0.0
 11
28.06665860569996
 21
143.0619100266
 31
0.0
  0
LINE
  5
21DE
  8
0
 10
20.0
 20
94.487961103600014
 30
0.0
 11
10.9476640437
 21
94.962373928400012
 31
0.0
  0
ARC
  5
21E6
  8
0
 10
11.0
 20
95.961003463100013
 30
0.0
 40
0.999999999999996
 50
180.0
 51
267.00000000000091
  0
LINE
  5
21E9
  8
0
 10
29.02551771659995
 20
145.51203889640001
 30
0.0
 11
12.0
 21
145.51203889640001
 31
0.0
  0
ARC
  5
21EE
  8
0
 10
20.949282294899941
 20
159.79278268670001
 30
0.0
 40
5.7356314801354937
 50
297.05917370910038
 51
314.68012328699831
  0
ARC
  5
21F1
  8
0
 10
24.201008899699961
 20
154.77523599220001
 30
0.0
 40
0.8039576001314781
 50
111.75485729619879
 51
191.03419054829919
  0
LINE
  5
21F2
  8
0
 10
11.975167515899949
 20
146.03820687449999
 30
0.0
 11
29.524832483978351
 21
146.03820687449999
 31
0.0
  0
LINE
  5
21F3
  8
0
 10
20.47362468459994
 20
154.56437485270001
 30
0.0
 11
12.422005045499979
 21
154.56437485270001
 31
0.0
  0
ARC
  5
21F7
  8
0
 10
100.0
 20
204.73832021878181
 30
0.0
 40
8.0255177166425664
 50
255.52248781410029
 51
262.83777184540082
  0
ARC
  5
21F8
  8
0
 10
97.250000000000014
 20
194.08761601678179
 30
0.0
 40
2.974482283357446
 50
75.522487814100344
 51
106.86457823439839
  0
ARC
  5
21F9
  8
0
 10
84.775243742899974
 20
235.23832021878181
 30
0.0
 40
40.025517716642561
 50
258.19323203439978
 51
286.86457823439849
  0
ARC
  5
21FA
  8
0
 10
89.021505396900011
 20
204.05082021878181
 30
0.0
 40
2.974482283357446
 50
0.0
 51
3.5833216985013419
  0
ARC
  5
21FB
  8
0
 10
89.021505396900011
 20
204.05082021878181
 30
0.0
 40
2.974482283357446
 50
307.30210036999858
 51
0.0
  0
ARC
  5
21FC
  8
0
 10
84.779382472599991
 20
209.6189790791818
 30
0.0
 40
9.9744822833574354
 50
257.21992864389807
 51
307.30210036999858
  0
ARC
  5
21FD
  8
0
 10
79.249149789199976
 20
185.23832021878181
 30
0.0
 40
15.025517716642581
 50
77.21992864390144
 51
99.96296171269897
  0
ARC
  5
21FE
  8
0
 10
77.000000000007731
 20
198.0422776236683
 30
0.0
 40
2.0255177166572209
 50
99.962961712847786
 51
258.19323203419032
  0
ARC
  5
2200
  8
0
 10
79.249149789199976
 20
185.23832021878181
 30
0.0
 40
13.422142081888641
 50
77.21992864390144
 51
99.96296171269897
  0
ARC
  5
2201
  8
0
 10
84.779382472599991
 20
209.6189790791818
 30
0.0
 40
11.57785791811137
 50
257.21992864389807
 51
264.0600768052991
  0
ARC
  5
2203
  8
0
 10
84.775243742899974
 20
235.23832021878181
 30
0.0
 40
38.42214208188863
 50
258.19323203439978
 51
268.21919488049969
  0
ARC
  5
2204
  8
0
 10
77.0
 20
198.0422776236818
 30
0.0
 40
0.4221420818886323
 50
99.96296171269897
 51
258.19323203439978
  0
LINE
  5
2208
  8
0
 10
83.92326090429998
 20
198.10328325088179
 30
0.0
 11
83.581240760900016
 21
198.10328325088179
 31
0.0
  0
LINE
  5
220A
  8
0
 10
83.581240760900016
 20
196.8347349819818
 30
0.0
 11
83.92326090429998
 21
196.8347349819818
 31
0.0
  0
POLYLINE
  5
2213
  8
0
 10
83.923260904234027
 20
196.83473498134543
 30
0.0
 66
     1
 70
     8
  0
VERTEX
  8
0
  5
3789
 10
83.9233
 20
196.835
 30
0.000000
  70
    32
  0
VERTEX
  8
0
  5
378A
 10
83.9852
 20
196.832
 30
0.000000
  70
    32
  0
VERTEX
  8
0
  5
378B
 10
84.0471
 20
196.829
 30
0.000000
  70
    32
  0
VERTEX
  8
0
  5
378C
 10
84.1091
 20
196.826
 30
0.000000
  70
    32
  0
VERTEX
  8
0
  5
378D
 10
84.1710
 20
196.823
 30
0.000000
  70
    32
  0
VERTEX
  8
0
  5
378E
 10
84.2329
 20
196.820
 30
0.000000
  70
    32
  0
VERTEX
  8
0
  5
378F
 10
84.2949
 20
196.818
 30
0.000000
  70
    32
  0
VERTEX
  8
0
  5
3790
 10
84.3568
 20
196.815
 30
0.000000
  70
    32
  0
VERTEX
  8
0
  5
3791
 10
84.4188
 20
196.813
 30
0.000000
  70
    32
  0
VERTEX
  8
0
  5
3792
 10
84.4808
 20
196.811
 30
0.000000
  70
    32
  0
VERTEX
  8
0
  5
3793
 10
84.5427
 20
196.809
 30
0.000000
  70
    32
  0
VERTEX
  8
0
  5
3794
 10
84.6047
 20
196.807
 30
0.000000
  70
    32
  0
VERTEX
  8
0
  5
3795
 10
84.6667
 20
196.805
 30
0.000000
  70
    32
  0
VERTEX
  8
0
  5
3796
 10
84.7286
 20
196.803
 30
0.000000
  70
    32
  0
VERTEX
  8
0
  5
3797
 10
84.7906
 20
196.801
 30
0.000000
  70
    32
  0
VERTEX
  8
0
  5
3798
 10
84.8526
 20
196.799
 30
0.000000
  70
    32
  0
VERTEX
  8
0
  5
3799
 10
84.9146
 20
196.798
 30
0.000000
  70
    32
  0
VERTEX
  8
0
  5
379A
 10
84.9766
 20
196.796
 30
0.000000
  70
    32
  0
VERTEX
  8
0
  5
379B
 10
85.0385
 20
196.795
 30
0.000000
  70
    32
  0
VERTEX
  8
0
  5
379C
 10
85.1005
 20
196.794
 30
0.000000
  70
    32
  0
VERTEX
  8
0
  5
379D
 10
85.1625
 20
196.793
 30
0.000000
  70
    32
  0
VERTEX
  8
0
  5
379E
 10
85.2245
 20
196.792
 30
0.000000
  70
    32
  0
VERTEX
  8
0
  5
379F
 10
85.2865
 20
196.791
 30
0.000000
  70
    32
  0
VERTEX
  8
0
  5
37A0
 10
85.3485
 20
196.790
 30
0.000000
  70
    32
  0
VERTEX
  8
0
  5
37A1
 10
85.4105
 20
196.789
 30
0.000000
  70
    32
  0
VERTEX
  8
0
  5
37A2
 10
85.4725
 20
196.788
 30
0.000000
  70
    32
  0
VERTEX
  8
0
  5
37A3
 10
85.5345
 20
196.788
 30
0.000000
  70
    32
  0
VERTEX
  8
0
  5
37A4
 10
85.5965
 20
196.787
 30
0.000000
  70
    32
  0
VERTEX
  8
0
  5
37A5
 10
85.6585
 20
196.787
 30
0.000000
  70
    32
  0
VERTEX
  8
0
  5
37A6
 10
85.7205
 20
196.787
 30
0.000000
  70
    32
  0
VERTEX
  8
0
  5
37A7
 10
85.7825
 20
196.786
 30
0.000000
  70
    32
  0
VERTEX
  8
0
  5
37A8
 10
85.8445
 20
196.786
 30
0.000000
  70
    32
  0
VERTEX
  8
0
  5
37A9
 10
85.9065
 20
196.786
 30
0.000000
  70
    32
  0
VERTEX
  8
0
  5
37AA
 10
85.9685
 20
196.787
 30
0.000000
  70
    32
  0
VERTEX
  8
0
  5
37AB
 10
86.0305
 20
196.787
 30
0.000000
  70
    32
  0
VERTEX
  8
0
  5
37AC
 10
86.0925
 20
196.787
 30
0.000000
  70
    32
  0
VERTEX
  8
0
  5
37AD
 10
86.1545
 20
196.788
 30
0.000000
  70
    32
  0
VERTEX
  8
0
  5
37AE
 10
86.2165
 20
196.788
 30
0.000000
  70
    32
  0
VERTEX
  8
0
  5
37AF
 10
86.2785
 20
196.789
 30
0.000000
  70
    32
  0
VERTEX
  8
0
  5
37B0
 10
86.3405
 20
196.790
 30
0.000000
  70
    32
  0
VERTEX
  8
0
  5
37B1
 10
86.4025
 20
196.790
 30
0.000000
  70
    32
  0
VERTEX
  8
0
  5
37B2
 10
86.4645
 20
196.791
 30
0.000000
  70
    32
  0
VERTEX
  8
0
  5
37B3
 10
86.5265
 20
196.792
 30
0.000000
  70
    32
  0
VERTEX
  8
0
  5
37B4
 10
86.5885
 20
196.793
 30
0.000000
  70
    32
  0
VERTEX
  8
0
  5
37B5
 10
86.6505
 20
196.795
 30
0.000000
  70
    32
  0
VERTEX
  8
0
  5
37B6
 10
86.7125
 20
196.796
 30
0.000000
  70
    32
  0
VERTEX
  8
0
  5
37B7
 10
86.7745
 20
196.797
 30
0.000000
  70
    32
  0
VERTEX
  8
0
  5
37B8
 10
86.8364
 20
196.799
 30
0.000000
  70
    32
  0
VERTEX
  8
0
  5
37B9
 10
86.8984
 20
196.801
 30
0.000000
  70
    32
  0
VERTEX
  8
0
  5
37BA
 10
86.9604
 20
196.802
 30
0.000000
  70
    32
  0
VERTEX
  8
0
  5
37BB
 10
87.0224
 20
196.804
 30
0.000000
  70
    32
  0
VERTEX
  8
0
  5
37BC
 10
87.0843
 20
196.806
 30
0.000000
  70
    32
  0
VERTEX
  8
0
  5
37BD
 10
87.1463
 20
196.808
 30
0.000000
  70
    32
  0
VERTEX
  8
0
  5
37BE
 10
87.2083
 20
196.810
 30
0.000000
  70
    32
  0
VERTEX
  8
0
  5
37BF
 10
87.2702
 20
196.813
 30
0.000000
  70
    32
  0
VERTEX
  8
0
  5
37C0
 10
87.3322
 20
196.815
 30
0.000000
  70
    32
  0
VERTEX
  8
0
  5
37C1
 10
87.3942
 20
196.817
 30
0.000000
  70
    32
  0
VERTEX
  8
0
  5
37C2
 10
87.4561
 20
196.820
 30
0.000000
  70
    32
  0
VERTEX
  8
0
  5
37C3
 10
87.5180
 20
196.823
 30
0.000000
  70
    32
  0
VERTEX
  8
0
  5
37C4
 10
87.5800
 20
196.825
 30
0.000000
  70
    32
  0
VERTEX
  8
0
  5
37C5
 10
87.6419
 20
196.828
 30
0.000000
  70
    32
  0
VERTEX
  8
0
  5
37C6
 10
87.7039
 20
196.831
 30
0.000000
  70
    32
  0
VERTEX
  8
0
  5
37C7
 10
87.7658
 20
196.834
 30
0.000000
  70
    32
  0
VERTEX
  8
0
  5
37C8
 10
87.8277
 20
196.837
 30
0.000000
  70
    32
  0
VERTEX
  8
0
  5
37C9
 10
87.8896
 20
196.840
 30
0.000000
  70
    32
  0
VERTEX
  8
0
  5
37CA
 10
87.9515
 20
196.844
 30
0.000000
  70
    32
  0
VERTEX
  8
0
  5
37CB
 10
88.0134
 20
196.847
 30
0.000000
  70
    32
  0
VERTEX
  8
0
  5
37CC
 10
88.0753
 20
196.851
 30
0.000000
  70
    32
  0
VERTEX
  8
0
  5
37CD
 10
88.1372
 20
196.854
 30
0.000000
  70
    32
  0
VERTEX
  8
0
  5
37CE
 10
88.1991
 20
196.858
 30
0.000000
  70
    32
  0
VERTEX
  8
0
  5
37CF
 10
88.2610
 20
196.862
 30
0.000000
  70
    32
  0
VERTEX
  8
0
  5
37D0
 10
88.3229
 20
196.866
 30
0.000000
  70
    32
  0
VERTEX
  8
0
  5
37D1
 10
88.3848
 20
196.870
 30
0.000000
  70
    32
  0
VERTEX
  8
0
  5
37D2
 10
88.4466
 20
196.874
 30
0.000000
  70
    32
  0
VERTEX
  8
0
  5
37D3
 10
88.5085
 20
196.878
 30
0.000000
  70
    32
  0
VERTEX
  8
0
  5
37D4
 10
88.5703
 20
196.883
 30
0.000000
  70
    32
  0
VERTEX
  8
0
  5
37D5
 10
88.6322
 20
196.887
 30
0.000000
  70
    32
  0
VERTEX
  8
0
  5
37D6
 10
88.6940
 20
196.892
 30
0.000000
  70
    32
  0
VERTEX
  8
0
  5
37D7
 10
88.7558
 20
196.896
 30
0.000000
  70
    32
  0
VERTEX
  8
0
  5
37D8
 10
88.8177
 20
196.901
 30
0.000000
  70
    32
  0
VERTEX
  8
0
  5
37D9
 10
88.8795
 20
196.906
 30
0.000000
  70
    32
  0
VERTEX
  8
0
  5
37DA
 10
88.9413
 20
196.911
 30
0.000000
  70
    32
  0
VERTEX
  8
0
  5
37DB
 10
89.0031
 20
196.916
 30
0.000000
  70
    32
  0
VERTEX
  8
0
  5
37DC
 10
89.0649
 20
196.921
 30
0.000000
  70
    32
  0
VERTEX
  8
0
  5
37DD
 10
89.1266
 20
196.926
 30
0.000000
  70
    32
  0
VERTEX
  8
0
  5
37DE
 10
89.1884
 20
196.931
 30
0.000000
  70
    32
  0
VERTEX
  8
0
  5
37DF
 10
89.2502
 20
196.937
 30
0.000000
  70
    32
  0
VERTEX
  8
0
  5
37E0
 10
89.3119
 20
196.942
 30
0.000000
  70
    32
  0
VERTEX
  8
0
  5
37E1
 10
89.3737
 20
196.948
 30
0.000000
  70
    32
  0
VERTEX
  8
0
  5
37E2
 10
89.4354
 20
196.954
 30
0.000000
  70
    32
  0
VERTEX
  8
0
  5
37E3
 10
89.4972
 20
196.960
 30
0.000000
  70
    32
  0
VERTEX
  8
0
  5
37E4
 10
89.5589
 20
196.966
 30
0.000000
  70
    32
  0
VERTEX
  8
0
  5
37E5
 10
89.6206
 20
196.972
 30
0.000000
  70
    32
  0
VERTEX
  8
0
  5
37E6
 10
89.6823
 20
196.978
 30
0.000000
  70
    32
  0
VERTEX
  8
0
  5
37E7
 10
89.7440
 20
196.984
 30
0.000000
  70
    32
  0
VERTEX
  8
0
  5
37E8
 10
89.8056
 20
196.990
 30
0.000000
  70
    32
  0
VERTEX
  8
0
  5
37E9
 10
89.8673
 20
196.997
 30
0.000000
  70
    32
  0
VERTEX
  8
0
  5
37EA
 10
89.9290
 20
197.003
 30
0.000000
  70
    32
  0
VERTEX
  8
0
  5
37EB
 10
89.9906
 20
197.010
 30
0.000000
  70
    32
  0
VERTEX
  8
0
  5
37EC
 10
90.0523
 20
197.017
 30
0.000000
  70
    32
  0
VERTEX
  8
0
  5
37ED
 10
90.1139
 20
197.023
 30
0.000000
  70
    32
  0
VERTEX
  8
0
  5
37EE
 10
90.1755
 20
197.030
 30
0.000000
  70
    32
  0
VERTEX
  8
0
  5
37EF
 10
90.2371
 20
197.037
 30
0.000000
  70
    32
  0
VERTEX
  8
0
  5
37F0
 10
90.2987
 20
197.044
 30
0.000000
  70
    32
  0
VERTEX
  8
0
  5
37F1
 10
90.3603
 20
197.052
 30
0.000000
  70
    32
  0
VERTEX
  8
0
  5
37F2
 10
90.4218
 20
197.059
 30
0.000000
  70
    32
  0
VERTEX
  8
0
  5
37F3
 10
90.4834
 20
197.066
 30
0.000000
  70
    32
  0
VERTEX
  8
0
  5
37F4
 10
90.5449
 20
197.074
 30
0.000000
  70
    32
  0
VERTEX
  8
0
  5
37F5
 10
90.6065
 20
197.082
 30
0.000000
  70
    32
  0
VERTEX
  8
0
  5
37F6
 10
90.6680
 20
197.089
 30
0.000000
  70
    32
  0
VERTEX
  8
0
  5
37F7
 10
90.7295
 20
197.097
 30
0.000000
  70
    32
  0
VERTEX
  8
0
  5
37F8
 10
90.7910
 20
197.105
 30
0.000000
  70
    32
  0
VERTEX
  8
0
  5
37F9
 10
90.8525
 20
197.113
 30
0.000000
  70
    32
  0
VERTEX
  8
0
  5
37FA
 10
90.9139
 20
197.121
 30
0.000000
  70
    32
  0
VERTEX
  8
0
  5
37FB
 10
90.9754
 20
197.129
 30
0.000000
  70
    32
  0
VERTEX
  8
0
  5
37FC
 10
91.0368
 20
197.138
 30
0.000000
  70
    32
  0
VERTEX
  8
0
  5
37FD
 10
91.0983
 20
197.146
 30
0.000000
  70
    32
  0
VERTEX
  8
0
  5
37FE
 10
91.1597
 20
197.155
 30
0.000000
  70
    32
  0
VERTEX
  8
0
  5
37FF
 10
91.2211
 20
197.163
 30
0.000000
  70
    32
  0
VERTEX
  8
0
  5
3800
 10
91.2825
 20
197.172
 30
0.000000
  70
    32
  0
VERTEX
  8
0
  5
3801
 10
91.3438
 20
197.181
 30
0.000000
  70
    32
  0
VERTEX
  8
0
  5
3802
 10
91.4052
 20
197.190
 30
0.000000
  70
    32
  0
VERTEX
  8
0
  5
3803
 10
91.4666
 20
197.199
 30
0.000000
  70
    32
  0
VERTEX
  8
0
  5
3804
 10
91.5279
 20
197.208
 30
0.000000
  70
    32
  0
VERTEX
  8
0
  5
3805
 10
91.5892
 20
197.217
 30
0.000000
  70
    32
  0
VERTEX
  8
0
  5
3806
 10
91.6505
 20
197.226
 30
0.000000
  70
    32
  0
VERTEX
  8
0
  5
3807
 10
91.7118
 20
197.236
 30
0.000000
  70
    32
  0
VERTEX
  8
0
  5
3808
 10
91.7731
 20
197.245
 30
0.000000
  70
    32
  0
VERTEX
  8
0
  5
3809
 10
91.8343
 20
197.255
 30
0.000000
  70
    32
  0
SEQEND
  8
0
  5
380A
  0
POLYLINE
  5
2218
  8
0
 10
83.923260904215311
 20
198.1032832506514
 30
0.0
 66
     1
 70
     8
  0
VERTEX
  8
0
  5
380B
 10
83.9233
 20
198.103
 30
0.000000
  70
    32
  0
VERTEX
  8
0
  5
380C
 10
83.9888
 20
198.098
 30
0.000000
  70
    32
  0
VERTEX
  8
0
  5
380D
 10
84.0543
 20
198.093
 30
0.000000
  70
    32
  0
VERTEX
  8
0
  5
380E
 10
84.1199
 20
198.088
 30
0.000000
  70
    32
  0
VERTEX
  8
0
  5
380F
 10
84.1855
 20
198.084
 30
0.000000
  70
    32
  0
VERTEX
  8
0
  5
3810
 10
84.2511
 20
198.080
 30
0.000000
  70
    32
  0
VERTEX
  8
0
  5
3811
 10
84.3168
 20
198.077
 30
0.000000
  70
    32
  0
VERTEX
  8
0
  5
3812
 10
84.3824
 20
198.074
 30
0.000000
  70
    32
  0
VERTEX
  8
0
  5
3813
 10
84.4481
 20
198.071
 30
0.000000
  70
    32
  0
VERTEX
  8
0
  5
3814
 10
84.5138
 20
198.068
 30
0.000000
  70
    32
  0
VERTEX
  8
0
  5
3815
 10
84.5795
 20
198.066
 30
0.000000
  70
    32
  0
VERTEX
  8
0
  5
3816
 10
84.6452
 20
198.065
 30
0.000000
  70
    32
  0
VERTEX
  8
0
  5
3817
 10
84.7110
 20
198.063
 30
0.000000
  70
    32
  0
VERTEX
  8
0
  5
3818
 10
84.7767
 20
198.063
 30
0.000000
  70
    32
  0
VERTEX
  8
0
  5
3819
 10
84.8424
 20
198.062
 30
0.000000
  70
    32
  0
VERTEX
  8
0
  5
381A
 10
84.9082
 20
198.062
 30
0.000000
  70
    32
  0
VERTEX
  8
0
  5
381B
 10
84.9739
 20
198.062
 30
0.000000
  70
    32
  0
VERTEX
  8
0
  5
381C
 10
85.0396
 20
198.063
 30
0.000000
  70
    32
  0
VERTEX
  8
0
  5
381D
 10
85.1054
 20
198.064
 30
0.000000
  70
    32
  0
VERTEX
  8
0
  5
381E
 10
85.1711
 20
198.065
 30
0.000000
  70
    32
  0
VERTEX
  8
0
  5
381F
 10
85.2368
 20
198.067
 30
0.000000
  70
    32
  0
VERTEX
  8
0
  5
3820
 10
85.3025
 20
198.069
 30
0.000000
  70
    32
  0
VERTEX
  8
0
  5
3821
 10
85.3682
 20
198.071
 30
0.000000
  70
    32
  0
VERTEX
  8
0
  5
3822
 10
85.4339
 20
198.074
 30
0.000000
  70
    32
  0
VERTEX
  8
0
  5
3823
 10
85.4995
 20
198.077
 30
0.000000
  70
    32
  0
VERTEX
  8
0
  5
3824
 10
85.5652
 20
198.081
 30
0.000000
  70
    32
  0
VERTEX
  8
0
  5
3825
 10
85.6308
 20
198.085
 30
0.000000
  70
    32
  0
VERTEX
  8
0
  5
3826
 10
85.6964
 20
198.089
 30
0.000000
  70
    32
  0
VERTEX
  8
0
  5
3827
 10
85.7620
 20
198.094
 30
0.000000
  70
    32
  0
VERTEX
  8
0
  5
3828
 10
85.8275
 20
198.099
 30
0.000000
  70
    32
  0
VERTEX
  8
0
  5
3829
 10
85.8930
 20
198.105
 30
0.000000
  70
    32
  0
VERTEX
  8
0
  5
382A
 10
85.9585
 20
198.110
 30
0.000000
  70
    32
  0
VERTEX
  8
0
  5
382B
 10
86.0239
 20
198.117
 30
0.000000
  70
    32
  0
VERTEX
  8
0
  5
382C
 10
86.0894
 20
198.123
 30
0.000000
  70
    32
  0
VERTEX
  8
0
  5
382D
 10
86.1547
 20
198.130
 30
0.000000
  70
    32
  0
VERTEX
  8
0
  5
382E
 10
86.2201
 20
198.137
 30
0.000000
  70
    32
  0
VERTEX
  8
0
  5
382F
 10
86.2853
 20
198.145
 30
0.000000
  70
    32
  0
VERTEX
  8
0
  5
3830
 10
86.3506
 20
198.153
 30
0.000000
  70
    32
  0
VERTEX
  8
0
  5
3831
 10
86.4158
 20
198.162
 30
0.000000
  70
    32
  0
VERTEX
  8
0
  5
3832
 10
86.4809
 20
198.170
 30
0.000000
  70
    32
  0
VERTEX
  8
0
  5
3833
 10
86.5460
 20
198.180
 30
0.000000
  70
    32
  0
VERTEX
  8
0
  5
3834
 10
86.6111
 20
198.189
 30
0.000000
  70
    32
  0
VERTEX
  8
0
  5
3835
 10
86.6761
 20
198.199
 30
0.000000
  70
    32
  0
VERTEX
  8
0
  5
3836
 10
86.7410
 20
198.209
 30
0.000000
  70
    32
  0
VERTEX
  8
0
  5
3837
 10
86.8059
 20
198.220
 30
0.000000
  70
    32
  0
VERTEX
  8
0
  5
3838
 10
86.8707
 20
198.231
 30
0.000000
  70
    32
  0
VERTEX
  8
0
  5
3839
 10
86.9354
 20
198.242
 30
0.000000
  70
    32
  0
VERTEX
  8
0
  5
383A
 10
87.0001
 20
198.254
 30
0.000000
  70
    32
  0
VERTEX
  8
0
  5
383B
 10
87.0647
 20
198.266
 30
0.000000
  70
    32
  0
VERTEX
  8
0
  5
383C
 10
87.1292
 20
198.279
 30
0.000000
  70
    32
  0
VERTEX
  8
0
  5
383D
 10
87.1937
 20
198.292
 30
0.000000
  70
    32
  0
VERTEX
  8
0
  5
383E
 10
87.2581
 20
198.305
 30
0.000000
  70
    32
  0
VERTEX
  8
0
  5
383F
 10
87.3224
 20
198.318
 30
0.000000
  70
    32
  0
VERTEX
  8
0
  5
3840
 10
87.3867
 20
198.332
 30
0.000000
  70
    32
  0
VERTEX
  8
0
  5
3841
 10
87.4508
 20
198.347
 30
0.000000
  70
    32
  0
VERTEX
  8
0
  5
3842
 10
87.5149
 20
198.361
 30
0.000000
  70
    32
  0
VERTEX
  8
0
  5
3843
 10
87.5789
 20
198.376
 30
0.000000
  70
    32
  0
VERTEX
  8
0
  5
3844
 10
87.6428
 20
198.392
 30
0.000000
  70
    32
  0
VERTEX
  8
0
  5
3845
 10
87.7066
 20
198.407
 30
0.000000
  70
    32
  0
VERTEX
  8
0
  5
3846
 10
87.7703
 20
198.424
 30
0.000000
  70
    32
  0
VERTEX
  8
0
  5
3847
 10
87.8340
 20
198.440
 30
0.000000
  70
    32
  0
VERTEX
  8
0
  5
3848
 10
87.8975
 20
198.457
 30
0.000000
  70
    32
  0
VERTEX
  8
0
  5
3849
 10
87.9610
 20
198.474
 30
0.000000
  70
    32
  0
VERTEX
  8
0
  5
384A
 10
88.0243
 20
198.492
 30
0.000000
  70
    32
  0
VERTEX
  8
0
  5
384B
 10
88.0875
 20
198.510
 30
0.000000
  70
    32
  0
VERTEX
  8
0
  5
384C
 10
88.1507
 20
198.528
 30
0.000000
  70
    32
  0
VERTEX
  8
0
  5
384D
 10
88.2137
 20
198.547
 30
0.000000
  70
    32
  0
VERTEX
  8
0
  5
384E
 10
88.2766
 20
198.566
 30
0.000000
  70
    32
  0
VERTEX
  8
0
  5
384F
 10
88.3395
 20
198.585
 30
0.000000
  70
    32
  0
VERTEX
  8
0
  5
3850
 10
88.4022
 20
198.605
 30
0.000000
  70
    32
  0
VERTEX
  8
0
  5
3851
 10
88.4648
 20
198.625
 30
0.000000
  70
    32
  0
VERTEX
  8
0
  5
3852
 10
88.5272
 20
198.645
 30
0.000000
  70
    32
  0
VERTEX
  8
0
  5
3853
 10
88.5896
 20
198.666
 30
0.000000
  70
    32
  0
VERTEX
  8
0
  5
3854
 10
88.6518
 20
198.687
 30
0.000000
  70
    32
  0
VERTEX
  8
0
  5
3855
 10
88.7140
 20
198.709
 30
0.000000
  70
    32
  0
VERTEX
  8
0
  5
3856
 10
88.7760
 20
198.731
 30
0.000000
  70
    32
  0
VERTEX
  8
0
  5
3857
 10
88.8378
 20
198.753
 30
0.000000
  70
    32
  0
VERTEX
  8
0
  5
3858
 10
88.8996
 20
198.775
 30
0.000000
  70
    32
  0
VERTEX
  8
0
  5
3859
 10
88.9612
 20
198.798
 30
0.000000
  70
    32
  0
VERTEX
  8
0
  5
385A
 10
89.0227
 20
198.822
 30
0.000000
  70
    32
  0
VERTEX
  8
0
  5
385B
 10
89.0840
 20
198.845
 30
0.000000
  70
    32
  0
VERTEX
  8
0
  5
385C
 10
89.1452
 20
198.869
 30
0.000000
  70
    32
  0
VERTEX
  8
0
  5
385D
 10
89.2063
 20
198.893
 30
0.000000
  70
    32
  0
VERTEX
  8
0
  5
385E
 10
89.2673
 20
198.918
 30
0.000000
  70
    32
  0
VERTEX
  8
0
  5
385F
 10
89.3280
 20
198.943
 30
0.000000
  70
    32
  0
VERTEX
  8
0
  5
3860
 10
89.3887
 20
198.968
 30
0.000000
  70
    32
  0
VERTEX
  8
0
  5
3861
 10
89.4492
 20
198.994
 30
0.000000
  70
    32
  0
VERTEX
  8
0
  5
3862
 10
89.5096
 20
199.020
 30
0.000000
  70
    32
  0
VERTEX
  8
0
  5
3863
 10
89.5698
 20
199.047
 30
0.000000
  70
    32
  0
VERTEX
  8
0
  5
3864
 10
89.6298
 20
199.073
 30
0.000000
  70
    32
  0
VERTEX
  8
0
  5
3865
 10
89.6898
 20
199.100
 30
0.000000
  70
    32
  0
VERTEX
  8
0
  5
3866
 10
89.7495
 20
199.128
 30
0.000000
  70
    32
  0
VERTEX
  8
0
  5
3867
 10
89.8091
 20
199.155
 30
0.000000
  70
    32
  0
VERTEX
  8
0
  5
3868
 10
89.8685
 20
199.184
 30
0.000000
  70
    32
  0
VERTEX
  8
0
  5
3869
 10
89.9278
 20
199.212
 30
0.000000
  70
    32
  0
VERTEX
  8
0
  5
386A
 10
89.9869
 20
199.241
 30
0.000000
  70
    32
  0
VERTEX
  8
0
  5
386B
 10
90.0459
 20
199.270
 30
0.000000
  70
    32
  0
VERTEX
  8
0
  5
386C
 10
90.1047
 20
199.299
 30
0.000000
  70
    32
  0
VERTEX
  8
0
  5
386D
 10
90.1633
 20
199.329
 30
0.000000
  70
    32
  0
VERTEX
  8
0
  5
386E
 10
90.2217
 20
199.359
 30
0.000000
  70
    32
  0
VERTEX
  8
0
  5
386F
 10
90.2800
 20
199.389
 30
0.000000
  70
    32
  0
VERTEX
  8
0
  5
3870
 10
90.3381
 20
199.420
 30
0.000000
  70
    32
  0
VERTEX
  8
0
  5
3871
 10
90.3960
 20
199.451
 30
0.000000
  70
    32
  0
VERTEX
  8
0
  5
3872
 10
90.4538
 20
199.483
 30
0.000000
  70
    32
  0
VERTEX
  8
0
  5
3873
 10
90.5113
 20
199.514
 30
0.000000
  70
    32
  0
VERTEX
  8
0
  5
3874
 10
90.5687
 20
199.547
 30
0.000000
  70
    32
  0
VERTEX
  8
0
  5
3875
 10
90.6259
 20
199.579
 30
0.000000
  70
    32
  0
VERTEX
  8
0
  5
3876
 10
90.6829
 20
199.612
 30
0.000000
  70
    32
  0
VERTEX
  8
0
  5
3877
 10
90.7398
 20
199.645
 30
0.000000
  70
    32
  0
VERTEX
  8
0
  5
3878
 10
90.7964
 20
199.678
 30
0.000000
  70
    32
  0
VERTEX
  8
0
  5
3879
 10
90.8529
 20
199.712
 30
0.000000
  70
    32
  0
VERTEX
  8
0
  5
387A
 10
90.9091
 20
199.746
 30
0.000000
  70
    32
  0
VERTEX
  8
0
  5
387B
 10
90.9652
 20
199.780
 30
0.000000
  70
    32
  0
VERTEX
  8
0
  5
387C
 10
91.0211
 20
199.815
 30
0.000000
  70
    32
  0
VERTEX
  8
0
  5
387D
 10
91.0767
 20
199.850
 30
0.000000
  70
    32
  0
VERTEX
  8
0
  5
387E
 10
91.1322
 20
199.885
 30
0.000000
  70
    32
  0
VERTEX
  8
0
  5
387F
 10
91.1875
 20
199.921
 30
0.000000
  70
    32
  0
VERTEX
  8
0
  5
3880
 10
91.2425
 20
199.956
 30
0.000000
  70
    32
  0
VERTEX
  8
0
  5
3881
 10
91.2974
 20
199.993
 30
0.000000
  70
    32
  0
VERTEX
  8
0
  5
3882
 10
91.3520
 20
200.029
 30
0.000000
  70
    32
  0
VERTEX
  8
0
  5
3883
 10
91.4065
 20
200.066
 30
0.000000
  70
    32
  0
VERTEX
  8
0
  5
3884
 10
91.4607
 20
200.103
 30
0.000000
  70
    32
  0
VERTEX
  8
0
  5
3885
 10
91.5147
 20
200.141
 30
0.000000
  70
    32
  0
VERTEX
  8
0
  5
3886
 10
91.5685
 20
200.178
 30
0.000000
  70
    32
  0
VERTEX
  8
0
  5
3887
 10
91.6221
 20
200.216
 30
0.000000
  70
    32
  0
VERTEX
  8
0
  5
3888
 10
91.6755
 20
200.255
 30
0.000000
  70
    32
  0
VERTEX
  8
0
  5
3889
 10
91.7287
 20
200.293
 30
0.000000
  70
    32
  0
VERTEX
  8
0
  5
388A
 10
91.7816
 20
200.332
 30
0.000000
  70
    32
  0
VERTEX
  8
0
  5
388B
 10
91.8343
 20
200.372
 30
0.000000
  70
    32
  0
SEQEND
  8
0
  5
388C
  0
LINE
  5
2226
  8
0
 10
91.834306837399993
 20
197.25462532088179
 30
0.0
 11
92.176326980700026
 21
197.37552313388181
 31
0.0
  0
LINE
  5
2228
  8
0
 10
91.939312249800025
 20
200.53204514478179
 30
0.0
 11
91.834306837399993
 21
200.3716965479818
 31
0.0
  0
LINE
  5
2229
  8
0
 10
92.176326980700026
 20
200.95419126678181
 30
0.0
 11
91.939312249800025
 21
200.53204514478179
 31
0.0
  0
ARC
  5
2231
  8
0
 10
100.0
 20
204.73832021878181
 30
0.0
 40
6.5793654197377451
 50
278.74228744330031
 51
183.58332169850129
  0
ARC
  5
2234
  8
0
 10
100.0
 20
204.73832021878181
 30
0.0
 40
6.5793654197377442
 50
255.52248781410029
 51
261.25771255669969
  0
ARC
  5
2237
  8
0
 10
100.0
 20
201.73832021878181
 30
0.0
 40
1.0
 50
0.0
 51
180.0
  0
ARC
  5
2238
  8
0
 10
97.250000000000014
 20
194.08761601678179
 30
0.0
 40
4.4206345802622611
 50
75.522487814100344
 51
106.86457823439839
  0
ARC
  5
2239
  8
0
 10
84.775243742899974
 20
235.23832021878181
 30
0.0
 40
38.579365419737748
 50
281.06021090439941
 51
286.86457823439849
  0
ARC
  5
223A
  8
0
 10
89.021505396900011
 20
204.05082021878181
 30
0.0
 40
4.4206345802622549
 50
315.53333156520029
 51
3.5833216985013419
  0
LINE
  5
223B
  8
0
 10
99.000000000000057
 20
194.73832021878181
 30
0.0
 11
99.0
 21
201.73832021878181
 31
0.0
  0
LINE
  5
223C
  8
0
 10
100.9999999999999
 20
194.73832021878181
 30
0.0
 11
101.0
 21
201.73832021878181
 31
0.0
  0
ARC
  5
2244
  8
0
 10
100.0
 20
204.73832021878181
 30
0.0
 40
8.0248324840198482
 50
277.15841872750099
 51
183.58332169850129
  0
ARC
  5
2247
  8
0
 10
97.250000000000014
 20
194.08761601678179
 30
0.0
 40
2.975167515980166
 50
75.522487814100344
 51
106.86457823439839
  0
ARC
  5
2248
  8
0
 10
100.0
 20
204.73832021878181
 30
0.0
 40
8.0248324840198482
 50
255.52248781410029
 51
262.8415812724989
  0
LINE
  5
2251
  8
0
 10
99.0
 20
197.10904866618179
 30
0.0
 11
101.0
 21
197.10904866618179
 31
0.0
  0
LINE
  5
2257
  8
0
 10
118.0240777928
 20
204.73832021878181
 30
0.0
 11
117.549664968
 21
195.6859842625818
 31
0.0
  0
LINE
  5
225B
  8
0
 10
101.0
 20
195.6859842625818
 30
0.0
 11
117.549664968
 21
195.68598426258171
 31
0.0
  0
LINE
  5
2260
  8
0
 10
82.226029232700014
 20
199.96599387868179
 30
0.0
 11
81.975922207199972
 21
204.73832021878181
 31
0.0
  0
ARC
  5
2263
  8
0
 10
116.5510354333
 20
195.73832021878181
 30
0.0
 40
0.9999999999999968
 50
270.0
 51
357.00000000000063
  0
LINE
  5
226A
  8
0
 10
116.5510354333
 20
194.73832021878181
 30
0.0
 11
83.448964566699985
 21
194.73832021878181
 31
0.0
  0
ARC
  5
226B
  8
0
 10
83.448964566699985
 20
195.73832021878181
 30
0.0
 40
1.0000000000000071
 50
207.66829581629889
 51
270.0
  0
POLYLINE
  5
2274
  8
0
 10
101.0
 20
196.18982439767294
 30
0.0
 66
     1
 70
     8
  0
VERTEX
  8
0
  5
388D
 10
101.000
 20
196.190
 30
0.000000
  70
    32
  0
VERTEX
  8
0
  5
388E
 10
101.306
 20
196.231
 30
0.000000
  70
    32
  0
VERTEX
  8
0
  5
388F
 10
101.611
 20
196.284
 30
0.000000
  70
    32
  0
VERTEX
  8
0
  5
3890
 10
101.913
 20
196.347
 30
0.000000
  70
    32
  0
VERTEX
  8
0
  5
3891
 10
102.213
 20
196.421
 30
0.000000
  70
    32
  0
VERTEX
  8
0
  5
3892
 10
102.510
 20
196.506
 30
0.000000
  70
    32
  0
VERTEX
  8
0
  5
3893
 10
102.804
 20
196.601
 30
0.000000
  70
    32
  0
VERTEX
  8
0
  5
3894
 10
103.094
 20
196.707
 30
0.000000
  70
    32
  0
VERTEX
  8
0
  5
3895
 10
103.380
 20
196.823
 30
0.000000
  70
    32
  0
VERTEX
  8
0
  5
3896
 10
103.662
 20
196.950
 30
0.000000
  70
    32
  0
VERTEX
  8
0
  5
3897
 10
103.939
 20
197.086
 30
0.000000
  70
    32
  0
VERTEX
  8
0
  5
3898
 10
104.211
 20
197.232
 30
0.000000
  70
    32
  0
VERTEX
  8
0
  5
3899
 10
104.478
 20
197.388
 30
0.000000
  70
    32
  0
VERTEX
  8
0
  5
389A
 10
104.739
 20
197.554
 30
0.000000
  70
    32
  0
VERTEX
  8
0
  5
389B
 10
104.993
 20
197.729
 30
0.000000
  70
    32
  0
VERTEX
  8
0
  5
389C
 10
105.242
 20
197.912
 30
0.000000
  70
    32
  0
VERTEX
  8
0
  5
389D
 10
105.483
 20
198.105
 30
0.000000
  70
    32
  0
VERTEX
  8
0
  5
389E
 10
105.718
 20
198.306
 30
0.000000
  70
    32
  0
VERTEX
  8
0
  5
389F
 10
105.945
 20
198.515
 30
0.000000
  70
    32
  0
VERTEX
  8
0
  5
38A0
 10
106.164
 20
198.733
 30
0.000000
  70
    32
  0
VERTEX
  8
0
  5
38A1
 10
106.376
 20
198.958
 30
0.000000
  70
    32
  0
VERTEX
  8
0
  5
38A2
 10
106.579
 20
199.190
 30
0.000000
  70
    32
  0
VERTEX
  8
0
  5
38A3
 10
106.774
 20
199.430
 30
0.000000
  70
    32
  0
VERTEX
  8
0
  5
38A4
 10
106.960
 20
199.677
 30
0.000000
  70
    32
  0
VERTEX
  8
0
  5
38A5
 10
107.137
 20
199.930
 30
0.000000
  70
    32
  0
VERTEX
  8
0
  5
38A6
 10
107.305
 20
200.189
 30
0.000000
  70
    32
  0
VERTEX
  8
0
  5
38A7
 10
107.463
 20
200.454
 30
0.000000
  70
    32
  0
VERTEX
  8
0
  5
38A8
 10
107.612
 20
200.725
 30
0.000000
  70
    32
  0
VERTEX
  8
0
  5
38A9
 10
107.751
 20
201.001
 30
0.000000
  70
    32
  0
VERTEX
  8
0
  5
38AA
 10
107.880
 20
201.281
 30
0.000000
  70
    32
  0
VERTEX
  8
0
  5
38AB
 10
107.999
 20
201.567
 30
0.000000
  70
    32
  0
VERTEX
  8
0
  5
38AC
 10
108.108
 20
201.856
 30
0.000000
  70
    32
  0
VERTEX
  8
0
  5
38AD
 10
108.206
 20
202.149
 30
0.000000
  70
    32
  0
VERTEX
  8
0
  5
38AE
 10
108.294
 20
202.445
 30
0.000000
  70
    32
  0
VERTEX
  8
0
  5
38AF
 10
108.371
 20
202.744
 30
0.000000
  70
    32
  0
VERTEX
  8
0
  5
38B0
 10
108.437
 20
203.046
 30
0.000000
  70
    32
  0
VERTEX
  8
0
  5
38B1
 10
108.492
 20
203.350
 30
0.000000
  70
    32
  0
VERTEX
  8
0
  5
38B2
 10
108.536
 20
203.655
 30
0.000000
  70
    32
  0
VERTEX
  8
0
  5
38B3
 10
108.569
 20
203.963
 30
0.000000
  70
    32
  0
VERTEX
  8
0
  5
38B4
 10
108.592
 20
204.271
 30
0.000000
  70
    32
  0
VERTEX
  8
0
  5
38B5
 10
108.603
 20
204.579
 30
0.000000
  70
    32
  0
VERTEX
  8
0
  5
38B6
 10
108.603
 20
204.888
 30
0.000000
  70
    32
  0
VERTEX
  8
0
  5
38B7
 10
108.592
 20
205.197
 30
0.000000
  70
    32
  0
VERTEX
  8
0
  5
38B8
 10
108.570
 20
205.505
 30
0.000000
  70
    32
  0
VERTEX
  8
0
  5
38B9
 10
108.537
 20
205.812
 30
0.000000
  70
    32
  0
VERTEX
  8
0
  5
38BA
 10
108.493
 20
206.118
 30
0.000000
  70
    32
  0
VERTEX
  8
0
  5
38BB
 10
108.437
 20
206.422
 30
0.000000
  70
    32
  0
VERTEX
  8
0
  5
38BC
 10
108.371
 20
206.724
 30
0.000000
  70
    32
  0
VERTEX
  8
0
  5
38BD
 10
108.295
 20
207.023
 30
0.000000
  70
    32
  0
VERTEX
  8
0
  5
38BE
 10
108.207
 20
207.319
 30
0.000000
  70
    32
  0
VERTEX
  8
0
  5
38BF
 10
108.109
 20
207.612
 30
0.000000
  70
    32
  0
VERTEX
  8
0
  5
38C0
 10
108.001
 20
207.901
 30
0.000000
  70
    32
  0
VERTEX
  8
0
  5
38C1
 10
107.882
 20
208.186
 30
0.000000
  70
    32
  0
VERTEX
  8
0
  5
38C2
 10
107.753
 20
208.467
 30
0.000000
  70
    32
  0
VERTEX
  8
0
  5
38C3
 10
107.614
 20
208.743
 30
0.000000
  70
    32
  0
VERTEX
  8
0
  5
38C4
 10
107.465
 20
209.014
 30
0.000000
  70
    32
  0
VERTEX
  8
0
  5
38C5
 10
107.307
 20
209.279
 30
0.000000
  70
    32
  0
VERTEX
  8
0
  5
38C6
 10
107.139
 20
209.538
 30
0.000000
  70
    32
  0
VERTEX
  8
0
  5
38C7
 10
106.962
 20
209.792
 30
0.000000
  70
    32
  0
VERTEX
  8
0
  5
38C8
 10
106.776
 20
210.038
 30
0.000000
  70
    32
  0
VERTEX
  8
0
  5
38C9
 10
106.582
 20
210.278
 30
0.000000
  70
    32
  0
VERTEX
  8
0
  5
38CA
 10
106.378
 20
210.511
 30
0.000000
  70
    32
  0
VERTEX
  8
0
  5
38CB
 10
106.167
 20
210.736
 30
0.000000
  70
    32
  0
VERTEX
  8
0
  5
38CC
 10
105.948
 20
210.953
 30
0.000000
  70
    32
  0
VERTEX
  8
0
  5
38CD
 10
105.721
 20
211.163
 30
0.000000
  70
    32
  0
VERTEX
  8
0
  5
38CE
 10
105.486
 20
211.364
 30
0.000000
  70
    32
  0
VERTEX
  8
0
  5
38CF
 10
105.245
 20
211.557
 30
0.000000
  70
    32
  0
VERTEX
  8
0
  5
38D0
 10
104.997
 20
211.741
 30
0.000000
  70
    32
  0
VERTEX
  8
0
  5
38D1
 10
104.742
 20
211.915
 30
0.000000
  70
    32
  0
VERTEX
  8
0
  5
38D2
 10
104.481
 20
212.081
 30
0.000000
  70
    32
  0
VERTEX
  8
0
  5
38D3
 10
104.215
 20
212.237
 30
0.000000
  70
    32
  0
VERTEX
  8
0
  5
38D4
 10
103.943
 20
212.384
 30
0.000000
  70
    32
  0
VERTEX
  8
0
  5
38D5
 10
103.665
 20
212.520
 30
0.000000
  70
    32
  0
VERTEX
  8
0
  5
38D6
 10
103.384
 20
212.647
 30
0.000000
  70
    32
  0
VERTEX
  8
0
  5
38D7
 10
103.098
 20
212.763
 30
0.000000
  70
    32
  0
VERTEX
  8
0
  5
38D8
 10
102.807
 20
212.869
 30
0.000000
  70
    32
  0
VERTEX
  8
0
  5
38D9
 10
102.514
 20
212.965
 30
0.000000
  70
    32
  0
VERTEX
  8
0
  5
38DA
 10
102.217
 20
213.050
 30
0.000000
  70
    32
  0
VERTEX
  8
0
  5
38DB
 10
101.917
 20
213.124
 30
0.000000
  70
    32
  0
VERTEX
  8
0
  5
38DC
 10
101.614
 20
213.187
 30
0.000000
  70
    32
  0
VERTEX
  8
0
  5
38DD
 10
101.310
 20
213.240
 30
0.000000
  70
    32
  0
VERTEX
  8
0
  5
38DE
 10
101.004
 20
213.281
 30
0.000000
  70
    32
  0
VERTEX
  8
0
  5
38DF
 10
100.697
 20
213.312
 30
0.000000
  70
    32
  0
VERTEX
  8
0
  5
38E0
 10
100.388
 20
213.331
 30
0.000000
  70
    32
  0
VERTEX
  8
0
  5
38E1
 10
100.079
 20
213.340
 30
0.000000
  70
    32
  0
VERTEX
  8
0
  5
38E2
 10
99.7706
 20
213.337
 30
0.000000
  70
    32
  0
VERTEX
  8
0
  5
38E3
 10
99.4620
 20
213.323
 30
0.000000
  70
    32
  0
VERTEX
  8
0
  5
38E4
 10
99.1541
 20
213.298
 30
0.000000
  70
    32
  0
VERTEX
  8
0
  5
38E5
 10
98.8473
 20
213.262
 30
0.000000
  70
    32
  0
VERTEX
  8
0
  5
38E6
 10
98.5420
 20
213.216
 30
0.000000
  70
    32
  0
VERTEX
  8
0
  5
38E7
 10
98.2385
 20
213.158
 30
0.000000
  70
    32
  0
VERTEX
  8
0
  5
38E8
 10
97.9373
 20
213.089
 30
0.000000
  70
    32
  0
VERTEX
  8
0
  5
38E9
 10
97.6388
 20
213.010
 30
0.000000
  70
    32
  0
VERTEX
  8
0
  5
38EA
 10
97.3434
 20
212.920
 30
0.000000
  70
    32
  0
VERTEX
  8
0
  5
38EB
 10
97.0513
 20
212.819
 30
0.000000
  70
    32
  0
VERTEX
  8
0
  5
38EC
 10
96.7631
 20
212.708
 30
0.000000
  70
    32
  0
VERTEX
  8
0
  5
38ED
 10
96.4790
 20
212.587
 30
0.000000
  70
    32
  0
VERTEX
  8
0
  5
38EE
 10
96.1994
 20
212.455
 30
0.000000
  70
    32
  0
VERTEX
  8
0
  5
38EF
 10
95.9248
 20
212.314
 30
0.000000
  70
    32
  0
VERTEX
  8
0
  5
38F0
 10
95.6554
 20
212.163
 30
0.000000
  70
    32
  0
VERTEX
  8
0
  5
38F1
 10
95.3916
 20
212.002
 30
0.000000
  70
    32
  0
VERTEX
  8
0
  5
38F2
 10
95.1338
 20
211.832
 30
0.000000
  70
    32
  0
VERTEX
  8
0
  5
38F3
 10
94.8822
 20
211.653
 30
0.000000
  70
    32
  0
VERTEX
  8
0
  5
38F4
 10
94.6372
 20
211.464
 30
0.000000
  70
    32
  0
VERTEX
  8
0
  5
38F5
 10
94.3991
 20
211.268
 30
0.000000
  70
    32
  0
VERTEX
  8
0
  5
38F6
 10
94.1683
 20
211.062
 30
0.000000
  70
    32
  0
VERTEX
  8
0
  5
38F7
 10
93.9450
 20
210.849
 30
0.000000
  70
    32
  0
VERTEX
  8
0
  5
38F8
 10
93.7294
 20
210.628
 30
0.000000
  70
    32
  0
VERTEX
  8
0
  5
38F9
 10
93.5220
 20
210.399
 30
0.000000
  70
    32
  0
VERTEX
  8
0
  5
38FA
 10
93.3229
 20
210.163
 30
0.000000
  70
    32
  0
VERTEX
  8
0
  5
38FB
 10
93.1324
 20
209.919
 30
0.000000
  70
    32
  0
VERTEX
  8
0
  5
38FC
 10
92.9508
 20
209.669
 30
0.000000
  70
    32
  0
VERTEX
  8
0
  5
38FD
 10
92.7782
 20
209.413
 30
0.000000
  70
    32
  0
VERTEX
  8
0
  5
38FE
 10
92.6150
 20
209.151
 30
0.000000
  70
    32
  0
VERTEX
  8
0
  5
38FF
 10
92.4612
 20
208.883
 30
0.000000
  70
    32
  0
VERTEX
  8
0
  5
3900
 10
92.3172
 20
208.610
 30
0.000000
  70
    32
  0
VERTEX
  8
0
  5
3901
 10
92.1831
 20
208.332
 30
0.000000
  70
    32
  0
VERTEX
  8
0
  5
3902
 10
92.0591
 20
208.049
 30
0.000000
  70
    32
  0
VERTEX
  8
0
  5
3903
 10
91.9453
 20
207.761
 30
0.000000
  70
    32
  0
VERTEX
  8
0
  5
3904
 10
91.8419
 20
207.470
 30
0.000000
  70
    32
  0
VERTEX
  8
0
  5
3905
 10
91.7490
 20
207.176
 30
0.000000
  70
    32
  0
VERTEX
  8
0
  5
3906
 10
91.6667
 20
206.878
 30
0.000000
  70
    32
  0
VERTEX
  8
0
  5
3907
 10
91.5952
 20
206.577
 30
0.000000
  70
    32
  0
VERTEX
  8
0
  5
3908
 10
91.5345
 20
206.275
 30
0.000000
  70
    32
  0
VERTEX
  8
0
  5
3909
 10
91.4847
 20
205.970
 30
0.000000
  70
    32
  0
VERTEX
  8
0
  5
390A
 10
91.4459
 20
205.663
 30
0.000000
  70
    32
  0
VERTEX
  8
0
  5
390B
 10
91.4181
 20
205.356
 30
0.000000
  70
    32
  0
VERTEX
  8
0
  5
390C
 10
91.4014
 20
205.047
 30
0.000000
  70
    32
  0
VERTEX
  8
0
  5
390D
 10
91.3958
 20
204.738
 30
0.000000
  70
    32
  0
SEQEND
  8
0
  5
390E
  0
LINE
  5
2277
  8
0
 10
113.5
 20
194.73832021878181
 30
0.0
 11
113.5
 21
214.73832021878181
 31
0.0
  0
LINE
  5
2278
  8
0
 10
117.549664968
 20
213.79065617508181
 30
0.0
 11
82.450335031999998
 21
213.79065617508181
 31
0.0
  0
LINE
  5
2279
  8
0
 10
117.549664968
 20
213.79065617508181
 30
0.0
 11
118.0240777928
 21
204.73832021878181
 31
0.0
  0
LINE
  5
227B
  8
0
 10
86.5
 20
214.73832021878181
 30
0.0
 11
86.5
 21
199.79402248154659
 31
0.0
  0
LINE
  5
227F
  8
0
 10
81.975922207199972
 20
204.73832021878181
 30
0.0
 11
82.450335031999998
 21
213.79065617508181
 31
0.0
  0
LINE
  5
2282
  8
0
 10
83.448964566699985
 20
214.73832021878181
 30
0.0
 11
116.5510354333
 21
214.73832021878181
 31
0.0
  0
ARC
  5
2283
  8
0
 10
116.5510354333
 20
213.73832021878181
 30
0.0
 40
0.999999999999996
 50
2.9999999999990772
 51
90.0
  0
ARC
  5
2288
  8
0
 10
83.448964566699985
 20
213.73832021878181
 30
0.0
 40
0.999999999999996
 50
90.0
 51
177.00000000000091
  0
POLYLINE
  5
228B
  8
0
 10
96.384076326497777
 20
196.93326735985357
 30
0.0
 66
     1
 70
     8
  0
VERTEX
  8
0
  5
390F
 10
96.3841
 20
196.933
 30
0.000000
  70
    32
  0
VERTEX
  8
0
  5
3910
 10
96.4034
 20
196.924
 30
0.000000
  70
    32
  0
VERTEX
  8
0
  5
3911
 10
96.4228
 20
196.915
 30
0.000000
  70
    32
  0
VERTEX
  8
0
  5
3912
 10
96.4422
 20
196.907
 30
0.000000
  70
    32
  0
VERTEX
  8
0
  5
3913
 10
96.4617
 20
196.898
 30
0.000000
  70
    32
  0
VERTEX
  8
0
  5
3914
 10
96.4811
 20
196.889
 30
0.000000
  70
    32
  0
VERTEX
  8
0
  5
3915
 10
96.5006
 20
196.880
 30
0.000000
  70
    32
  0
VERTEX
  8
0
  5
3916
 10
96.5201
 20
196.872
 30
0.000000
  70
    32
  0
VERTEX
  8
0
  5
3917
 10
96.5396
 20
196.863
 30
0.000000
  70
    32
  0
VERTEX
  8
0
  5
3918
 10
96.5591
 20
196.855
 30
0.000000
  70
    32
  0
VERTEX
  8
0
  5
3919
 10
96.5787
 20
196.846
 30
0.000000
  70
    32
  0
VERTEX
  8
0
  5
391A
 10
96.5982
 20
196.838
 30
0.000000
  70
    32
  0
VERTEX
  8
0
  5
391B
 10
96.6178
 20
196.829
 30
0.000000
  70
    32
  0
VERTEX
  8
0
  5
391C
 10
96.6375
 20
196.821
 30
0.000000
  70
    32
  0
VERTEX
  8
0
  5
391D
 10
96.6571
 20
196.813
 30
0.000000
  70
    32
  0
VERTEX
  8
0
  5
391E
 10
96.6768
 20
196.804
 30
0.000000
  70
    32
  0
VERTEX
  8
0
  5
391F
 10
96.6964
 20
196.796
 30
0.000000
  70
    32
  0
VERTEX
  8
0
  5
3920
 10
96.7161
 20
196.788
 30
0.000000
  70
    32
  0
VERTEX
  8
0
  5
3921
 10
96.7359
 20
196.780
 30
0.000000
  70
    32
  0
VERTEX
  8
0
  5
3922
 10
96.7556
 20
196.772
 30
0.000000
  70
    32
  0
VERTEX
  8
0
  5
3923
 10
96.7754
 20
196.764
 30
0.000000
  70
    32
  0
VERTEX
  8
0
  5
3924
 10
96.7951
 20
196.756
 30
0.000000
  70
    32
  0
VERTEX
  8
0
  5
3925
 10
96.8149
 20
196.748
 30
0.000000
  70
    32
  0
VERTEX
  8
0
  5
3926
 10
96.8348
 20
196.740
 30
0.000000
  70
    32
  0
VERTEX
  8
0
  5
3927
 10
96.8546
 20
196.732
 30
0.000000
  70
    32
  0
VERTEX
  8
0
  5
3928
 10
96.8745
 20
196.724
 30
0.000000
  70
    32
  0
VERTEX
  8
0
  5
3929
 10
96.8943
 20
196.717
 30
0.000000
  70
    32
  0
VERTEX
  8
0
  5
392A
 10
96.9142
 20
196.709
 30
0.000000
  70
    32
  0
VERTEX
  8
0
  5
392B
 10
96.9342
 20
196.701
 30
0.000000
  70
    32
  0
VERTEX
  8
0
  5
392C
 10
96.9541
 20
196.694
 30
0.000000
  70
    32
  0
VERTEX
  8
0
  5
392D
 10
96.9740
 20
196.686
 30
0.000000
  70
    32
  0
VERTEX
  8
0
  5
392E
 10
96.9940
 20
196.679
 30
0.000000
  70
    32
  0
VERTEX
  8
0
  5
392F
 10
97.0140
 20
196.671
 30
0.000000
  70
    32
  0
VERTEX
  8
0
  5
3930
 10
97.0340
 20
196.664
 30
0.000000
  70
    32
  0
VERTEX
  8
0
  5
3931
 10
97.0540
 20
196.657
 30
0.000000
  70
    32
  0
VERTEX
  8
0
  5
3932
 10
97.0741
 20
196.649
 30
0.000000
  70
    32
  0
VERTEX
  8
0
  5
3933
 10
97.0941
 20
196.642
 30
0.000000
  70
    32
  0
VERTEX
  8
0
  5
3934
 10
97.1142
 20
196.635
 30
0.000000
  70
    32
  0
VERTEX
  8
0
  5
3935
 10
97.1343
 20
196.628
 30
0.000000
  70
    32
  0
VERTEX
  8
0
  5
3936
 10
97.1544
 20
196.621
 30
0.000000
  70
    32
  0
VERTEX
  8
0
  5
3937
 10
97.1746
 20
196.614
 30
0.000000
  70
    32
  0
VERTEX
  8
0
  5
3938
 10
97.1947
 20
196.607
 30
0.000000
  70
    32
  0
VERTEX
  8
0
  5
3939
 10
97.2149
 20
196.600
 30
0.000000
  70
    32
  0
VERTEX
  8
0
  5
393A
 10
97.2351
 20
196.593
 30
0.000000
  70
    32
  0
VERTEX
  8
0
  5
393B
 10
97.2553
 20
196.586
 30
0.000000
  70
    32
  0
VERTEX
  8
0
  5
393C
 10
97.2755
 20
196.579
 30
0.000000
  70
    32
  0
VERTEX
  8
0
  5
393D
 10
97.2957
 20
196.573
 30
0.000000
  70
    32
  0
VERTEX
  8
0
  5
393E
 10
97.3160
 20
196.566
 30
0.000000
  70
    32
  0
VERTEX
  8
0
  5
393F
 10
97.3363
 20
196.559
 30
0.000000
  70
    32
  0
VERTEX
  8
0
  5
3940
 10
97.3565
 20
196.553
 30
0.000000
  70
    32
  0
VERTEX
  8
0
  5
3941
 10
97.3768
 20
196.546
 30
0.000000
  70
    32
  0
VERTEX
  8
0
  5
3942
 10
97.3972
 20
196.540
 30
0.000000
  70
    32
  0
VERTEX
  8
0
  5
3943
 10
97.4175
 20
196.533
 30
0.000000
  70
    32
  0
VERTEX
  8
0
  5
3944
 10
97.4378
 20
196.527
 30
0.000000
  70
    32
  0
VERTEX
  8
0
  5
3945
 10
97.4582
 20
196.521
 30
0.000000
  70
    32
  0
VERTEX
  8
0
  5
3946
 10
97.4786
 20
196.514
 30
0.000000
  70
    32
  0
VERTEX
  8
0
  5
3947
 10
97.4990
 20
196.508
 30
0.000000
  70
    32
  0
VERTEX
  8
0
  5
3948
 10
97.5194
 20
196.502
 30
0.000000
  70
    32
  0
VERTEX
  8
0
  5
3949
 10
97.5398
 20
196.496
 30
0.000000
  70
    32
  0
VERTEX
  8
0
  5
394A
 10
97.5603
 20
196.490
 30
0.000000
  70
    32
  0
VERTEX
  8
0
  5
394B
 10
97.5807
 20
196.484
 30
0.000000
  70
    32
  0
VERTEX
  8
0
  5
394C
 10
97.6012
 20
196.478
 30
0.000000
  70
    32
  0
VERTEX
  8
0
  5
394D
 10
97.6217
 20
196.472
 30
0.000000
  70
    32
  0
VERTEX
  8
0
  5
394E
 10
97.6422
 20
196.466
 30
0.000000
  70
    32
  0
VERTEX
  8
0
  5
394F
 10
97.6627
 20
196.460
 30
0.000000
  70
    32
  0
VERTEX
  8
0
  5
3950
 10
97.6832
 20
196.454
 30
0.000000
  70
    32
  0
VERTEX
  8
0
  5
3951
 10
97.7038
 20
196.449
 30
0.000000
  70
    32
  0
VERTEX
  8
0
  5
3952
 10
97.7243
 20
196.443
 30
0.000000
  70
    32
  0
VERTEX
  8
0
  5
3953
 10
97.7449
 20
196.437
 30
0.000000
  70
    32
  0
VERTEX
  8
0
  5
3954
 10
97.7655
 20
196.432
 30
0.000000
  70
    32
  0
VERTEX
  8
0
  5
3955
 10
97.7861
 20
196.426
 30
0.000000
  70
    32
  0
VERTEX
  8
0
  5
3956
 10
97.8067
 20
196.421
 30
0.000000
  70
    32
  0
VERTEX
  8
0
  5
3957
 10
97.8273
 20
196.415
 30
0.000000
  70
    32
  0
VERTEX
  8
0
  5
3958
 10
97.8480
 20
196.410
 30
0.000000
  70
    32
  0
VERTEX
  8
0
  5
3959
 10
97.8686
 20
196.405
 30
0.000000
  70
    32
  0
VERTEX
  8
0
  5
395A
 10
97.8893
 20
196.399
 30
0.000000
  70
    32
  0
VERTEX
  8
0
  5
395B
 10
97.9100
 20
196.394
 30
0.000000
  70
    32
  0
VERTEX
  8
0
  5
395C
 10
97.9307
 20
196.389
 30
0.000000
  70
    32
  0
VERTEX
  8
0
  5
395D
 10
97.9514
 20
196.384
 30
0.000000
  70
    32
  0
VERTEX
  8
0
  5
395E
 10
97.9721
 20
196.379
 30
0.000000
  70
    32
  0
VERTEX
  8
0
  5
395F
 10
97.9928
 20
196.374
 30
0.000000
  70
    32
  0
VERTEX
  8
0
  5
3960
 10
98.0136
 20
196.369
 30
0.000000
  70
    32
  0
VERTEX
  8
0
  5
3961
 10
98.0343
 20
196.364
 30
0.000000
  70
    32
  0
VERTEX
  8
0
  5
3962
 10
98.0551
 20
196.359
 30
0.000000
  70
    32
  0
VERTEX
  8
0
  5
3963
 10
98.0759
 20
196.354
 30
0.000000
  70
    32
  0
VERTEX
  8
0
  5
3964
 10
98.0966
 20
196.350
 30
0.000000
  70
    32
  0
VERTEX
  8
0
  5
3965
 10
98.1174
 20
196.345
 30
0.000000
  70
    32
  0
VERTEX
  8
0
  5
3966
 10
98.1383
 20
196.340
 30
0.000000
  70
    32
  0
VERTEX
  8
0
  5
3967
 10
98.1591
 20
196.336
 30
0.000000
  70
    32
  0
VERTEX
  8
0
  5
3968
 10
98.1799
 20
196.331
 30
0.000000
  70
    32
  0
VERTEX
  8
0
  5
3969
 10
98.2008
 20
196.327
 30
0.000000
  70
    32
  0
VERTEX
  8
0
  5
396A
 10
98.2216
 20
196.322
 30
0.000000
  70
    32
  0
VERTEX
  8
0
  5
396B
 10
98.2425
 20
196.318
 30
0.000000
  70
    32
  0
VERTEX
  8
0
  5
396C
 10
98.2634
 20
196.314
 30
0.000000
  70
    32
  0
VERTEX
  8
0
  5
396D
 10
98.2843
 20
196.309
 30
0.000000
  70
    32
  0
VERTEX
  8
0
  5
396E
 10
98.3052
 20
196.305
 30
0.000000
  70
    32
  0
VERTEX
  8
0
  5
396F
 10
98.3261
 20
196.301
 30
0.000000
  70
    32
  0
VERTEX
  8
0
  5
3970
 10
98.3470
 20
196.297
 30
0.000000
  70
    32
  0
VERTEX
  8
0
  5
3971
 10
98.3679
 20
196.293
 30
0.000000
  70
    32
  0
VERTEX
  8
0
  5
3972
 10
98.3889
 20
196.289
 30
0.000000
  70
    32
  0
VERTEX
  8
0
  5
3973
 10
98.4098
 20
196.285
 30
0.000000
  70
    32
  0
VERTEX
  8
0
  5
3974
 10
98.4308
 20
196.281
 30
0.000000
  70
    32
  0
VERTEX
  8
0
  5
3975
 10
98.4518
 20
196.277
 30
0.000000
  70
    32
  0
VERTEX
  8
0
  5
3976
 10
98.4728
 20
196.273
 30
0.000000
  70
    32
  0
VERTEX
  8
0
  5
3977
 10
98.4937
 20
196.269
 30
0.000000
  70
    32
  0
VERTEX
  8
0
  5
3978
 10
98.5147
 20
196.266
 30
0.000000
  70
    32
  0
VERTEX
  8
0
  5
3979
 10
98.5358
 20
196.262
 30
0.000000
  70
    32
  0
VERTEX
  8
0
  5
397A
 10
98.5568
 20
196.258
 30
0.000000
  70
    32
  0
VERTEX
  8
0
  5
397B
 10
98.5778
 20
196.255
 30
0.000000
  70
    32
  0
VERTEX
  8
0
  5
397C
 10
98.5988
 20
196.251
 30
0.000000
  70
    32
  0
VERTEX
  8
0
  5
397D
 10
98.6199
 20
196.248
 30
0.000000
  70
    32
  0
VERTEX
  8
0
  5
397E
 10
98.6409
 20
196.245
 30
0.000000
  70
    32
  0
VERTEX
  8
0
  5
397F
 10
98.6620
 20
196.241
 30
0.000000
  70
    32
  0
VERTEX
  8
0
  5
3980
 10
98.6831
 20
196.238
 30
0.000000
  70
    32
  0
VERTEX
  8
0
  5
3981
 10
98.7041
 20
196.235
 30
0.000000
  70
    32
  0
VERTEX
  8
0
  5
3982
 10
98.7252
 20
196.232
 30
0.000000
  70
    32
  0
VERTEX
  8
0
  5
3983
 10
98.7463
 20
196.228
 30
0.000000
  70
    32
  0
VERTEX
  8
0
  5
3984
 10
98.7674
 20
196.225
 30
0.000000
  70
    32
  0
VERTEX
  8
0
  5
3985
 10
98.7885
 20
196.222
 30
0.000000
  70
    32
  0
VERTEX
  8
0
  5
3986
 10
98.8096
 20
196.219
 30
0.000000
  70
    32
  0
VERTEX
  8
0
  5
3987
 10
98.8308
 20
196.216
 30
0.000000
  70
    32
  0
VERTEX
  8
0
  5
3988
 10
98.8519
 20
196.214
 30
0.000000
  70
    32
  0
VERTEX
  8
0
  5
3989
 10
98.8730
 20
196.211
 30
0.000000
  70
    32
  0
VERTEX
  8
0
  5
398A
 10
98.8942
 20
196.208
 30
0.000000
  70
    32
  0
VERTEX
  8
0
  5
398B
 10
98.9153
 20
196.205
 30
0.000000
  70
    32
  0
VERTEX
  8
0
  5
398C
 10
98.9365
 20
196.203
 30
0.000000
  70
    32
  0
VERTEX
  8
0
  5
398D
 10
98.9577
 20
196.200
 30
0.000000
  70
    32
  0
VERTEX
  8
0
  5
398E
 10
98.9788
 20
196.197
 30
0.000000
  70
    32
  0
VERTEX
  8
0
  5
398F
 10
99.0000
 20
196.195
 30
0.000000
  70
    32
  0
SEQEND
  8
0
  5
3990
  0
POLYLINE
  5
228C
  8
0
 10
91.395764012293839
 20
204.73832021881461
 30
0.0
 66
     1
 70
     8
  0
VERTEX
  8
0
  5
3991
 10
91.3958
 20
204.738
 30
0.000000
  70
    32
  0
VERTEX
  8
0
  5
3992
 10
91.3958
 20
204.722
 30
0.000000
  70
    32
  0
VERTEX
  8
0
  5
3993
 10
91.3958
 20
204.706
 30
0.000000
  70
    32
  0
VERTEX
  8
0
  5
3994
 10
91.3959
 20
204.689
 30
0.000000
  70
    32
  0
VERTEX
  8
0
  5
3995
 10
91.3960
 20
204.673
 30
0.000000
  70
    32
  0
VERTEX
  8
0
  5
3996
 10
91.3962
 20
204.656
 30
0.000000
  70
    32
  0
VERTEX
  8
0
  5
3997
 10
91.3964
 20
204.640
 30
0.000000
  70
    32
  0
VERTEX
  8
0
  5
3998
 10
91.3966
 20
204.624
 30
0.000000
  70
    32
  0
VERTEX
  8
0
  5
3999
 10
91.3968
 20
204.607
 30
0.000000
  70
    32
  0
VERTEX
  8
0
  5
399A
 10
91.3971
 20
204.591
 30
0.000000
  70
    32
  0
VERTEX
  8
0
  5
399B
 10
91.3974
 20
204.574
 30
0.000000
  70
    32
  0
VERTEX
  8
0
  5
399C
 10
91.3977
 20
204.558
 30
0.000000
  70
    32
  0
VERTEX
  8
0
  5
399D
 10
91.3981
 20
204.542
 30
0.000000
  70
    32
  0
VERTEX
  8
0
  5
399E
 10
91.3985
 20
204.525
 30
0.000000
  70
    32
  0
VERTEX
  8
0
  5
399F
 10
91.3989
 20
204.509
 30
0.000000
  70
    32
  0
VERTEX
  8
0
  5
39A0
 10
91.3994
 20
204.492
 30
0.000000
  70
    32
  0
VERTEX
  8
0
  5
39A1
 10
91.3998
 20
204.476
 30
0.000000
  70
    32
  0
VERTEX
  8
0
  5
39A2
 10
91.4004
 20
204.460
 30
0.000000
  70
    32
  0
VERTEX
  8
0
  5
39A3
 10
91.4009
 20
204.443
 30
0.000000
  70
    32
  0
VERTEX
  8
0
  5
39A4
 10
91.4015
 20
204.427
 30
0.000000
  70
    32
  0
VERTEX
  8
0
  5
39A5
 10
91.4021
 20
204.410
 30
0.000000
  70
    32
  0
VERTEX
  8
0
  5
39A6
 10
91.4028
 20
204.394
 30
0.000000
  70
    32
  0
VERTEX
  8
0
  5
39A7
 10
91.4034
 20
204.378
 30
0.000000
  70
    32
  0
VERTEX
  8
0
  5
39A8
 10
91.4041
 20
204.361
 30
0.000000
  70
    32
  0
VERTEX
  8
0
  5
39A9
 10
91.4049
 20
204.345
 30
0.000000
  70
    32
  0
VERTEX
  8
0
  5
39AA
 10
91.4056
 20
204.329
 30
0.000000
  70
    32
  0
VERTEX
  8
0
  5
39AB
 10
91.4064
 20
204.312
 30
0.000000
  70
    32
  0
VERTEX
  8
0
  5
39AC
 10
91.4073
 20
204.296
 30
0.000000
  70
    32
  0
VERTEX
  8
0
  5
39AD
 10
91.4081
 20
204.279
 30
0.000000
  70
    32
  0
VERTEX
  8
0
  5
39AE
 10
91.4090
 20
204.263
 30
0.000000
  70
    32
  0
VERTEX
  8
0
  5
39AF
 10
91.4100
 20
204.247
 30
0.000000
  70
    32
  0
VERTEX
  8
0
  5
39B0
 10
91.4109
 20
204.230
 30
0.000000
  70
    32
  0
VERTEX
  8
0
  5
39B1
 10
91.4119
 20
204.214
 30
0.000000
  70
    32
  0
VERTEX
  8
0
  5
39B2
 10
91.4129
 20
204.198
 30
0.000000
  70
    32
  0
VERTEX
  8
0
  5
39B3
 10
91.4140
 20
204.181
 30
0.000000
  70
    32
  0
VERTEX
  8
0
  5
39B4
 10
91.4151
 20
204.165
 30
0.000000
  70
    32
  0
VERTEX
  8
0
  5
39B5
 10
91.4162
 20
204.149
 30
0.000000
  70
    32
  0
VERTEX
  8
0
  5
39B6
 10
91.4173
 20
204.132
 30
0.000000
  70
    32
  0
VERTEX
  8
0
  5
39B7
 10
91.4185
 20
204.116
 30
0.000000
  70
    32
  0
VERTEX
  8
0
  5
39B8
 10
91.4197
 20
204.099
 30
0.000000
  70
    32
  0
VERTEX
  8
0
  5
39B9
 10
91.4209
 20
204.083
 30
0.000000
  70
    32
  0
VERTEX
  8
0
  5
39BA
 10
91.4222
 20
204.067
 30
0.000000
  70
    32
  0
VERTEX
  8
0
  5
39BB
 10
91.4235
 20
204.050
 30
0.000000
  70
    32
  0
VERTEX
  8
0
  5
39BC
 10
91.4248
 20
204.034
 30
0.000000
  70
    32
  0
VERTEX
  8
0
  5
39BD
 10
91.4262
 20
204.018
 30
0.000000
  70
    32
  0
VERTEX
  8
0
  5
39BE
 10
91.4276
 20
204.001
 30
0.000000
  70
    32
  0
VERTEX
  8
0
  5
39BF
 10
91.4290
 20
203.985
 30
0.000000
  70
    32
  0
VERTEX
  8
0
  5
39C0
 10
91.4305
 20
203.969
 30
0.000000
  70
    32
  0
VERTEX
  8
0
  5
39C1
 10
91.4320
 20
203.952
 30
0.000000
  70
    32
  0
VERTEX
  8
0
  5
39C2
 10
91.4335
 20
203.936
 30
0.000000
  70
    32
  0
VERTEX
  8
0
  5
39C3
 10
91.4350
 20
203.920
 30
0.000000
  70
    32
  0
VERTEX
  8
0
  5
39C4
 10
91.4366
 20
203.903
 30
0.000000
  70
    32
  0
VERTEX
  8
0
  5
39C5
 10
91.4382
 20
203.887
 30
0.000000
  70
    32
  0
VERTEX
  8
0
  5
39C6
 10
91.4399
 20
203.871
 30
0.000000
  70
    32
  0
VERTEX
  8
0
  5
39C7
 10
91.4415
 20
203.855
 30
0.000000
  70
    32
  0
VERTEX
  8
0
  5
39C8
 10
91.4432
 20
203.838
 30
0.000000
  70
    32
  0
VERTEX
  8
0
  5
39C9
 10
91.4450
 20
203.822
 30
0.000000
  70
    32
  0
VERTEX
  8
0
  5
39CA
 10
91.4467
 20
203.806
 30
0.000000
  70
    32
  0
VERTEX
  8
0
  5
39CB
 10
91.4485
 20
203.789
 30
0.000000
  70
    32
  0
VERTEX
  8
0
  5
39CC
 10
91.4504
 20
203.773
 30
0.000000
  70
    32
  0
VERTEX
  8
0
  5
39CD
 10
91.4522
 20
203.757
 30
0.000000
  70
    32
  0
VERTEX
  8
0
  5
39CE
 10
91.4541
 20
203.740
 30
0.000000
  70
    32
  0
VERTEX
  8
0
  5
39CF
 10
91.4560
 20
203.724
 30
0.000000
  70
    32
  0
VERTEX
  8
0
  5
39D0
 10
91.4580
 20
203.708
 30
0.000000
  70
    32
  0
VERTEX
  8
0
  5
39D1
 10
91.4600
 20
203.692
 30
0.000000
  70
    32
  0
VERTEX
  8
0
  5
39D2
 10
91.4620
 20
203.675
 30
0.000000
  70
    32
  0
VERTEX
  8
0
  5
39D3
 10
91.4640
 20
203.659
 30
0.000000
  70
    32
  0
VERTEX
  8
0
  5
39D4
 10
91.4661
 20
203.643
 30
0.000000
  70
    32
  0
VERTEX
  8
0
  5
39D5
 10
91.4682
 20
203.627
 30
0.000000
  70
    32
  0
VERTEX
  8
0
  5
39D6
 10
91.4704
 20
203.610
 30
0.000000
  70
    32
  0
VERTEX
  8
0
  5
39D7
 10
91.4725
 20
203.594
 30
0.000000
  70
    32
  0
VERTEX
  8
0
  5
39D8
 10
91.4747
 20
203.578
 30
0.000000
  70
    32
  0
VERTEX
  8
0
  5
39D9
 10
91.4770
 20
203.562
 30
0.000000
  70
    32
  0
VERTEX
  8
0
  5
39DA
 10
91.4792
 20
203.545
 30
0.000000
  70
    32
  0
VERTEX
  8
0
  5
39DB
 10
91.4815
 20
203.529
 30
0.000000
  70
    32
  0
VERTEX
  8
0
  5
39DC
 10
91.4838
 20
203.513
 30
0.000000
  70
    32
  0
VERTEX
  8
0
  5
39DD
 10
91.4862
 20
203.497
 30
0.000000
  70
    32
  0
VERTEX
  8
0
  5
39DE
 10
91.4886
 20
203.480
 30
0.000000
  70
    32
  0
VERTEX
  8
0
  5
39DF
 10
91.4910
 20
203.464
 30
0.000000
  70
    32
  0
VERTEX
  8
0
  5
39E0
 10
91.4935
 20
203.448
 30
0.000000
  70
    32
  0
VERTEX
  8
0
  5
39E1
 10
91.4959
 20
203.432
 30
0.000000
  70
    32
  0
VERTEX
  8
0
  5
39E2
 10
91.4984
 20
203.416
 30
0.000000
  70
    32
  0
VERTEX
  8
0
  5
39E3
 10
91.5010
 20
203.399
 30
0.000000
  70
    32
  0
VERTEX
  8
0
  5
39E4
 10
91.5036
 20
203.383
 30
0.000000
  70
    32
  0
VERTEX
  8
0
  5
39E5
 10
91.5062
 20
203.367
 30
0.000000
  70
    32
  0
VERTEX
  8
0
  5
39E6
 10
91.5088
 20
203.351
 30
0.000000
  70
    32
  0
VERTEX
  8
0
  5
39E7
 10
91.5115
 20
203.335
 30
0.000000
  70
    32
  0
VERTEX
  8
0
  5
39E8
 10
91.5141
 20
203.318
 30
0.000000
  70
    32
  0
VERTEX
  8
0
  5
39E9
 10
91.5169
 20
203.302
 30
0.000000
  70
    32
  0
VERTEX
  8
0
  5
39EA
 10
91.5196
 20
203.286
 30
0.000000
  70
    32
  0
VERTEX
  8
0
  5
39EB
 10
91.5224
 20
203.270
 30
0.000000
  70
    32
  0
VERTEX
  8
0
  5
39EC
 10
91.5252
 20
203.254
 30
0.000000
  70
    32
  0
VERTEX
  8
0
  5
39ED
 10
91.5281
 20
203.238
 30
0.000000
  70
    32
  0
VERTEX
  8
0
  5
39EE
 10
91.5310
 20
203.222
 30
0.000000
  70
    32
  0
VERTEX
  8
0
  5
39EF
 10
91.5339
 20
203.205
 30
0.000000
  70
    32
  0
VERTEX
  8
0
  5
39F0
 10
91.5368
 20
203.189
 30
0.000000
  70
    32
  0
VERTEX
  8
0
  5
39F1
 10
91.5398
 20
203.173
 30
0.000000
  70
    32
  0
VERTEX
  8
0
  5
39F2
 10
91.5428
 20
203.157
 30
0.000000
  70
    32
  0
VERTEX
  8
0
  5
39F3
 10
91.5458
 20
203.141
 30
0.000000
  70
    32
  0
VERTEX
  8
0
  5
39F4
 10
91.5489
 20
203.125
 30
0.000000
  70
    32
  0
VERTEX
  8
0
  5
39F5
 10
91.5520
 20
203.109
 30
0.000000
  70
    32
  0
VERTEX
  8
0
  5
39F6
 10
91.5551
 20
203.093
 30
0.000000
  70
    32
  0
VERTEX
  8
0
  5
39F7
 10
91.5583
 20
203.077
 30
0.000000
  70
    32
  0
VERTEX
  8
0
  5
39F8
 10
91.5615
 20
203.060
 30
0.000000
  70
    32
  0
VERTEX
  8
0
  5
39F9
 10
91.5647
 20
203.044
 30
0.000000
  70
    32
  0
VERTEX
  8
0
  5
39FA
 10
91.5679
 20
203.028
 30
0.000000
  70
    32
  0
VERTEX
  8
0
  5
39FB
 10
91.5712
 20
203.012
 30
0.000000
  70
    32
  0
VERTEX
  8
0
  5
39FC
 10
91.5745
 20
202.996
 30
0.000000
  70
    32
  0
VERTEX
  8
0
  5
39FD
 10
91.5778
 20
202.980
 30
0.000000
  70
    32
  0
VERTEX
  8
0
  5
39FE
 10
91.5812
 20
202.964
 30
0.000000
  70
    32
  0
VERTEX
  8
0
  5
39FF
 10
91.5846
 20
202.948
 30
0.000000
  70
    32
  0
VERTEX
  8
0
  5
3A00
 10
91.5881
 20
202.932
 30
0.000000
  70
    32
  0
VERTEX
  8
0
  5
3A01
 10
91.5915
 20
202.916
 30
0.000000
  70
    32
  0
VERTEX
  8
0
  5
3A02
 10
91.5950
 20
202.900
 30
0.000000
  70
    32
  0
VERTEX
  8
0
  5
3A03
 10
91.5985
 20
202.884
 30
0.000000
  70
    32
  0
VERTEX
  8
0
  5
3A04
 10
91.6021
 20
202.868
 30
0.000000
  70
    32
  0
VERTEX
  8
0
  5
3A05
 10
91.6057
 20
202.852
 30
0.000000
  70
    32
  0
VERTEX
  8
0
  5
3A06
 10
91.6093
 20
202.836
 30
0.000000
  70
    32
  0
VERTEX
  8
0
  5
3A07
 10
91.6129
 20
202.820
 30
0.000000
  70
    32
  0
VERTEX
  8
0
  5
3A08
 10
91.6166
 20
202.804
 30
0.000000
  70
    32
  0
VERTEX
  8
0
  5
3A09
 10
91.6203
 20
202.788
 30
0.000000
  70
    32
  0
VERTEX
  8
0
  5
3A0A
 10
91.6240
 20
202.772
 30
0.000000
  70
    32
  0
VERTEX
  8
0
  5
3A0B
 10
91.6278
 20
202.756
 30
0.000000
  70
    32
  0
VERTEX
  8
0
  5
3A0C
 10
91.6316
 20
202.740
 30
0.000000
  70
    32
  0
VERTEX
  8
0
  5
3A0D
 10
91.6354
 20
202.724
 30
0.000000
  70
    32
  0
VERTEX
  8
0
  5
3A0E
 10
91.6393
 20
202.708
 30
0.000000
  70
    32
  0
VERTEX
  8
0
  5
3A0F
 10
91.6432
 20
202.692
 30
0.000000
  70
    32
  0
VERTEX
  8
0
  5
3A10
 10
91.6471
 20
202.676
 30
0.000000
  70
    32
  0
VERTEX
  8
0
  5
3A11
 10
91.6511
 20
202.660
 30
0.000000
  70
    32
  0
SEQEND
  8
0
  5
3A12
  0
LINE
  5
228D
  8
0
 10
90.911593544699997
 20
195.6859842625818
 30
0.0
 11
99.0
 21
195.6859842625818
 31
0.0
  0
ARC
  5
2291
  8
0
 10
75.474482283399993
 20
146.01203889640001
 30
0.0
 40
0.5
 50
177.0
 51
270.0
  0
LINE
  5
2292
  8
0
 10
75.57922838340005
 20
157.56437485270001
 30
0.0
 11
74.975167516000056
 21
146.03820687449999
 31
0.0
  0
ARC
  5
2293
  8
0
 10
76.577857918099994
 20
157.51203889640001
 30
0.0
 40
1.0
 50
90.0
 51
177.0
  0
ARC
  5
2294
  8
0
 10
107.52551771660001
 20
146.01203889640001
 30
0.0
 40
0.5000000000000271
 50
270.0
 51
2.999999999999893
  0
LINE
  5
2295
  8
0
 10
108.024832484
 20
146.03820687449999
 30
0.0
 11
107.5779949545
 21
154.56437485270001
 31
0.0
  0
ARC
  5
2296
  8
0
 10
106.5793654197
 20
154.51203889640001
 30
0.0
 40
1.0
 50
2.999999999999893
 51
90.0
  0
POLYLINE
  5
2298
  8
0
 66
     1
 10
0.0
 20
0.0
 30
0.0
 70
   128
  0
VERTEX
  5
3748
  8
0
 10
96.386872335199996
 20
146.03820687449999
 30
0.0
  0
VERTEX
  5
3749
  8
0
 10
96.385430703800026
 20
145.9370555186
 30
0.0
  0
VERTEX
  5
374A
  8
0
 10
96.378105453800003
 20
145.83898036790001
 30
0.0
  0
VERTEX
  5
374B
  8
0
 10
96.365197104900005
 20
145.74800497109999
 30
0.0
  0
VERTEX
  5
374C
  8
0
 10
96.347235223999974
 20
145.66786160859999
 30
0.0
  0
VERTEX
  5
374D
  8
0
 10
96.324956700299992
 20
145.60183817469999
 30
0.0
  0
VERTEX
  5
374E
  8
0
 10
96.299275513800012
 20
145.5526432913
 30
0.0
  0
VERTEX
  5
374F
  8
0
 10
96.27124523919997
 20
145.52229518659999
 30
0.0
  0
VERTEX
  5
3750
  8
0
 10
96.242015823200006
 20
145.51203889640001
 30
0.0
  0
SEQEND
  5
3751
  8
0
  0
LINE
  5
229F
  8
0
 10
96.386872335199996
 20
146.03820687449999
 30
0.0
 11
96.257240026700003
 21
154.56437485270001
 31
0.0
  0
LINE
  5
22A1
  8
0
 10
83.923260904300037
 20
158.45173151719999
 30
0.0
 11
91.834306837400035
 21
155.57234627560001
 31
0.0
  0
ARC
  5
22A5
  8
0
 10
83.581240760900016
 20
157.51203889640001
 30
0.0
 40
1.0
 50
70.0
 51
90.0
  0
LINE
  5
22A6
  8
0
 10
76.577857918099994
 20
158.51203889640001
 30
0.0
 11
83.581240760900016
 21
158.51203889640001
 31
0.0
  0
LINE
  5
22A8
  8
0
 10
99.0
 20
145.51203889640001
 30
0.0
 11
75.474482283399993
 21
145.51203889640001
 31
0.0
  0
LINE
  5
22A9
  8
0
 10
91.834306837400035
 20
155.57234627560001
 30
0.0
 11
92.176326980699955
 21
155.51203889640001
 31
0.0
  0
LINE
  5
22AB
  8
0
 10
92.176326980699955
 20
155.51203889640001
 30
0.0
 11
106.5793654197
 21
155.51203889640001
 31
0.0
  0
POLYLINE
  5
22AC
  8
0
 66
     1
 10
0.0
 20
0.0
 30
0.0
 70
   128
  0
VERTEX
  5
3752
  8
0
 10
96.257240026700003
 20
154.56437485270001
 30
0.0
  0
VERTEX
  5
3753
  8
0
 10
96.249172536100005
 20
154.75184336109999
 30
0.0
  0
VERTEX
  5
3754
  8
0
 10
96.230988973299986
 20
154.93069863400001
 30
0.0
  0
VERTEX
  5
3755
  8
0
 10
96.203342450600019
 20
155.0945165933
 30
0.0
  0
VERTEX
  5
3756
  8
0
 10
96.167225968800039
 20
155.2374132674
 30
0.0
  0
VERTEX
  5
3757
  8
0
 10
96.123936750600024
 20
155.3542561301
 30
0.0
  0
VERTEX
  5
3758
  8
0
 10
96.075029647000008
 20
155.44084844930001
 30
0.0
  0
VERTEX
  5
3759
  8
0
 10
96.022261290900019
 20
155.49408002409999
 30
0.0
  0
VERTEX
  5
375A
  8
0
 10
95.967527002600036
 20
155.51203889640001
 30
0.0
  0
SEQEND
  5
375B
  8
0
  0
ARC
  5
22AF
  8
0
 10
98.620391789999985
 20
145.90897091310001
 30
0.0
 40
0.6397885449376483
 50
168.34618311039969
 51
218.34617300590011
  0
LINE
  5
22B3
  8
0
 10
97.993791879000014
 20
146.03820687449999
 30
0.0
 11
98.105501261400036
 21
154.56437485270001
 31
0.0
  0
ARC
  5
22BB
  8
0
 10
99.227031512499991
 20
154.77563080100001
 30
0.0
 40
1.1412533373283611
 50
139.8146328505988
 51
190.6674712739993
  0
CIRCLE
  5
22C6
  8
0
 10
89.500000000000014
 20
135.01203889640001
 30
0.0
 40
3.9999999999999711
  0
CIRCLE
  5
22C8
  8
0
 10
110.5
 20
135.01203889640001
 30
0.0
 40
4.0
  0
LINE
  5
22C9
  8
3
 10
94.524142524099986
 20
124.7178838989
 30
0.0
 11
94.524142524099986
 21
125.20850701480001
 31
0.0
  0
LINE
  5
22CA
  8
3
 10
94.181067519999985
 20
124.7178838989
 30
0.0
 11
94.524142524099986
 21
124.7178838989
 31
0.0
  0
LINE
  5
22CB
  8
3
 10
94.181067519999985
 20
124.7178838989
 30
0.0
 11
94.181067519999985
 21
124.5120388964
 31
0.0
  0
ARC
  5
22CC
  8
3
 10
92.5
 20
124.5120388964
 30
0.0
 40
1.68106751999948
 50
277.03346131540019
 51
0.0
  0
LINE
  5
22CD
  8
3
 10
92.705845002500041
 20
122.4639069821
 30
0.0
 11
92.705845002500041
 21
122.84362172980001
 31
0.0
  0
ARC
  5
22CE
  8
3
 10
92.5
 20
124.5120388964
 30
0.0
 40
2.05845002448934
 50
275.73917047730077
 51
302.79716829580173
  0
ARC
  5
22CF
  8
3
 10
94.729987526499997
 20
124.5120388964
 30
0.0
 40
2.05845002448961
 50
237.20283170419839
 51
122.7971682958016
  0
ARC
  5
22D0
  8
3
 10
92.5
 20
124.5120388964
 30
0.0
 40
2.0584500244893991
 50
57.20283170419836
 51
264.26082952269923
  0
LINE
  5
22D1
  8
3
 10
92.294154997599989
 20
122.4639069821
 30
0.0
 11
92.294154997599989
 21
122.84362172980001
 31
0.0
  0
ARC
  5
22D2
  8
3
 10
92.5
 20
124.5120388964
 30
0.0
 40
1.6810675199999801
 50
180.0
 51
262.96653868459981
  0
LINE
  5
22D3
  8
3
 10
90.818932480000001
 20
124.5120388964
 30
0.0
 11
90.818932480000001
 21
124.7178838989
 31
0.0
  0
LINE
  5
22D4
  8
3
 10
90.818932480000001
 20
124.7178838989
 30
0.0
 11
91.196314984499949
 21
124.7178838989
 31
0.0
  0
LINE
  5
22D5
  8
3
 10
91.196314984499949
 20
124.7178838989
 30
0.0
 11
91.196314984499949
 21
124.5120388964
 31
0.0
  0
ARC
  5
22D6
  8
3
 10
92.5
 20
124.5120388964
 30
0.0
 40
1.303685015510069
 50
180.0
 51
260.91527971260041
  0
LINE
  5
22D7
  8
3
 10
92.294154997599989
 20
123.22470737170001
 30
0.0
 11
92.294154997599989
 21
123.60889761350001
 31
0.0
  0
ARC
  5
22D8
  8
3
 10
92.5
 20
124.5120388964
 30
0.0
 40
0.9263025110202818
 50
180.0
 51
257.16041159309867
  0
LINE
  5
22D9
  8
3
 10
91.573697488999983
 20
124.5120388964
 30
0.0
 11
91.573697488999983
 21
124.7178838989
 31
0.0
  0
LINE
  5
22DA
  8
3
 10
91.573697488999983
 20
124.7178838989
 30
0.0
 11
91.951079993500002
 21
124.7178838989
 31
0.0
  0
LINE
  5
22DB
  8
3
 10
91.951079993500002
 20
124.7178838989
 30
0.0
 11
91.951079993500002
 21
124.5120388964
 31
0.0
  0
ARC
  5
22DC
  8
3
 10
92.5
 20
124.5120388964
 30
0.0
 40
0.54892000653021
 50
180.0
 51
0.0
  0
ARC
  5
22DD
  8
3
 10
94.729987526499997
 20
124.5120388964
 30
0.0
 40
1.6810675199999709
 50
138.4408524081006
 51
180.0
  0
ARC
  5
22DE
  8
3
 10
94.729987526499997
 20
127.25663892910001
 30
0.0
 40
2.0584500244897659
 50
232.33177022330071
 51
264.26082952269923
  0
LINE
  5
22DF
  8
3
 10
108.0
 20
127.36203889639999
 30
0.0
 11
92.0
 21
127.36203889639999
 31
0.0
  0
ARC
  5
22E0
  8
3
 10
108.0
 20
124.5120388964
 30
0.0
 40
2.8500000000000081
 50
270.0
 51
90.0
  0
LINE
  5
22E1
  8
3
 10
92.0
 20
121.66203889640001
 30
0.0
 11
108.0
 21
121.66203889640001
 31
0.0
  0
ARC
  5
22E2
  8
3
 10
92.0
 20
124.5120388964
 30
0.0
 40
2.8500000000000081
 50
90.0
 51
270.0
  0
LINE
  5
22E3
  8
3
 10
98.398984098000028
 20
122.9110222107
 30
0.0
 11
98.398984098000028
 21
126.1130555821
 31
0.0
  0
LINE
  5
22E4
  8
3
 10
98.398984098000028
 20
126.1130555821
 30
0.0
 11
97.398348669399994
 21
126.1130555821
 31
0.0
  0
LINE
  5
22E5
  8
3
 10
97.398348669399994
 20
126.1130555821
 30
0.0
 11
97.398348669399994
 21
122.9110222107
 31
0.0
  0
LINE
  5
22E6
  8
3
 10
97.398348669399994
 20
122.9110222107
 30
0.0
 11
98.398984098000028
 21
122.9110222107
 31
0.0
  0
LINE
  5
22E7
  8
3
 10
98.799238269400007
 20
122.9110222107
 30
0.0
 11
99.79987369800007
 21
122.9110222107
 31
0.0
  0
LINE
  5
22E8
  8
3
 10
99.79987369800007
 20
122.9110222107
 30
0.0
 11
99.79987369800007
 21
124.81222952500001
 31
0.0
  0
ARC
  5
22E9
  8
3
 10
100.1000643265
 20
124.81222952500001
 30
0.0
 40
0.3001906285714142
 50
0.0
 51
180.0
  0
LINE
  5
22EA
  8
3
 10
100.4002549551
 20
124.81222952500001
 30
0.0
 11
100.4002549551
 21
122.9110222107
 31
0.0
  0
LINE
  5
22EB
  8
3
 10
100.4002549551
 20
122.9110222107
 30
0.0
 11
101.4008903837
 21
122.9110222107
 31
0.0
  0
LINE
  5
22EC
  8
3
 10
101.4008903837
 20
122.9110222107
 30
0.0
 11
101.4008903837
 21
124.81222952500001
 31
0.0
  0
ARC
  5
22ED
  8
3
 10
101.70108101229999
 20
124.81222952500001
 30
0.0
 40
0.3001906285714426
 50
0.0
 51
180.0
  0
LINE
  5
22EE
  8
3
 10
102.0012716408
 20
124.81222952500001
 30
0.0
 11
102.0012716408
 21
122.9110222107
 31
0.0
  0
LINE
  5
22EF
  8
3
 10
102.0012716408
 20
122.9110222107
 30
0.0
 11
103.0019070694
 21
122.9110222107
 31
0.0
  0
LINE
  5
22F0
  8
3
 10
103.0019070694
 20
122.9110222107
 30
0.0
 11
103.0019070694
 21
124.81222952500001
 31
0.0
  0
ARC
  5
22F1
  8
3
 10
101.70108101229999
 20
124.81222952500001
 30
0.0
 40
1.30082605714287
 50
0.0
 51
127.9798724448994
  0
ARC
  5
22F2
  8
3
 10
104.702987298
 20
124.8122298059
 30
0.0
 40
1.3008260571428989
 50
0.0
 51
180.0
  0
LINE
  5
22F3
  8
3
 10
103.4021612408
 20
124.8122298059
 30
0.0
 11
103.4021612408
 21
122.9110222107
 31
0.0
  0
LINE
  5
22F4
  8
3
 10
103.4021612408
 20
122.9110222107
 30
0.0
 11
104.4027966694
 21
122.9110222107
 31
0.0
  0
LINE
  5
22F5
  8
3
 10
104.4027966694
 20
122.9110222107
 30
0.0
 11
104.4027966694
 21
123.6114670107
 31
0.0
  0
LINE
  5
22F6
  8
3
 10
104.4027966694
 20
123.6114670107
 30
0.0
 11
105.0031779265
 21
123.6114670107
 31
0.0
  0
LINE
  5
22F7
  8
3
 10
105.0031779265
 20
122.9110222107
 30
0.0
 11
105.0031779265
 21
123.6114670107
 31
0.0
  0
LINE
  5
22F8
  8
3
 10
105.0031779265
 20
122.9110222107
 30
0.0
 11
106.00381335509999
 21
122.9110222107
 31
0.0
  0
LINE
  5
22F9
  8
3
 10
106.00381335509999
 20
122.9110222107
 30
0.0
 11
106.00381335509999
 21
124.8122298059
 31
0.0
  0
CIRCLE
  5
22FA
  8
3
 10
108.00508421229991
 20
124.5120388964
 30
0.0
 40
1.6010166857142281
  0
LINE
  5
22FB
  8
3
 10
98.799238269400007
 20
124.81222952500001
 30
0.0
 11
98.799238269400007
 21
122.9110222107
 31
0.0
  0
ARC
  5
22FC
  8
3
 10
100.1000643265
 20
124.81222952500001
 30
0.0
 40
1.3008260571428469
 50
52.020127555100622
 51
180.0
  0
ARC
  5
22FD
  8
3
 10
94.729987526499997
 20
121.7674388638
 30
0.0
 40
1.6810675199999381
 50
97.03346131540026
 51
108.02016074839931
  0
LINE
  5
22FE
  8
3
 10
94.524142524099986
 20
122.84362172980001
 30
0.0
 11
94.524142524099986
 21
123.4358560304
 31
0.0
  0
ARC
  5
22FF
  8
3
 10
94.729987526499997
 20
124.5120388964
 30
0.0
 40
1.681067520000028
 50
241.63809460780169
 51
262.96653868459981
  0
ARC
  5
2300
  8
3
 10
92.5
 20
124.5120388964
 30
0.0
 40
2.058450024489741
 50
314.0578740121997
 51
326.17031835289868
  0
LINE
  5
2301
  8
3
 10
104.4027966694
 20
124.4119753536
 30
0.0
 11
105.0031779265
 21
124.4119753536
 31
0.0
  0
LINE
  5
2302
  8
3
 10
104.4027966694
 20
124.8122298059
 30
0.0
 11
104.4027966694
 21
124.4119753536
 31
0.0
  0
ARC
  5
2303
  8
3
 10
104.702987298
 20
124.8122298059
 30
0.0
 40
0.3001906285714711
 50
0.0
 51
180.0
  0
LINE
  5
2304
  8
3
 10
105.0031779265
 20
124.4119753536
 30
0.0
 11
105.0031779265
 21
124.8122298059
 31
0.0
  0
CIRCLE
  5
2305
  8
3
 10
108.00508421229991
 20
124.5120388964
 30
0.0
 40
0.600381257142857
  0
LINE
  5
2306
  8
3
 10
94.935832528999981
 20
122.84362172980001
 30
0.0
 11
94.935832528999981
 21
123.4358560304
 31
0.0
  0
ARC
  5
2307
  8
3
 10
94.729987526499997
 20
121.7674388638
 30
0.0
 40
1.681067519999953
 50
54.718738172700249
 51
82.966538684599755
  0
ARC
  5
2308
  8
3
 10
94.729987526499997
 20
124.5120388964
 30
0.0
 40
1.681067520000006
 50
277.03346131540019
 51
305.28126182729972
  0
ARC
  5
2309
  8
3
 10
92.5
 20
124.5120388964
 30
0.0
 40
2.058450024489769
 50
339.89157145150068
 51
349.52468615669972
  0
LINE
  5
230A
  8
3
 10
94.432974501700016
 20
123.80434823
 30
0.0
 11
94.524142524099986
 21
123.81557077799999
 31
0.0
  0
LINE
  5
230B
  8
3
 10
94.524142524099986
 20
123.81557077799999
 30
0.0
 11
94.524142524099986
 21
124.13778825110001
 31
0.0
  0
ARC
  5
230C
  8
3
 10
94.729987526499997
 20
124.5120388964
 30
0.0
 40
1.681067520000012
 50
97.03346131540026
 51
125.2812618272997
  0
LINE
  5
230D
  8
3
 10
94.524142524099986
 20
125.5882217625
 30
0.0
 11
94.524142524099986
 21
126.18045606299999
 31
0.0
  0
ARC
  5
230E
  8
3
 10
94.729987526499997
 20
127.25663892910001
 30
0.0
 40
1.681067519999921
 50
234.71873817270031
 51
262.96653868459981
  0
LINE
  5
230F
  8
3
 10
94.935832528999981
 20
123.81557077799999
 30
0.0
 11
94.935832528999981
 21
124.306193894
 31
0.0
  0
LINE
  5
2310
  8
3
 10
94.935832528999981
 20
124.306193894
 30
0.0
 11
96.398404693100005
 21
124.306193894
 31
0.0
  0
ARC
  5
2311
  8
3
 10
94.729987526499997
 20
124.5120388964
 30
0.0
 40
1.681067519999992
 50
318.44085240810051
 51
352.96653868459958
  0
ARC
  5
2312
  8
3
 10
94.729987526499997
 20
121.7674388638
 30
0.0
 40
2.058450024489721
 50
52.331770223300687
 51
84.260829522699169
  0
ARC
  5
2313
  8
3
 10
94.729987526499997
 20
124.5120388964
 30
0.0
 40
1.6810675199999849
 50
7.0334613154003547
 51
41.559147591899432
  0
LINE
  5
2314
  8
3
 10
94.935832528999981
 20
124.7178838989
 30
0.0
 11
96.398404693100005
 21
124.7178838989
 31
0.0
  0
ARC
  5
2315
  8
3
 10
94.729987526499997
 20
127.25663892910001
 30
0.0
 40
2.058450024489618
 50
275.73917047730077
 51
307.66822977669932
  0
LINE
  5
2316
  8
3
 10
94.935832528999981
 20
124.7178838989
 30
0.0
 11
94.935832528999981
 21
125.20850701480001
 31
0.0
  0
ARC
  5
2317
  8
3
 10
94.729987526499997
 20
127.25663892910001
 30
0.0
 40
1.6810675199995531
 50
277.03346131540019
 51
305.28126182729972
  0
LINE
  5
2318
  8
3
 10
94.935832528999981
 20
125.5882217625
 30
0.0
 11
94.935832528999981
 21
126.18045606299999
 31
0.0
  0
ARC
  5
2319
  8
3
 10
94.729987526499997
 20
124.5120388964
 30
0.0
 40
1.6810675199999561
 50
54.718738172700249
 51
82.966538684599755
  0
ARC
  5
231A
  8
0
 10
113.5
 20
99.012038896400014
 30
0.0
 40
3.0510354332851359
 50
270.0
 51
0.0
  0
LINE
  5
231B
  8
0
 10
117.549664968
 20
99.012038896400014
 30
0.0
 11
116.5510354333
 21
99.012038896400014
 31
0.0
  0
LINE
  5
231D
  8
0
 10
113.5
 20
95.961003463100013
 30
0.0
 11
113.5
 21
94.962373928400012
 31
0.0
  0
LINE
  5
231F
  8
0
 10
113.5
 20
142.5617038645
 30
0.0
 11
113.5
 21
141.56307432969999
 31
0.0
  0
LINE
  5
2320
  8
0
 10
113.5
 20
141.56307432969999
 30
0.0
 11
101.0
 21
141.56307432969999
 31
0.0
  0
ARC
  5
2322
  8
0
 10
86.5
 20
99.012038896400014
 30
0.0
 40
3.0510354332851208
 50
180.0
 51
270.0
  0
LINE
  5
2323
  8
0
 10
86.5
 20
95.961003463100013
 30
0.0
 11
86.5
 21
94.962373928400012
 31
0.0
  0
LINE
  5
2325
  8
0
 10
83.448964566699985
 20
99.012038896400014
 30
0.0
 11
82.450335031999998
 21
99.012038896400014
 31
0.0
  0
LINE
  5
2327
  8
0
 10
117.549664968
 20
138.51203889640001
 30
0.0
 11
116.5510354333
 21
138.51203889640001
 31
0.0
  0
ARC
  5
2328
  8
0
 10
113.5
 20
138.51203889640001
 30
0.0
 40
3.0510354332851359
 50
0.0
 51
90.0
  0
LINE
  5
2329
  8
0
 10
86.5
 20
95.961003463100013
 30
0.0
 11
113.5
 21
95.961003463100013
 31
0.0
  0
ARC
  5
232B
  8
0
 10
86.5
 20
138.51203889640001
 30
0.0
 40
3.0510354332851359
 50
90.0
 51
180.0
  0
LINE
  5
232C
  8
0
 10
83.448964566699985
 20
138.51203889640001
 30
0.0
 11
82.450335031999998
 21
138.51203889640001
 31
0.0
  0
LINE
  5
232E
  8
0
 10
86.5
 20
142.5617038645
 30
0.0
 11
86.5
 21
141.56307432969999
 31
0.0
  0
LINE
  5
232F
  8
0
 10
83.448964566699985
 20
138.51203889640001
 30
0.0
 11
83.448964566699985
 21
99.012038896400014
 31
0.0
  0
LINE
  5
2333
  8
0
 10
99.0
 20
141.56307432969999
 30
0.0
 11
86.5
 21
141.56307432969999
 31
0.0
  0
LINE
  5
2335
  8
0
 10
116.5510354333
 20
99.012038896400014
 30
0.0
 11
116.5510354333
 21
138.51203889640001
 31
0.0
  0
ARC
  5
233C
  8
0
 10
100.0
 20
139.0620388964
 30
0.0
 40
1.0
 50
270.0
 51
0.0
  0
ARC
  5
2343
  8
0
 10
100.0
 20
139.0620388964
 30
0.0
 40
1.0
 50
180.0
 51
270.0
  0
LINE
  5
2344
  8
0
 10
99.0
 20
155.51203889640001
 30
0.0
 11
99.0
 21
139.0620388964
 31
0.0
  0
LINE
  5
2345
  8
0
 10
100.9999999999999
 20
155.51203889640001
 30
0.0
 11
101.0
 21
139.0620388964
 31
0.0
  0
CIRCLE
  5
234D
  8
0
 10
100.0
 20
111.5120388964
 30
0.0
 40
7.5005061299091551
  0
ARC
  5
2353
  8
0
 10
113.5
 20
99.012038896400014
 30
0.0
 40
4.5240777928304112
 50
270.0
 51
0.0
  0
LINE
  5
2354
  8
0
 10
113.5
 20
94.487961103600014
 30
0.0
 11
113.5
 21
94.962373928400012
 31
0.0
  0
LINE
  5
2355
  8
0
 10
117.549664968
 20
99.012038896400014
 30
0.0
 11
118.0240777928
 21
99.012038896400014
 31
0.0
  0
LINE
  5
2356
  8
0
 10
118.0240777928
 20
99.012038896400014
 30
0.0
 11
118.0240777928
 21
138.51203889640001
 31
0.0
  0
LINE
  5
2357
  8
0
 10
118.0240777928
 20
138.51203889640001
 30
0.0
 11
117.549664968
 21
138.51203889640001
 31
0.0
  0
ARC
  5
2358
  8
0
 10
86.5
 20
138.51203889640001
 30
0.0
 40
4.5240777928304396
 50
90.0
 51
180.0
  0
LINE
  5
2359
  8
0
 10
86.5
 20
143.0361166893
 30
0.0
 11
86.5
 21
142.5617038645
 31
0.0
  0
LINE
  5
235A
  8
0
 10
82.450335031999998
 20
138.51203889640001
 30
0.0
 11
81.975922207200014
 21
138.51203889640001
 31
0.0
  0
LINE
  5
235B
  8
0
 10
91.395764012699999
 20
143.0361166893
 30
0.0
 11
86.5
 21
143.0361166893
 31
0.0
  0
POLYLINE
  5
235C
  8
0
 10
91.77935186463354
 20
142.90311033940532
 30
0.0
 66
     1
 70
     8
  0
VERTEX
  8
0
  5
3A13
 10
91.7794
 20
142.903
 30
0.000000
  70
    32
  0
VERTEX
  8
0
  5
3A14
 10
91.8026
 20
142.899
 30
0.000000
  70
    32
  0
VERTEX
  8
0
  5
3A15
 10
91.8265
 20
142.895
 30
0.000000
  70
    32
  0
VERTEX
  8
0
  5
3A16
 10
91.8511
 20
142.892
 30
0.000000
  70
    32
  0
VERTEX
  8
0
  5
3A17
 10
91.8763
 20
142.888
 30
0.000000
  70
    32
  0
VERTEX
  8
0
  5
3A18
 10
91.9022
 20
142.884
 30
0.000000
  70
    32
  0
VERTEX
  8
0
  5
3A19
 10
91.9288
 20
142.880
 30
0.000000
  70
    32
  0
VERTEX
  8
0
  5
3A1A
 10
91.9560
 20
142.876
 30
0.000000
  70
    32
  0
VERTEX
  8
0
  5
3A1B
 10
91.9839
 20
142.872
 30
0.000000
  70
    32
  0
VERTEX
  8
0
  5
3A1C
 10
92.0124
 20
142.869
 30
0.000000
  70
    32
  0
VERTEX
  8
0
  5
3A1D
 10
92.0416
 20
142.865
 30
0.000000
  70
    32
  0
VERTEX
  8
0
  5
3A1E
 10
92.0714
 20
142.861
 30
0.000000
  70
    32
  0
VERTEX
  8
0
  5
3A1F
 10
92.1019
 20
142.857
 30
0.000000
  70
    32
  0
VERTEX
  8
0
  5
3A20
 10
92.1330
 20
142.854
 30
0.000000
  70
    32
  0
VERTEX
  8
0
  5
3A21
 10
92.1648
 20
142.850
 30
0.000000
  70
    32
  0
VERTEX
  8
0
  5
3A22
 10
92.1972
 20
142.846
 30
0.000000
  70
    32
  0
VERTEX
  8
0
  5
3A23
 10
92.2302
 20
142.843
 30
0.000000
  70
    32
  0
VERTEX
  8
0
  5
3A24
 10
92.2639
 20
142.839
 30
0.000000
  70
    32
  0
VERTEX
  8
0
  5
3A25
 10
92.2981
 20
142.835
 30
0.000000
  70
    32
  0
VERTEX
  8
0
  5
3A26
 10
92.3331
 20
142.832
 30
0.000000
  70
    32
  0
VERTEX
  8
0
  5
3A27
 10
92.3686
 20
142.828
 30
0.000000
  70
    32
  0
VERTEX
  8
0
  5
3A28
 10
92.4047
 20
142.824
 30
0.000000
  70
    32
  0
VERTEX
  8
0
  5
3A29
 10
92.4415
 20
142.821
 30
0.000000
  70
    32
  0
VERTEX
  8
0
  5
3A2A
 10
92.4789
 20
142.817
 30
0.000000
  70
    32
  0
VERTEX
  8
0
  5
3A2B
 10
92.5169
 20
142.814
 30
0.000000
  70
    32
  0
VERTEX
  8
0
  5
3A2C
 10
92.5555
 20
142.810
 30
0.000000
  70
    32
  0
VERTEX
  8
0
  5
3A2D
 10
92.5947
 20
142.807
 30
0.000000
  70
    32
  0
VERTEX
  8
0
  5
3A2E
 10
92.6346
 20
142.803
 30
0.000000
  70
    32
  0
VERTEX
  8
0
  5
3A2F
 10
92.6750
 20
142.800
 30
0.000000
  70
    32
  0
VERTEX
  8
0
  5
3A30
 10
92.7160
 20
142.796
 30
0.000000
  70
    32
  0
VERTEX
  8
0
  5
3A31
 10
92.7576
 20
142.793
 30
0.000000
  70
    32
  0
VERTEX
  8
0
  5
3A32
 10
92.7998
 20
142.789
 30
0.000000
  70
    32
  0
VERTEX
  8
0
  5
3A33
 10
92.8426
 20
142.786
 30
0.000000
  70
    32
  0
VERTEX
  8
0
  5
3A34
 10
92.8860
 20
142.783
 30
0.000000
  70
    32
  0
VERTEX
  8
0
  5
3A35
 10
92.9299
 20
142.779
 30
0.000000
  70
    32
  0
VERTEX
  8
0
  5
3A36
 10
92.9744
 20
142.776
 30
0.000000
  70
    32
  0
VERTEX
  8
0
  5
3A37
 10
93.0195
 20
142.773
 30
0.000000
  70
    32
  0
VERTEX
  8
0
  5
3A38
 10
93.0652
 20
142.769
 30
0.000000
  70
    32
  0
VERTEX
  8
0
  5
3A39
 10
93.1114
 20
142.766
 30
0.000000
  70
    32
  0
VERTEX
  8
0
  5
3A3A
 10
93.1582
 20
142.763
 30
0.000000
  70
    32
  0
VERTEX
  8
0
  5
3A3B
 10
93.2055
 20
142.760
 30
0.000000
  70
    32
  0
VERTEX
  8
0
  5
3A3C
 10
93.2534
 20
142.756
 30
0.000000
  70
    32
  0
VERTEX
  8
0
  5
3A3D
 10
93.3019
 20
142.753
 30
0.000000
  70
    32
  0
VERTEX
  8
0
  5
3A3E
 10
93.3508
 20
142.750
 30
0.000000
  70
    32
  0
VERTEX
  8
0
  5
3A3F
 10
93.4004
 20
142.747
 30
0.000000
  70
    32
  0
VERTEX
  8
0
  5
3A40
 10
93.4504
 20
142.744
 30
0.000000
  70
    32
  0
VERTEX
  8
0
  5
3A41
 10
93.5010
 20
142.741
 30
0.000000
  70
    32
  0
VERTEX
  8
0
  5
3A42
 10
93.5522
 20
142.738
 30
0.000000
  70
    32
  0
VERTEX
  8
0
  5
3A43
 10
93.6038
 20
142.735
 30
0.000000
  70
    32
  0
VERTEX
  8
0
  5
3A44
 10
93.6560
 20
142.732
 30
0.000000
  70
    32
  0
VERTEX
  8
0
  5
3A45
 10
93.7087
 20
142.729
 30
0.000000
  70
    32
  0
VERTEX
  8
0
  5
3A46
 10
93.7619
 20
142.726
 30
0.000000
  70
    32
  0
VERTEX
  8
0
  5
3A47
 10
93.8156
 20
142.723
 30
0.000000
  70
    32
  0
VERTEX
  8
0
  5
3A48
 10
93.8698
 20
142.720
 30
0.000000
  70
    32
  0
VERTEX
  8
0
  5
3A49
 10
93.9245
 20
142.717
 30
0.000000
  70
    32
  0
VERTEX
  8
0
  5
3A4A
 10
93.9797
 20
142.714
 30
0.000000
  70
    32
  0
VERTEX
  8
0
  5
3A4B
 10
94.0354
 20
142.711
 30
0.000000
  70
    32
  0
VERTEX
  8
0
  5
3A4C
 10
94.0916
 20
142.708
 30
0.000000
  70
    32
  0
VERTEX
  8
0
  5
3A4D
 10
94.1482
 20
142.706
 30
0.000000
  70
    32
  0
VERTEX
  8
0
  5
3A4E
 10
94.2054
 20
142.703
 30
0.000000
  70
    32
  0
VERTEX
  8
0
  5
3A4F
 10
94.2630
 20
142.700
 30
0.000000
  70
    32
  0
VERTEX
  8
0
  5
3A50
 10
94.3211
 20
142.697
 30
0.000000
  70
    32
  0
VERTEX
  8
0
  5
3A51
 10
94.3796
 20
142.695
 30
0.000000
  70
    32
  0
VERTEX
  8
0
  5
3A52
 10
94.4386
 20
142.692
 30
0.000000
  70
    32
  0
VERTEX
  8
0
  5
3A53
 10
94.4980
 20
142.690
 30
0.000000
  70
    32
  0
VERTEX
  8
0
  5
3A54
 10
94.5579
 20
142.687
 30
0.000000
  70
    32
  0
VERTEX
  8
0
  5
3A55
 10
94.6183
 20
142.684
 30
0.000000
  70
    32
  0
VERTEX
  8
0
  5
3A56
 10
94.6790
 20
142.682
 30
0.000000
  70
    32
  0
VERTEX
  8
0
  5
3A57
 10
94.7403
 20
142.679
 30
0.000000
  70
    32
  0
VERTEX
  8
0
  5
3A58
 10
94.8019
 20
142.677
 30
0.000000
  70
    32
  0
VERTEX
  8
0
  5
3A59
 10
94.8639
 20
142.674
 30
0.000000
  70
    32
  0
VERTEX
  8
0
  5
3A5A
 10
94.9264
 20
142.672
 30
0.000000
  70
    32
  0
VERTEX
  8
0
  5
3A5B
 10
94.9893
 20
142.670
 30
0.000000
  70
    32
  0
VERTEX
  8
0
  5
3A5C
 10
95.0526
 20
142.667
 30
0.000000
  70
    32
  0
VERTEX
  8
0
  5
3A5D
 10
95.1163
 20
142.665
 30
0.000000
  70
    32
  0
VERTEX
  8
0
  5
3A5E
 10
95.1804
 20
142.663
 30
0.000000
  70
    32
  0
VERTEX
  8
0
  5
3A5F
 10
95.2449
 20
142.660
 30
0.000000
  70
    32
  0
VERTEX
  8
0
  5
3A60
 10
95.3098
 20
142.658
 30
0.000000
  70
    32
  0
VERTEX
  8
0
  5
3A61
 10
95.3750
 20
142.656
 30
0.000000
  70
    32
  0
VERTEX
  8
0
  5
3A62
 10
95.4407
 20
142.654
 30
0.000000
  70
    32
  0
VERTEX
  8
0
  5
3A63
 10
95.5067
 20
142.652
 30
0.000000
  70
    32
  0
VERTEX
  8
0
  5
3A64
 10
95.5730
 20
142.650
 30
0.000000
  70
    32
  0
VERTEX
  8
0
  5
3A65
 10
95.6398
 20
142.648
 30
0.000000
  70
    32
  0
VERTEX
  8
0
  5
3A66
 10
95.7069
 20
142.645
 30
0.000000
  70
    32
  0
VERTEX
  8
0
  5
3A67
 10
95.7743
 20
142.643
 30
0.000000
  70
    32
  0
VERTEX
  8
0
  5
3A68
 10
95.8421
 20
142.641
 30
0.000000
  70
    32
  0
VERTEX
  8
0
  5
3A69
 10
95.9102
 20
142.640
 30
0.000000
  70
    32
  0
VERTEX
  8
0
  5
3A6A
 10
95.9786
 20
142.638
 30
0.000000
  70
    32
  0
VERTEX
  8
0
  5
3A6B
 10
96.0474
 20
142.636
 30
0.000000
  70
    32
  0
VERTEX
  8
0
  5
3A6C
 10
96.1165
 20
142.634
 30
0.000000
  70
    32
  0
VERTEX
  8
0
  5
3A6D
 10
96.1859
 20
142.632
 30
0.000000
  70
    32
  0
VERTEX
  8
0
  5
3A6E
 10
96.2556
 20
142.630
 30
0.000000
  70
    32
  0
VERTEX
  8
0
  5
3A6F
 10
96.3257
 20
142.629
 30
0.000000
  70
    32
  0
VERTEX
  8
0
  5
3A70
 10
96.3960
 20
142.627
 30
0.000000
  70
    32
  0
VERTEX
  8
0
  5
3A71
 10
96.4666
 20
142.625
 30
0.000000
  70
    32
  0
VERTEX
  8
0
  5
3A72
 10
96.5375
 20
142.623
 30
0.000000
  70
    32
  0
VERTEX
  8
0
  5
3A73
 10
96.6087
 20
142.622
 30
0.000000
  70
    32
  0
VERTEX
  8
0
  5
3A74
 10
96.6802
 20
142.620
 30
0.000000
  70
    32
  0
VERTEX
  8
0
  5
3A75
 10
96.7519
 20
142.619
 30
0.000000
  70
    32
  0
VERTEX
  8
0
  5
3A76
 10
96.8239
 20
142.617
 30
0.000000
  70
    32
  0
VERTEX
  8
0
  5
3A77
 10
96.8962
 20
142.616
 30
0.000000
  70
    32
  0
VERTEX
  8
0
  5
3A78
 10
96.9687
 20
142.614
 30
0.000000
  70
    32
  0
VERTEX
  8
0
  5
3A79
 10
97.0415
 20
142.613
 30
0.000000
  70
    32
  0
VERTEX
  8
0
  5
3A7A
 10
97.1145
 20
142.611
 30
0.000000
  70
    32
  0
VERTEX
  8
0
  5
3A7B
 10
97.1877
 20
142.610
 30
0.000000
  70
    32
  0
VERTEX
  8
0
  5
3A7C
 10
97.2612
 20
142.609
 30
0.000000
  70
    32
  0
VERTEX
  8
0
  5
3A7D
 10
97.3348
 20
142.607
 30
0.000000
  70
    32
  0
VERTEX
  8
0
  5
3A7E
 10
97.4087
 20
142.606
 30
0.000000
  70
    32
  0
VERTEX
  8
0
  5
3A7F
 10
97.4829
 20
142.605
 30
0.000000
  70
    32
  0
VERTEX
  8
0
  5
3A80
 10
97.5572
 20
142.604
 30
0.000000
  70
    32
  0
VERTEX
  8
0
  5
3A81
 10
97.6317
 20
142.603
 30
0.000000
  70
    32
  0
VERTEX
  8
0
  5
3A82
 10
97.7064
 20
142.602
 30
0.000000
  70
    32
  0
VERTEX
  8
0
  5
3A83
 10
97.7813
 20
142.601
 30
0.000000
  70
    32
  0
VERTEX
  8
0
  5
3A84
 10
97.8564
 20
142.600
 30
0.000000
  70
    32
  0
VERTEX
  8
0
  5
3A85
 10
97.9316
 20
142.599
 30
0.000000
  70
    32
  0
VERTEX
  8
0
  5
3A86
 10
98.0070
 20
142.598
 30
0.000000
  70
    32
  0
VERTEX
  8
0
  5
3A87
 10
98.0826
 20
142.597
 30
0.000000
  70
    32
  0
VERTEX
  8
0
  5
3A88
 10
98.1584
 20
142.596
 30
0.000000
  70
    32
  0
VERTEX
  8
0
  5
3A89
 10
98.2342
 20
142.595
 30
0.000000
  70
    32
  0
VERTEX
  8
0
  5
3A8A
 10
98.3103
 20
142.594
 30
0.000000
  70
    32
  0
VERTEX
  8
0
  5
3A8B
 10
98.3864
 20
142.593
 30
0.000000
  70
    32
  0
VERTEX
  8
0
  5
3A8C
 10
98.4627
 20
142.593
 30
0.000000
  70
    32
  0
VERTEX
  8
0
  5
3A8D
 10
98.5392
 20
142.592
 30
0.000000
  70
    32
  0
VERTEX
  8
0
  5
3A8E
 10
98.6157
 20
142.591
 30
0.000000
  70
    32
  0
VERTEX
  8
0
  5
3A8F
 10
98.6924
 20
142.591
 30
0.000000
  70
    32
  0
VERTEX
  8
0
  5
3A90
 10
98.7691
 20
142.590
 30
0.000000
  70
    32
  0
VERTEX
  8
0
  5
3A91
 10
98.8460
 20
142.589
 30
0.000000
  70
    32
  0
VERTEX
  8
0
  5
3A92
 10
98.9230
 20
142.589
 30
0.000000
  70
    32
  0
VERTEX
  8
0
  5
3A93
 10
99.0000
 20
142.588
 30
0.000000
  70
    32
  0
SEQEND
  8
0
  5
3A94
  0
LINE
  5
235E
  8
0
 10
81.975922207200014
 20
138.51203889640001
 30
0.0
 11
81.975922207200014
 21
99.012038896400014
 31
0.0
  0
LINE
  5
235F
  8
0
 10
81.975922207200014
 20
99.012038896400014
 30
0.0
 11
82.450335031999998
 21
99.012038896400014
 31
0.0
  0
LINE
  5
2360
  8
0
 10
86.5
 20
94.487961103600014
 30
0.0
 11
113.5
 21
94.487961103600014
 31
0.0
  0
LINE
  5
2361
  8
0
 10
86.5
 20
94.962373928400012
 30
0.0
 11
86.5
 21
94.487961103600014
 31
0.0
  0
ARC
  5
2362
  8
0
 10
113.5
 20
138.51203889640001
 30
0.0
 40
4.5240777928304112
 50
0.0
 51
90.0
  0
LINE
  5
2363
  8
0
 10
113.5
 20
142.5617038645
 30
0.0
 11
113.5
 21
143.0361166893
 31
0.0
  0
ARC
  5
2364
  8
0
 10
86.5
 20
99.012038896400014
 30
0.0
 40
4.5240777928304396
 50
180.0
 51
270.0
  0
LINE
  5
2365
  8
0
 10
113.5
 20
143.0361166893
 30
0.0
 11
108.6042359873
 21
143.0361166893
 31
0.0
  0
POLYLINE
  5
2366
  8
0
 10
101.00000000000003
 20
142.58837478814451
 30
0.0
 66
     1
 70
     8
  0
VERTEX
  8
0
  5
3A95
 10
101.000
 20
142.588
 30
0.000000
  70
    32
  0
VERTEX
  8
0
  5
3A96
 10
101.073
 20
142.589
 30
0.000000
  70
    32
  0
VERTEX
  8
0
  5
3A97
 10
101.145
 20
142.589
 30
0.000000
  70
    32
  0
VERTEX
  8
0
  5
3A98
 10
101.218
 20
142.590
 30
0.000000
  70
    32
  0
VERTEX
  8
0
  5
3A99
 10
101.290
 20
142.590
 30
0.000000
  70
    32
  0
VERTEX
  8
0
  5
3A9A
 10
101.363
 20
142.591
 30
0.000000
  70
    32
  0
VERTEX
  8
0
  5
3A9B
 10
101.435
 20
142.592
 30
0.000000
  70
    32
  0
VERTEX
  8
0
  5
3A9C
 10
101.507
 20
142.592
 30
0.000000
  70
    32
  0
VERTEX
  8
0
  5
3A9D
 10
101.579
 20
142.593
 30
0.000000
  70
    32
  0
VERTEX
  8
0
  5
3A9E
 10
101.651
 20
142.594
 30
0.000000
  70
    32
  0
VERTEX
  8
0
  5
3A9F
 10
101.723
 20
142.594
 30
0.000000
  70
    32
  0
VERTEX
  8
0
  5
3AA0
 10
101.794
 20
142.595
 30
0.000000
  70
    32
  0
VERTEX
  8
0
  5
3AA1
 10
101.866
 20
142.596
 30
0.000000
  70
    32
  0
VERTEX
  8
0
  5
3AA2
 10
101.937
 20
142.597
 30
0.000000
  70
    32
  0
VERTEX
  8
0
  5
3AA3
 10
102.009
 20
142.598
 30
0.000000
  70
    32
  0
VERTEX
  8
0
  5
3AA4
 10
102.080
 20
142.599
 30
0.000000
  70
    32
  0
VERTEX
  8
0
  5
3AA5
 10
102.151
 20
142.600
 30
0.000000
  70
    32
  0
VERTEX
  8
0
  5
3AA6
 10
102.221
 20
142.601
 30
0.000000
  70
    32
  0
VERTEX
  8
0
  5
3AA7
 10
102.292
 20
142.602
 30
0.000000
  70
    32
  0
VERTEX
  8
0
  5
3AA8
 10
102.363
 20
142.603
 30
0.000000
  70
    32
  0
VERTEX
  8
0
  5
3AA9
 10
102.433
 20
142.604
 30
0.000000
  70
    32
  0
VERTEX
  8
0
  5
3AAA
 10
102.503
 20
142.605
 30
0.000000
  70
    32
  0
VERTEX
  8
0
  5
3AAB
 10
102.573
 20
142.606
 30
0.000000
  70
    32
  0
VERTEX
  8
0
  5
3AAC
 10
102.643
 20
142.607
 30
0.000000
  70
    32
  0
VERTEX
  8
0
  5
3AAD
 10
102.712
 20
142.608
 30
0.000000
  70
    32
  0
VERTEX
  8
0
  5
3AAE
 10
102.782
 20
142.610
 30
0.000000
  70
    32
  0
VERTEX
  8
0
  5
3AAF
 10
102.851
 20
142.611
 30
0.000000
  70
    32
  0
VERTEX
  8
0
  5
3AB0
 10
102.920
 20
142.612
 30
0.000000
  70
    32
  0
VERTEX
  8
0
  5
3AB1
 10
102.989
 20
142.613
 30
0.000000
  70
    32
  0
VERTEX
  8
0
  5
3AB2
 10
103.057
 20
142.615
 30
0.000000
  70
    32
  0
VERTEX
  8
0
  5
3AB3
 10
103.125
 20
142.616
 30
0.000000
  70
    32
  0
VERTEX
  8
0
  5
3AB4
 10
103.194
 20
142.618
 30
0.000000
  70
    32
  0
VERTEX
  8
0
  5
3AB5
 10
103.261
 20
142.619
 30
0.000000
  70
    32
  0
VERTEX
  8
0
  5
3AB6
 10
103.329
 20
142.620
 30
0.000000
  70
    32
  0
VERTEX
  8
0
  5
3AB7
 10
103.396
 20
142.622
 30
0.000000
  70
    32
  0
VERTEX
  8
0
  5
3AB8
 10
103.464
 20
142.623
 30
0.000000
  70
    32
  0
VERTEX
  8
0
  5
3AB9
 10
103.530
 20
142.625
 30
0.000000
  70
    32
  0
VERTEX
  8
0
  5
3ABA
 10
103.597
 20
142.627
 30
0.000000
  70
    32
  0
VERTEX
  8
0
  5
3ABB
 10
103.663
 20
142.628
 30
0.000000
  70
    32
  0
VERTEX
  8
0
  5
3ABC
 10
103.730
 20
142.630
 30
0.000000
  70
    32
  0
VERTEX
  8
0
  5
3ABD
 10
103.795
 20
142.632
 30
0.000000
  70
    32
  0
VERTEX
  8
0
  5
3ABE
 10
103.861
 20
142.633
 30
0.000000
  70
    32
  0
VERTEX
  8
0
  5
3ABF
 10
103.926
 20
142.635
 30
0.000000
  70
    32
  0
VERTEX
  8
0
  5
3AC0
 10
103.991
 20
142.637
 30
0.000000
  70
    32
  0
VERTEX
  8
0
  5
3AC1
 10
104.056
 20
142.639
 30
0.000000
  70
    32
  0
VERTEX
  8
0
  5
3AC2
 10
104.120
 20
142.640
 30
0.000000
  70
    32
  0
VERTEX
  8
0
  5
3AC3
 10
104.184
 20
142.642
 30
0.000000
  70
    32
  0
VERTEX
  8
0
  5
3AC4
 10
104.248
 20
142.644
 30
0.000000
  70
    32
  0
VERTEX
  8
0
  5
3AC5
 10
104.312
 20
142.646
 30
0.000000
  70
    32
  0
VERTEX
  8
0
  5
3AC6
 10
104.375
 20
142.648
 30
0.000000
  70
    32
  0
VERTEX
  8
0
  5
3AC7
 10
104.438
 20
142.650
 30
0.000000
  70
    32
  0
VERTEX
  8
0
  5
3AC8
 10
104.500
 20
142.652
 30
0.000000
  70
    32
  0
VERTEX
  8
0
  5
3AC9
 10
104.563
 20
142.654
 30
0.000000
  70
    32
  0
VERTEX
  8
0
  5
3ACA
 10
104.625
 20
142.656
 30
0.000000
  70
    32
  0
VERTEX
  8
0
  5
3ACB
 10
104.686
 20
142.658
 30
0.000000
  70
    32
  0
VERTEX
  8
0
  5
3ACC
 10
104.747
 20
142.660
 30
0.000000
  70
    32
  0
VERTEX
  8
0
  5
3ACD
 10
104.808
 20
142.662
 30
0.000000
  70
    32
  0
VERTEX
  8
0
  5
3ACE
 10
104.869
 20
142.664
 30
0.000000
  70
    32
  0
VERTEX
  8
0
  5
3ACF
 10
104.929
 20
142.667
 30
0.000000
  70
    32
  0
VERTEX
  8
0
  5
3AD0
 10
104.989
 20
142.669
 30
0.000000
  70
    32
  0
VERTEX
  8
0
  5
3AD1
 10
105.048
 20
142.671
 30
0.000000
  70
    32
  0
VERTEX
  8
0
  5
3AD2
 10
105.107
 20
142.673
 30
0.000000
  70
    32
  0
VERTEX
  8
0
  5
3AD3
 10
105.166
 20
142.676
 30
0.000000
  70
    32
  0
VERTEX
  8
0
  5
3AD4
 10
105.224
 20
142.678
 30
0.000000
  70
    32
  0
VERTEX
  8
0
  5
3AD5
 10
105.282
 20
142.680
 30
0.000000
  70
    32
  0
VERTEX
  8
0
  5
3AD6
 10
105.340
 20
142.683
 30
0.000000
  70
    32
  0
VERTEX
  8
0
  5
3AD7
 10
105.397
 20
142.685
 30
0.000000
  70
    32
  0
VERTEX
  8
0
  5
3AD8
 10
105.454
 20
142.687
 30
0.000000
  70
    32
  0
VERTEX
  8
0
  5
3AD9
 10
105.511
 20
142.690
 30
0.000000
  70
    32
  0
VERTEX
  8
0
  5
3ADA
 10
105.567
 20
142.692
 30
0.000000
  70
    32
  0
VERTEX
  8
0
  5
3ADB
 10
105.622
 20
142.695
 30
0.000000
  70
    32
  0
VERTEX
  8
0
  5
3ADC
 10
105.677
 20
142.697
 30
0.000000
  70
    32
  0
VERTEX
  8
0
  5
3ADD
 10
105.732
 20
142.700
 30
0.000000
  70
    32
  0
VERTEX
  8
0
  5
3ADE
 10
105.787
 20
142.703
 30
0.000000
  70
    32
  0
VERTEX
  8
0
  5
3ADF
 10
105.841
 20
142.705
 30
0.000000
  70
    32
  0
VERTEX
  8
0
  5
3AE0
 10
105.894
 20
142.708
 30
0.000000
  70
    32
  0
VERTEX
  8
0
  5
3AE1
 10
105.947
 20
142.710
 30
0.000000
  70
    32
  0
VERTEX
  8
0
  5
3AE2
 10
106.000
 20
142.713
 30
0.000000
  70
    32
  0
VERTEX
  8
0
  5
3AE3
 10
106.052
 20
142.716
 30
0.000000
  70
    32
  0
VERTEX
  8
0
  5
3AE4
 10
106.104
 20
142.718
 30
0.000000
  70
    32
  0
VERTEX
  8
0
  5
3AE5
 10
106.155
 20
142.721
 30
0.000000
  70
    32
  0
VERTEX
  8
0
  5
3AE6
 10
106.206
 20
142.724
 30
0.000000
  70
    32
  0
VERTEX
  8
0
  5
3AE7
 10
106.257
 20
142.727
 30
0.000000
  70
    32
  0
VERTEX
  8
0
  5
3AE8
 10
106.307
 20
142.730
 30
0.000000
  70
    32
  0
VERTEX
  8
0
  5
3AE9
 10
106.356
 20
142.732
 30
0.000000
  70
    32
  0
VERTEX
  8
0
  5
3AEA
 10
106.405
 20
142.735
 30
0.000000
  70
    32
  0
VERTEX
  8
0
  5
3AEB
 10
106.454
 20
142.738
 30
0.000000
  70
    32
  0
VERTEX
  8
0
  5
3AEC
 10
106.502
 20
142.741
 30
0.000000
  70
    32
  0
VERTEX
  8
0
  5
3AED
 10
106.550
 20
142.744
 30
0.000000
  70
    32
  0
VERTEX
  8
0
  5
3AEE
 10
106.597
 20
142.747
 30
0.000000
  70
    32
  0
VERTEX
  8
0
  5
3AEF
 10
106.644
 20
142.750
 30
0.000000
  70
    32
  0
VERTEX
  8
0
  5
3AF0
 10
106.690
 20
142.753
 30
0.000000
  70
    32
  0
VERTEX
  8
0
  5
3AF1
 10
106.736
 20
142.756
 30
0.000000
  70
    32
  0
VERTEX
  8
0
  5
3AF2
 10
106.781
 20
142.759
 30
0.000000
  70
    32
  0
VERTEX
  8
0
  5
3AF3
 10
106.826
 20
142.762
 30
0.000000
  70
    32
  0
VERTEX
  8
0
  5
3AF4
 10
106.871
 20
142.765
 30
0.000000
  70
    32
  0
VERTEX
  8
0
  5
3AF5
 10
106.914
 20
142.768
 30
0.000000
  70
    32
  0
VERTEX
  8
0
  5
3AF6
 10
106.958
 20
142.771
 30
0.000000
  70
    32
  0
VERTEX
  8
0
  5
3AF7
 10
107.000
 20
142.774
 30
0.000000
  70
    32
  0
VERTEX
  8
0
  5
3AF8
 10
107.043
 20
142.777
 30
0.000000
  70
    32
  0
VERTEX
  8
0
  5
3AF9
 10
107.085
 20
142.780
 30
0.000000
  70
    32
  0
VERTEX
  8
0
  5
3AFA
 10
107.126
 20
142.784
 30
0.000000
  70
    32
  0
VERTEX
  8
0
  5
3AFB
 10
107.167
 20
142.787
 30
0.000000
  70
    32
  0
VERTEX
  8
0
  5
3AFC
 10
107.207
 20
142.790
 30
0.000000
  70
    32
  0
VERTEX
  8
0
  5
3AFD
 10
107.247
 20
142.793
 30
0.000000
  70
    32
  0
VERTEX
  8
0
  5
3AFE
 10
107.286
 20
142.796
 30
0.000000
  70
    32
  0
VERTEX
  8
0
  5
3AFF
 10
107.325
 20
142.800
 30
0.000000
  70
    32
  0
VERTEX
  8
0
  5
3B00
 10
107.363
 20
142.803
 30
0.000000
  70
    32
  0
VERTEX
  8
0
  5
3B01
 10
107.400
 20
142.806
 30
0.000000
  70
    32
  0
VERTEX
  8
0
  5
3B02
 10
107.437
 20
142.810
 30
0.000000
  70
    32
  0
VERTEX
  8
0
  5
3B03
 10
107.474
 20
142.813
 30
0.000000
  70
    32
  0
VERTEX
  8
0
  5
3B04
 10
107.510
 20
142.816
 30
0.000000
  70
    32
  0
VERTEX
  8
0
  5
3B05
 10
107.545
 20
142.820
 30
0.000000
  70
    32
  0
VERTEX
  8
0
  5
3B06
 10
107.580
 20
142.823
 30
0.000000
  70
    32
  0
VERTEX
  8
0
  5
3B07
 10
107.615
 20
142.826
 30
0.000000
  70
    32
  0
VERTEX
  8
0
  5
3B08
 10
107.648
 20
142.830
 30
0.000000
  70
    32
  0
VERTEX
  8
0
  5
3B09
 10
107.682
 20
142.833
 30
0.000000
  70
    32
  0
VERTEX
  8
0
  5
3B0A
 10
107.714
 20
142.837
 30
0.000000
  70
    32
  0
VERTEX
  8
0
  5
3B0B
 10
107.747
 20
142.840
 30
0.000000
  70
    32
  0
VERTEX
  8
0
  5
3B0C
 10
107.778
 20
142.843
 30
0.000000
  70
    32
  0
VERTEX
  8
0
  5
3B0D
 10
107.809
 20
142.847
 30
0.000000
  70
    32
  0
VERTEX
  8
0
  5
3B0E
 10
107.840
 20
142.850
 30
0.000000
  70
    32
  0
VERTEX
  8
0
  5
3B0F
 10
107.870
 20
142.854
 30
0.000000
  70
    32
  0
VERTEX
  8
0
  5
3B10
 10
107.899
 20
142.857
 30
0.000000
  70
    32
  0
VERTEX
  8
0
  5
3B11
 10
107.928
 20
142.861
 30
0.000000
  70
    32
  0
VERTEX
  8
0
  5
3B12
 10
107.956
 20
142.865
 30
0.000000
  70
    32
  0
VERTEX
  8
0
  5
3B13
 10
107.983
 20
142.868
 30
0.000000
  70
    32
  0
VERTEX
  8
0
  5
3B14
 10
108.010
 20
142.872
 30
0.000000
  70
    32
  0
VERTEX
  8
0
  5
3B15
 10
108.037
 20
142.875
 30
0.000000
  70
    32
  0
SEQEND
  8
0
  5
3B16
  0
ARC
  5
236A
  8
0
 10
108.6045100899
 20
143.53640154780001
 30
0.0
 40
0.5002849335957352
 50
182.95226670930009
 51
269.96860804749809
  0
ARC
  5
236D
  8
0
 10
91.395356311400008
 20
143.53654213690001
 30
0.0
 40
0.500425613708401
 50
270.04667939549881
 51
357.03244584760017
  0
LINE
  5
2370
  8
0
 10
92.0
 20
145.51203889640001
 30
0.0
 11
91.895110860299994
 21
143.5106348841
 31
0.0
  0
LINE
  5
2373
  8
0
 10
108.0
 20
145.51203889640001
 30
0.0
 11
108.10488913970001
 21
143.5106348841
 31
0.0
  0
LINE
  5
2374
  8
0
 10
108.0
 20
145.51203889640001
 30
0.0
 11
101.0
 21
145.51203889640001
 31
0.0
  0
LINE
  5
2376
  8
0
 10
99.0
 20
145.4893396201
 30
0.0
 11
101.0
 21
145.4893396201
 31
0.0
  0
ARC
  5
2379
  8
0
 10
91.395489910100025
 20
143.53640154780001
 30
0.0
 40
0.5002849335956949
 50
270.03139195249861
 51
357.04773329069968
  0
ARC
  5
237A
  8
0
 10
108.60464368860001
 20
143.53654213690001
 30
0.0
 40
0.5004256137083988
 50
182.96755415239971
 51
269.95332060450119
  0
LINE
  5
237B
  8
0
 10
91.895110860299994
 20
143.5106348841
 30
0.0
 11
92.0
 21
145.51203889640001
 31
0.0
  0
LINE
  5
237C
  8
0
 10
108.10488913970001
 20
143.5106348841
 30
0.0
 11
108.0
 21
145.51203889640001
 31
0.0
  0
CIRCLE
  5
237D
  8
0
 10
110.5
 20
135.01203889640001
 30
0.0
 40
2.2254493507178101
  0
CIRCLE
  5
237E
  8
0
 10
89.500000000000014
 20
135.01203889640001
 30
0.0
 40
2.2254493507178368
  0
CIRCLE
  5
2388
  8
0
 10
100.0
 20
111.5120388964
 30
0.0
 40
4.0
  0
POLYLINE
  5
238D
  8
0
 10
91.395764012682179
 20
143.03611668929685
 30
0.0
 66
     1
 70
     8
  0
VERTEX
  8
0
  5
3B17
 10
91.3958
 20
143.036
 30
0.000000
  70
    32
  0
VERTEX
  8
0
  5
3B18
 10
91.3958
 20
143.035
 30
0.000000
  70
    32
  0
VERTEX
  8
0
  5
3B19
 10
91.3959
 20
143.034
 30
0.000000
  70
    32
  0
VERTEX
  8
0
  5
3B1A
 10
91.3960
 20
143.033
 30
0.000000
  70
    32
  0
VERTEX
  8
0
  5
3B1B
 10
91.3962
 20
143.032
 30
0.000000
  70
    32
  0
VERTEX
  8
0
  5
3B1C
 10
91.3964
 20
143.031
 30
0.000000
  70
    32
  0
VERTEX
  8
0
  5
3B1D
 10
91.3966
 20
143.030
 30
0.000000
  70
    32
  0
VERTEX
  8
0
  5
3B1E
 10
91.3970
 20
143.029
 30
0.000000
  70
    32
  0
VERTEX
  8
0
  5
3B1F
 10
91.3973
 20
143.028
 30
0.000000
  70
    32
  0
VERTEX
  8
0
  5
3B20
 10
91.3977
 20
143.027
 30
0.000000
  70
    32
  0
VERTEX
  8
0
  5
3B21
 10
91.3982
 20
143.026
 30
0.000000
  70
    32
  0
VERTEX
  8
0
  5
3B22
 10
91.3987
 20
143.025
 30
0.000000
  70
    32
  0
VERTEX
  8
0
  5
3B23
 10
91.3992
 20
143.023
 30
0.000000
  70
    32
  0
VERTEX
  8
0
  5
3B24
 10
91.3998
 20
143.022
 30
0.000000
  70
    32
  0
VERTEX
  8
0
  5
3B25
 10
91.4005
 20
143.021
 30
0.000000
  70
    32
  0
VERTEX
  8
0
  5
3B26
 10
91.4011
 20
143.020
 30
0.000000
  70
    32
  0
VERTEX
  8
0
  5
3B27
 10
91.4019
 20
143.019
 30
0.000000
  70
    32
  0
VERTEX
  8
0
  5
3B28
 10
91.4027
 20
143.018
 30
0.000000
  70
    32
  0
VERTEX
  8
0
  5
3B29
 10
91.4035
 20
143.017
 30
0.000000
  70
    32
  0
VERTEX
  8
0
  5
3B2A
 10
91.4044
 20
143.016
 30
0.000000
  70
    32
  0
VERTEX
  8
0
  5
3B2B
 10
91.4053
 20
143.015
 30
0.000000
  70
    32
  0
VERTEX
  8
0
  5
3B2C
 10
91.4063
 20
143.014
 30
0.000000
  70
    32
  0
VERTEX
  8
0
  5
3B2D
 10
91.4073
 20
143.013
 30
0.000000
  70
    32
  0
VERTEX
  8
0
  5
3B2E
 10
91.4084
 20
143.012
 30
0.000000
  70
    32
  0
VERTEX
  8
0
  5
3B2F
 10
91.4095
 20
143.011
 30
0.000000
  70
    32
  0
VERTEX
  8
0
  5
3B30
 10
91.4106
 20
143.010
 30
0.000000
  70
    32
  0
VERTEX
  8
0
  5
3B31
 10
91.4118
 20
143.009
 30
0.000000
  70
    32
  0
VERTEX
  8
0
  5
3B32
 10
91.4131
 20
143.008
 30
0.000000
  70
    32
  0
VERTEX
  8
0
  5
3B33
 10
91.4144
 20
143.007
 30
0.000000
  70
    32
  0
VERTEX
  8
0
  5
3B34
 10
91.4157
 20
143.006
 30
0.000000
  70
    32
  0
VERTEX
  8
0
  5
3B35
 10
91.4171
 20
143.004
 30
0.000000
  70
    32
  0
VERTEX
  8
0
  5
3B36
 10
91.4186
 20
143.003
 30
0.000000
  70
    32
  0
VERTEX
  8
0
  5
3B37
 10
91.4200
 20
143.002
 30
0.000000
  70
    32
  0
VERTEX
  8
0
  5
3B38
 10
91.4216
 20
143.001
 30
0.000000
  70
    32
  0
VERTEX
  8
0
  5
3B39
 10
91.4232
 20
143.000
 30
0.000000
  70
    32
  0
VERTEX
  8
0
  5
3B3A
 10
91.4248
 20
142.999
 30
0.000000
  70
    32
  0
VERTEX
  8
0
  5
3B3B
 10
91.4265
 20
142.998
 30
0.000000
  70
    32
  0
VERTEX
  8
0
  5
3B3C
 10
91.4282
 20
142.997
 30
0.000000
  70
    32
  0
VERTEX
  8
0
  5
3B3D
 10
91.4300
 20
142.996
 30
0.000000
  70
    32
  0
VERTEX
  8
0
  5
3B3E
 10
91.4318
 20
142.995
 30
0.000000
  70
    32
  0
VERTEX
  8
0
  5
3B3F
 10
91.4336
 20
142.994
 30
0.000000
  70
    32
  0
VERTEX
  8
0
  5
3B40
 10
91.4356
 20
142.993
 30
0.000000
  70
    32
  0
VERTEX
  8
0
  5
3B41
 10
91.4375
 20
142.992
 30
0.000000
  70
    32
  0
VERTEX
  8
0
  5
3B42
 10
91.4395
 20
142.991
 30
0.000000
  70
    32
  0
VERTEX
  8
0
  5
3B43
 10
91.4416
 20
142.990
 30
0.000000
  70
    32
  0
VERTEX
  8
0
  5
3B44
 10
91.4437
 20
142.989
 30
0.000000
  70
    32
  0
VERTEX
  8
0
  5
3B45
 10
91.4458
 20
142.988
 30
0.000000
  70
    32
  0
VERTEX
  8
0
  5
3B46
 10
91.4480
 20
142.987
 30
0.000000
  70
    32
  0
VERTEX
  8
0
  5
3B47
 10
91.4502
 20
142.986
 30
0.000000
  70
    32
  0
VERTEX
  8
0
  5
3B48
 10
91.4525
 20
142.985
 30
0.000000
  70
    32
  0
VERTEX
  8
0
  5
3B49
 10
91.4548
 20
142.983
 30
0.000000
  70
    32
  0
VERTEX
  8
0
  5
3B4A
 10
91.4572
 20
142.982
 30
0.000000
  70
    32
  0
VERTEX
  8
0
  5
3B4B
 10
91.4597
 20
142.981
 30
0.000000
  70
    32
  0
VERTEX
  8
0
  5
3B4C
 10
91.4621
 20
142.980
 30
0.000000
  70
    32
  0
VERTEX
  8
0
  5
3B4D
 10
91.4646
 20
142.979
 30
0.000000
  70
    32
  0
VERTEX
  8
0
  5
3B4E
 10
91.4672
 20
142.978
 30
0.000000
  70
    32
  0
VERTEX
  8
0
  5
3B4F
 10
91.4698
 20
142.977
 30
0.000000
  70
    32
  0
VERTEX
  8
0
  5
3B50
 10
91.4725
 20
142.976
 30
0.000000
  70
    32
  0
VERTEX
  8
0
  5
3B51
 10
91.4752
 20
142.975
 30
0.000000
  70
    32
  0
VERTEX
  8
0
  5
3B52
 10
91.4779
 20
142.974
 30
0.000000
  70
    32
  0
VERTEX
  8
0
  5
3B53
 10
91.4807
 20
142.973
 30
0.000000
  70
    32
  0
VERTEX
  8
0
  5
3B54
 10
91.4836
 20
142.972
 30
0.000000
  70
    32
  0
VERTEX
  8
0
  5
3B55
 10
91.4865
 20
142.971
 30
0.000000
  70
    32
  0
VERTEX
  8
0
  5
3B56
 10
91.4894
 20
142.970
 30
0.000000
  70
    32
  0
VERTEX
  8
0
  5
3B57
 10
91.4924
 20
142.969
 30
0.000000
  70
    32
  0
VERTEX
  8
0
  5
3B58
 10
91.4954
 20
142.968
 30
0.000000
  70
    32
  0
VERTEX
  8
0
  5
3B59
 10
91.4985
 20
142.967
 30
0.000000
  70
    32
  0
VERTEX
  8
0
  5
3B5A
 10
91.5016
 20
142.966
 30
0.000000
  70
    32
  0
VERTEX
  8
0
  5
3B5B
 10
91.5048
 20
142.965
 30
0.000000
  70
    32
  0
VERTEX
  8
0
  5
3B5C
 10
91.5080
 20
142.964
 30
0.000000
  70
    32
  0
VERTEX
  8
0
  5
3B5D
 10
91.5113
 20
142.963
 30
0.000000
  70
    32
  0
VERTEX
  8
0
  5
3B5E
 10
91.5146
 20
142.962
 30
0.000000
  70
    32
  0
VERTEX
  8
0
  5
3B5F
 10
91.5179
 20
142.961
 30
0.000000
  70
    32
  0
VERTEX
  8
0
  5
3B60
 10
91.5213
 20
142.959
 30
0.000000
  70
    32
  0
VERTEX
  8
0
  5
3B61
 10
91.5248
 20
142.958
 30
0.000000
  70
    32
  0
VERTEX
  8
0
  5
3B62
 10
91.5283
 20
142.957
 30
0.000000
  70
    32
  0
VERTEX
  8
0
  5
3B63
 10
91.5318
 20
142.956
 30
0.000000
  70
    32
  0
VERTEX
  8
0
  5
3B64
 10
91.5354
 20
142.955
 30
0.000000
  70
    32
  0
VERTEX
  8
0
  5
3B65
 10
91.5391
 20
142.954
 30
0.000000
  70
    32
  0
VERTEX
  8
0
  5
3B66
 10
91.5427
 20
142.953
 30
0.000000
  70
    32
  0
VERTEX
  8
0
  5
3B67
 10
91.5465
 20
142.952
 30
0.000000
  70
    32
  0
VERTEX
  8
0
  5
3B68
 10
91.5502
 20
142.951
 30
0.000000
  70
    32
  0
VERTEX
  8
0
  5
3B69
 10
91.5541
 20
142.950
 30
0.000000
  70
    32
  0
VERTEX
  8
0
  5
3B6A
 10
91.5579
 20
142.949
 30
0.000000
  70
    32
  0
VERTEX
  8
0
  5
3B6B
 10
91.5618
 20
142.948
 30
0.000000
  70
    32
  0
VERTEX
  8
0
  5
3B6C
 10
91.5658
 20
142.947
 30
0.000000
  70
    32
  0
VERTEX
  8
0
  5
3B6D
 10
91.5698
 20
142.946
 30
0.000000
  70
    32
  0
VERTEX
  8
0
  5
3B6E
 10
91.5739
 20
142.945
 30
0.000000
  70
    32
  0
VERTEX
  8
0
  5
3B6F
 10
91.5779
 20
142.944
 30
0.000000
  70
    32
  0
VERTEX
  8
0
  5
3B70
 10
91.5821
 20
142.943
 30
0.000000
  70
    32
  0
VERTEX
  8
0
  5
3B71
 10
91.5863
 20
142.942
 30
0.000000
  70
    32
  0
VERTEX
  8
0
  5
3B72
 10
91.5905
 20
142.941
 30
0.000000
  70
    32
  0
VERTEX
  8
0
  5
3B73
 10
91.5948
 20
142.940
 30
0.000000
  70
    32
  0
VERTEX
  8
0
  5
3B74
 10
91.5991
 20
142.939
 30
0.000000
  70
    32
  0
VERTEX
  8
0
  5
3B75
 10
91.6035
 20
142.938
 30
0.000000
  70
    32
  0
VERTEX
  8
0
  5
3B76
 10
91.6079
 20
142.937
 30
0.000000
  70
    32
  0
VERTEX
  8
0
  5
3B77
 10
91.6124
 20
142.936
 30
0.000000
  70
    32
  0
VERTEX
  8
0
  5
3B78
 10
91.6169
 20
142.935
 30
0.000000
  70
    32
  0
VERTEX
  8
0
  5
3B79
 10
91.6214
 20
142.934
 30
0.000000
  70
    32
  0
VERTEX
  8
0
  5
3B7A
 10
91.6261
 20
142.933
 30
0.000000
  70
    32
  0
VERTEX
  8
0
  5
3B7B
 10
91.6307
 20
142.932
 30
0.000000
  70
    32
  0
VERTEX
  8
0
  5
3B7C
 10
91.6354
 20
142.931
 30
0.000000
  70
    32
  0
VERTEX
  8
0
  5
3B7D
 10
91.6401
 20
142.930
 30
0.000000
  70
    32
  0
VERTEX
  8
0
  5
3B7E
 10
91.6449
 20
142.929
 30
0.000000
  70
    32
  0
VERTEX
  8
0
  5
3B7F
 10
91.6498
 20
142.927
 30
0.000000
  70
    32
  0
VERTEX
  8
0
  5
3B80
 10
91.6546
 20
142.926
 30
0.000000
  70
    32
  0
VERTEX
  8
0
  5
3B81
 10
91.6596
 20
142.925
 30
0.000000
  70
    32
  0
VERTEX
  8
0
  5
3B82
 10
91.6645
 20
142.924
 30
0.000000
  70
    32
  0
VERTEX
  8
0
  5
3B83
 10
91.6695
 20
142.923
 30
0.000000
  70
    32
  0
VERTEX
  8
0
  5
3B84
 10
91.6746
 20
142.922
 30
0.000000
  70
    32
  0
VERTEX
  8
0
  5
3B85
 10
91.6797
 20
142.921
 30
0.000000
  70
    32
  0
VERTEX
  8
0
  5
3B86
 10
91.6849
 20
142.920
 30
0.000000
  70
    32
  0
VERTEX
  8
0
  5
3B87
 10
91.6900
 20
142.919
 30
0.000000
  70
    32
  0
VERTEX
  8
0
  5
3B88
 10
91.6953
 20
142.918
 30
0.000000
  70
    32
  0
VERTEX
  8
0
  5
3B89
 10
91.7006
 20
142.917
 30
0.000000
  70
    32
  0
VERTEX
  8
0
  5
3B8A
 10
91.7059
 20
142.916
 30
0.000000
  70
    32
  0
VERTEX
  8
0
  5
3B8B
 10
91.7113
 20
142.915
 30
0.000000
  70
    32
  0
VERTEX
  8
0
  5
3B8C
 10
91.7167
 20
142.914
 30
0.000000
  70
    32
  0
VERTEX
  8
0
  5
3B8D
 10
91.7222
 20
142.913
 30
0.000000
  70
    32
  0
VERTEX
  8
0
  5
3B8E
 10
91.7277
 20
142.912
 30
0.000000
  70
    32
  0
VERTEX
  8
0
  5
3B8F
 10
91.7333
 20
142.911
 30
0.000000
  70
    32
  0
VERTEX
  8
0
  5
3B90
 10
91.7389
 20
142.910
 30
0.000000
  70
    32
  0
VERTEX
  8
0
  5
3B91
 10
91.7445
 20
142.909
 30
0.000000
  70
    32
  0
VERTEX
  8
0
  5
3B92
 10
91.7502
 20
142.908
 30
0.000000
  70
    32
  0
VERTEX
  8
0
  5
3B93
 10
91.7559
 20
142.907
 30
0.000000
  70
    32
  0
VERTEX
  8
0
  5
3B94
 10
91.7617
 20
142.906
 30
0.000000
  70
    32
  0
VERTEX
  8
0
  5
3B95
 10
91.7676
 20
142.905
 30
0.000000
  70
    32
  0
VERTEX
  8
0
  5
3B96
 10
91.7734
 20
142.904
 30
0.000000
  70
    32
  0
VERTEX
  8
0
  5
3B97
 10
91.7794
 20
142.903
 30
0.000000
  70
    32
  0
SEQEND
  8
0
  5
3B98
  0
POLYLINE
  5
238E
  8
0
 10
108.03679077771943
 20
142.87520371801747
 30
0.0
 66
     1
 70
     8
  0
VERTEX
  8
0
  5
3B99
 10
108.037
 20
142.875
 30
0.000000
  70
    32
  0
VERTEX
  8
0
  5
3B9A
 10
108.046
 20
142.876
 30
0.000000
  70
    32
  0
VERTEX
  8
0
  5
3B9B
 10
108.054
 20
142.878
 30
0.000000
  70
    32
  0
VERTEX
  8
0
  5
3B9C
 10
108.063
 20
142.879
 30
0.000000
  70
    32
  0
VERTEX
  8
0
  5
3B9D
 10
108.071
 20
142.880
 30
0.000000
  70
    32
  0
VERTEX
  8
0
  5
3B9E
 10
108.080
 20
142.881
 30
0.000000
  70
    32
  0
VERTEX
  8
0
  5
3B9F
 10
108.088
 20
142.882
 30
0.000000
  70
    32
  0
VERTEX
  8
0
  5
3BA0
 10
108.097
 20
142.884
 30
0.000000
  70
    32
  0
VERTEX
  8
0
  5
3BA1
 10
108.105
 20
142.885
 30
0.000000
  70
    32
  0
VERTEX
  8
0
  5
3BA2
 10
108.113
 20
142.886
 30
0.000000
  70
    32
  0
VERTEX
  8
0
  5
3BA3
 10
108.121
 20
142.887
 30
0.000000
  70
    32
  0
VERTEX
  8
0
  5
3BA4
 10
108.129
 20
142.888
 30
0.000000
  70
    32
  0
VERTEX
  8
0
  5
3BA5
 10
108.137
 20
142.890
 30
0.000000
  70
    32
  0
VERTEX
  8
0
  5
3BA6
 10
108.145
 20
142.891
 30
0.000000
  70
    32
  0
VERTEX
  8
0
  5
3BA7
 10
108.153
 20
142.892
 30
0.000000
  70
    32
  0
VERTEX
  8
0
  5
3BA8
 10
108.161
 20
142.893
 30
0.000000
  70
    32
  0
VERTEX
  8
0
  5
3BA9
 10
108.169
 20
142.895
 30
0.000000
  70
    32
  0
VERTEX
  8
0
  5
3BAA
 10
108.176
 20
142.896
 30
0.000000
  70
    32
  0
VERTEX
  8
0
  5
3BAB
 10
108.184
 20
142.897
 30
0.000000
  70
    32
  0
VERTEX
  8
0
  5
3BAC
 10
108.191
 20
142.898
 30
0.000000
  70
    32
  0
VERTEX
  8
0
  5
3BAD
 10
108.199
 20
142.899
 30
0.000000
  70
    32
  0
VERTEX
  8
0
  5
3BAE
 10
108.206
 20
142.901
 30
0.000000
  70
    32
  0
VERTEX
  8
0
  5
3BAF
 10
108.214
 20
142.902
 30
0.000000
  70
    32
  0
VERTEX
  8
0
  5
3BB0
 10
108.221
 20
142.903
 30
0.000000
  70
    32
  0
VERTEX
  8
0
  5
3BB1
 10
108.228
 20
142.904
 30
0.000000
  70
    32
  0
VERTEX
  8
0
  5
3BB2
 10
108.235
 20
142.906
 30
0.000000
  70
    32
  0
VERTEX
  8
0
  5
3BB3
 10
108.242
 20
142.907
 30
0.000000
  70
    32
  0
VERTEX
  8
0
  5
3BB4
 10
108.249
 20
142.908
 30
0.000000
  70
    32
  0
VERTEX
  8
0
  5
3BB5
 10
108.256
 20
142.909
 30
0.000000
  70
    32
  0
VERTEX
  8
0
  5
3BB6
 10
108.263
 20
142.911
 30
0.000000
  70
    32
  0
VERTEX
  8
0
  5
3BB7
 10
108.270
 20
142.912
 30
0.000000
  70
    32
  0
VERTEX
  8
0
  5
3BB8
 10
108.277
 20
142.913
 30
0.000000
  70
    32
  0
VERTEX
  8
0
  5
3BB9
 10
108.283
 20
142.914
 30
0.000000
  70
    32
  0
VERTEX
  8
0
  5
3BBA
 10
108.290
 20
142.915
 30
0.000000
  70
    32
  0
VERTEX
  8
0
  5
3BBB
 10
108.296
 20
142.917
 30
0.000000
  70
    32
  0
VERTEX
  8
0
  5
3BBC
 10
108.303
 20
142.918
 30
0.000000
  70
    32
  0
VERTEX
  8
0
  5
3BBD
 10
108.309
 20
142.919
 30
0.000000
  70
    32
  0
VERTEX
  8
0
  5
3BBE
 10
108.316
 20
142.920
 30
0.000000
  70
    32
  0
VERTEX
  8
0
  5
3BBF
 10
108.322
 20
142.922
 30
0.000000
  70
    32
  0
VERTEX
  8
0
  5
3BC0
 10
108.328
 20
142.923
 30
0.000000
  70
    32
  0
VERTEX
  8
0
  5
3BC1
 10
108.334
 20
142.924
 30
0.000000
  70
    32
  0
VERTEX
  8
0
  5
3BC2
 10
108.340
 20
142.925
 30
0.000000
  70
    32
  0
VERTEX
  8
0
  5
3BC3
 10
108.346
 20
142.927
 30
0.000000
  70
    32
  0
VERTEX
  8
0
  5
3BC4
 10
108.352
 20
142.928
 30
0.000000
  70
    32
  0
VERTEX
  8
0
  5
3BC5
 10
108.358
 20
142.929
 30
0.000000
  70
    32
  0
VERTEX
  8
0
  5
3BC6
 10
108.364
 20
142.930
 30
0.000000
  70
    32
  0
VERTEX
  8
0
  5
3BC7
 10
108.370
 20
142.932
 30
0.000000
  70
    32
  0
VERTEX
  8
0
  5
3BC8
 10
108.375
 20
142.933
 30
0.000000
  70
    32
  0
VERTEX
  8
0
  5
3BC9
 10
108.381
 20
142.934
 30
0.000000
  70
    32
  0
VERTEX
  8
0
  5
3BCA
 10
108.386
 20
142.935
 30
0.000000
  70
    32
  0
VERTEX
  8
0
  5
3BCB
 10
108.392
 20
142.937
 30
0.000000
  70
    32
  0
VERTEX
  8
0
  5
3BCC
 10
108.397
 20
142.938
 30
0.000000
  70
    32
  0
VERTEX
  8
0
  5
3BCD
 10
108.403
 20
142.939
 30
0.000000
  70
    32
  0
VERTEX
  8
0
  5
3BCE
 10
108.408
 20
142.940
 30
0.000000
  70
    32
  0
VERTEX
  8
0
  5
3BCF
 10
108.413
 20
142.942
 30
0.000000
  70
    32
  0
VERTEX
  8
0
  5
3BD0
 10
108.418
 20
142.943
 30
0.000000
  70
    32
  0
VERTEX
  8
0
  5
3BD1
 10
108.423
 20
142.944
 30
0.000000
  70
    32
  0
VERTEX
  8
0
  5
3BD2
 10
108.428
 20
142.945
 30
0.000000
  70
    32
  0
VERTEX
  8
0
  5
3BD3
 10
108.433
 20
142.947
 30
0.000000
  70
    32
  0
VERTEX
  8
0
  5
3BD4
 10
108.438
 20
142.948
 30
0.000000
  70
    32
  0
VERTEX
  8
0
  5
3BD5
 10
108.443
 20
142.949
 30
0.000000
  70
    32
  0
VERTEX
  8
0
  5
3BD6
 10
108.447
 20
142.951
 30
0.000000
  70
    32
  0
VERTEX
  8
0
  5
3BD7
 10
108.452
 20
142.952
 30
0.000000
  70
    32
  0
VERTEX
  8
0
  5
3BD8
 10
108.456
 20
142.953
 30
0.000000
  70
    32
  0
VERTEX
  8
0
  5
3BD9
 10
108.461
 20
142.954
 30
0.000000
  70
    32
  0
VERTEX
  8
0
  5
3BDA
 10
108.465
 20
142.956
 30
0.000000
  70
    32
  0
VERTEX
  8
0
  5
3BDB
 10
108.470
 20
142.957
 30
0.000000
  70
    32
  0
VERTEX
  8
0
  5
3BDC
 10
108.474
 20
142.958
 30
0.000000
  70
    32
  0
VERTEX
  8
0
  5
3BDD
 10
108.478
 20
142.959
 30
0.000000
  70
    32
  0
VERTEX
  8
0
  5
3BDE
 10
108.482
 20
142.961
 30
0.000000
  70
    32
  0
VERTEX
  8
0
  5
3BDF
 10
108.486
 20
142.962
 30
0.000000
  70
    32
  0
VERTEX
  8
0
  5
3BE0
 10
108.490
 20
142.963
 30
0.000000
  70
    32
  0
VERTEX
  8
0
  5
3BE1
 10
108.494
 20
142.964
 30
0.000000
  70
    32
  0
VERTEX
  8
0
  5
3BE2
 10
108.498
 20
142.966
 30
0.000000
  70
    32
  0
VERTEX
  8
0
  5
3BE3
 10
108.502
 20
142.967
 30
0.000000
  70
    32
  0
VERTEX
  8
0
  5
3BE4
 10
108.506
 20
142.968
 30
0.000000
  70
    32
  0
VERTEX
  8
0
  5
3BE5
 10
108.509
 20
142.970
 30
0.000000
  70
    32
  0
VERTEX
  8
0
  5
3BE6
 10
108.513
 20
142.971
 30
0.000000
  70
    32
  0
VERTEX
  8
0
  5
3BE7
 10
108.517
 20
142.972
 30
0.000000
  70
    32
  0
VERTEX
  8
0
  5
3BE8
 10
108.520
 20
142.973
 30
0.000000
  70
    32
  0
VERTEX
  8
0
  5
3BE9
 10
108.523
 20
142.975
 30
0.000000
  70
    32
  0
VERTEX
  8
0
  5
3BEA
 10
108.527
 20
142.976
 30
0.000000
  70
    32
  0
VERTEX
  8
0
  5
3BEB
 10
108.530
 20
142.977
 30
0.000000
  70
    32
  0
VERTEX
  8
0
  5
3BEC
 10
108.533
 20
142.978
 30
0.000000
  70
    32
  0
VERTEX
  8
0
  5
3BED
 10
108.536
 20
142.980
 30
0.000000
  70
    32
  0
VERTEX
  8
0
  5
3BEE
 10
108.539
 20
142.981
 30
0.000000
  70
    32
  0
VERTEX
  8
0
  5
3BEF
 10
108.542
 20
142.982
 30
0.000000
  70
    32
  0
VERTEX
  8
0
  5
3BF0
 10
108.545
 20
142.984
 30
0.000000
  70
    32
  0
VERTEX
  8
0
  5
3BF1
 10
108.548
 20
142.985
 30
0.000000
  70
    32
  0
VERTEX
  8
0
  5
3BF2
 10
108.551
 20
142.986
 30
0.000000
  70
    32
  0
VERTEX
  8
0
  5
3BF3
 10
108.554
 20
142.987
 30
0.000000
  70
    32
  0
VERTEX
  8
0
  5
3BF4
 10
108.556
 20
142.989
 30
0.000000
  70
    32
  0
VERTEX
  8
0
  5
3BF5
 10
108.559
 20
142.990
 30
0.000000
  70
    32
  0
VERTEX
  8
0
  5
3BF6
 10
108.561
 20
142.991
 30
0.000000
  70
    32
  0
VERTEX
  8
0
  5
3BF7
 10
108.564
 20
142.992
 30
0.000000
  70
    32
  0
VERTEX
  8
0
  5
3BF8
 10
108.566
 20
142.994
 30
0.000000
  70
    32
  0
VERTEX
  8
0
  5
3BF9
 10
108.568
 20
142.995
 30
0.000000
  70
    32
  0
VERTEX
  8
0
  5
3BFA
 10
108.570
 20
142.996
 30
0.000000
  70
    32
  0
VERTEX
  8
0
  5
3BFB
 10
108.573
 20
142.998
 30
0.000000
  70
    32
  0
VERTEX
  8
0
  5
3BFC
 10
108.575
 20
142.999
 30
0.000000
  70
    32
  0
VERTEX
  8
0
  5
3BFD
 10
108.577
 20
143.000
 30
0.000000
  70
    32
  0
VERTEX
  8
0
  5
3BFE
 10
108.579
 20
143.001
 30
0.000000
  70
    32
  0
VERTEX
  8
0
  5
3BFF
 10
108.580
 20
143.003
 30
0.000000
  70
    32
  0
VERTEX
  8
0
  5
3C00
 10
108.582
 20
143.004
 30
0.000000
  70
    32
  0
VERTEX
  8
0
  5
3C01
 10
108.584
 20
143.005
 30
0.000000
  70
    32
  0
VERTEX
  8
0
  5
3C02
 10
108.586
 20
143.007
 30
0.000000
  70
    32
  0
VERTEX
  8
0
  5
3C03
 10
108.587
 20
143.008
 30
0.000000
  70
    32
  0
VERTEX
  8
0
  5
3C04
 10
108.589
 20
143.009
 30
0.000000
  70
    32
  0
VERTEX
  8
0
  5
3C05
 10
108.590
 20
143.010
 30
0.000000
  70
    32
  0
VERTEX
  8
0
  5
3C06
 10
108.591
 20
143.012
 30
0.000000
  70
    32
  0
VERTEX
  8
0
  5
3C07
 10
108.593
 20
143.013
 30
0.000000
  70
    32
  0
VERTEX
  8
0
  5
3C08
 10
108.594
 20
143.014
 30
0.000000
  70
    32
  0
VERTEX
  8
0
  5
3C09
 10
108.595
 20
143.016
 30
0.000000
  70
    32
  0
VERTEX
  8
0
  5
3C0A
 10
108.596
 20
143.017
 30
0.000000
  70
    32
  0
VERTEX
  8
0
  5
3C0B
 10
108.597
 20
143.018
 30
0.000000
  70
    32
  0
VERTEX
  8
0
  5
3C0C
 10
108.598
 20
143.019
 30
0.000000
  70
    32
  0
VERTEX
  8
0
  5
3C0D
 10
108.599
 20
143.021
 30
0.000000
  70
    32
  0
VERTEX
  8
0
  5
3C0E
 10
108.600
 20
143.022
 30
0.000000
  70
    32
  0
VERTEX
  8
0
  5
3C0F
 10
108.601
 20
143.023
 30
0.000000
  70
    32
  0
VERTEX
  8
0
  5
3C10
 10
108.601
 20
143.025
 30
0.000000
  70
    32
  0
VERTEX
  8
0
  5
3C11
 10
108.602
 20
143.026
 30
0.000000
  70
    32
  0
VERTEX
  8
0
  5
3C12
 10
108.602
 20
143.027
 30
0.000000
  70
    32
  0
VERTEX
  8
0
  5
3C13
 10
108.603
 20
143.028
 30
0.000000
  70
    32
  0
VERTEX
  8
0
  5
3C14
 10
108.603
 20
143.030
 30
0.000000
  70
    32
  0
VERTEX
  8
0
  5
3C15
 10
108.604
 20
143.031
 30
0.000000
  70
    32
  0
VERTEX
  8
0
  5
3C16
 10
108.604
 20
143.032
 30
0.000000
  70
    32
  0
VERTEX
  8
0
  5
3C17
 10
108.604
 20
143.034
 30
0.000000
  70
    32
  0
VERTEX
  8
0
  5
3C18
 10
108.604
 20
143.035
 30
0.000000
  70
    32
  0
VERTEX
  8
0
  5
3C19
 10
108.604
 20
143.036
 30
0.000000
  70
    32
  0
SEQEND
  8
0
  5
3C1A
  0
LINE
  5
238F
  8
2
 10
30.0
 20
119.0125450263092
 30
0.0
 11
24.0
 21
119.0125450263092
 31
0.0
  0
LINE
  5
2390
  8
2
 10
16.0
 20
119.0125450263092
 30
0.0
 11
10.0
 21
119.0125450263092
 31
0.0
  0
LINE
  5
2391
  8
2
 10
30.0
 20
104.0115327664908
 30
0.0
 11
24.0
 21
104.0115327664908
 31
0.0
  0
LINE
  5
2392
  8
2
 10
16.0
 20
104.0115327664908
 30
0.0
 11
10.0
 21
104.0115327664908
 31
0.0
  0
LINE
  5
2393
  8
2
 10
16.0
 20
104.0115327664908
 30
0.0
 11
16.0
 21
119.0125450263092
 31
0.0
  0
LINE
  5
2394
  8
2
 10
24.0
 20
104.0115327664908
 30
0.0
 11
24.0
 21
119.0125450263092
 31
0.0
  0
LINE
  5
2395
  8
2
 10
16.0
 20
115.5120388964
 30
0.0
 11
24.0
 21
115.5120388964
 31
0.0
  0
LINE
  5
2396
  8
2
 10
16.0
 20
107.5120388964
 30
0.0
 11
24.0
 21
107.5120388964
 31
0.0
  0
ARC
  5
2462
  8
0
 10
187.52551771660001
 20
146.01203857869999
 30
0.0
 40
0.5
 50
270.0
 51
2.999999999999893
  0
LINE
  5
2463
  8
0
 10
188.0248322338
 20
146.03820787879999
 30
0.0
 11
187.5779948384
 21
154.5643729171
 31
0.0
  0
ARC
  5
2464
  8
0
 10
186.5793654197
 20
154.51203857869999
 30
0.0
 40
1.0
 50
2.999999999999893
 51
90.0
  0
ARC
  5
2465
  8
0
 10
170.97448228340011
 20
146.01203857869999
 30
0.0
 40
0.5
 50
177.0
 51
270.0
  0
LINE
  5
2466
  8
0
 10
171.056538187
 20
157.13142203300001
 30
0.0
 11
170.4751675203
 21
146.03820787879999
 31
0.0
  0
POLYLINE
  5
2467
  8
0
 66
     1
 10
0.0
 20
0.0
 30
0.0
 70
   128
  0
VERTEX
  5
375C
  8
0
 10
171.10578373070001
 20
157.6486003599
 30
0.0
  0
VERTEX
  5
375D
  8
0
 10
171.06532335280011
 20
157.26876976099999
 30
0.0
  0
VERTEX
  5
375E
  8
0
 10
171.056538187
 20
157.13142203300001
 30
0.0
  0
SEQEND
  5
375F
  8
0
  0
ARC
  5
2468
  8
0
 10
176.74836743730009
 20
158.021054728
 30
0.0
 40
2.5795965807648771
 50
200.28628796150059
 51
256.56621524738478
  0
ARC
  5
2469
  8
0
 10
172.0964147632001
 20
157.51203857869999
 30
0.0
 40
1.0
 50
90.0
 51
172.15097777669999
  0
LINE
  5
246A
  8
0
 10
174.99604929614381
 20
156.12798852427949
 30
0.0
 11
174.92077156900001
 21
157.56437527150001
 31
0.0
  0
ARC
  5
246B
  8
0
 10
173.92214208190001
 20
157.51203857869999
 30
0.0
 40
1.0
 50
2.999999999999893
 51
90.0
  0
ARC
  5
246C
  8
0
 10
188.62790108740001
 20
143.0846334087
 30
0.0
 40
0.5000000000000151
 50
182.24747899810009
 51
267.00000000000091
  0
LINE
  5
246D
  8
0
 10
188.12843441960001
 20
143.06135820360001
 30
0.0
 11
188.0000003800001
 21
145.51204042640001
 31
0.0
  0
ARC
  5
246E
  8
0
 10
172.53903547920001
 20
146.01394001130001
 30
0.0
 40
0.501904333042571
 50
177.2285779529999
 51
270.24922362900099
  0
POLYLINE
  5
246F
  8
0
 66
     1
 10
0.0
 20
0.0
 30
0.0
 70
   128
  0
VERTEX
  5
3760
  8
0
 10
172.48827528210001
 20
154.5643729171
 30
0.0
  0
VERTEX
  5
3761
  8
0
 10
172.09788907320001
 20
147.1773234209
 30
0.0
  0
VERTEX
  5
3762
  8
0
 10
172.03771818429999
 20
146.03820787879999
 30
0.0
  0
SEQEND
  5
3763
  8
0
  0
ARC
  5
2470
  8
0
 10
173.49165288949999
 20
154.50703860819999
 30
0.0
 40
1.005014351164226
 50
89.690961403298758
 51
176.7296005485
  0
LINE
  5
2472
  8
0
 10
188.0000003800001
 20
145.51204042640001
 30
0.0
 11
170.97448214889999
 21
145.51204042640001
 31
0.0
  0
LINE
  5
2473
  8
0
 10
171.6571220383
 20
154.5643729171
 30
0.0
 11
171.53293296690001
 21
154.6849903664
 31
0.0
  0
ARC
  5
2474
  8
0
 10
172.64591971879989
 20
154.52238810009999
 30
0.0
 40
0.9896886266708307
 50
90.504636856401163
 51
177.56865456109989
  0
LINE
  5
2475
  8
0
 10
172.637203075
 20
155.51203834029999
 30
0.0
 11
186.5800559266855
 21
155.51203834029999
 31
0.0
  0
LINE
  5
2477
  8
0
 10
172.51630529760001
 20
155.57234706489999
 30
0.0
 11
172.637203075
 21
155.51203834029999
 31
0.0
  0
LINE
  5
2478
  8
0
 10
175.93734392113021
 20
155.51203834029999
 30
0.0
 11
175.63337629660009
 21
155.57234706489999
 31
0.0
  0
POLYLINE
  5
247A
  8
0
 10
172.09641476320411
 20
158.45173119953026
 30
0.0
 66
     1
 70
     8
  0
VERTEX
  8
0
  5
3C1B
 10
172.096
 20
158.452
 30
0.000000
  70
    32
  0
VERTEX
  8
0
  5
3C1C
 10
172.093
 20
158.429
 30
0.000000
  70
    32
  0
VERTEX
  8
0
  5
3C1D
 10
172.090
 20
158.407
 30
0.000000
  70
    32
  0
VERTEX
  8
0
  5
3C1E
 10
172.088
 20
158.384
 30
0.000000
  70
    32
  0
VERTEX
  8
0
  5
3C1F
 10
172.085
 20
158.362
 30
0.000000
  70
    32
  0
VERTEX
  8
0
  5
3C20
 10
172.082
 20
158.339
 30
0.000000
  70
    32
  0
VERTEX
  8
0
  5
3C21
 10
172.080
 20
158.316
 30
0.000000
  70
    32
  0
VERTEX
  8
0
  5
3C22
 10
172.077
 20
158.294
 30
0.000000
  70
    32
  0
VERTEX
  8
0
  5
3C23
 10
172.075
 20
158.271
 30
0.000000
  70
    32
  0
VERTEX
  8
0
  5
3C24
 10
172.072
 20
158.249
 30
0.000000
  70
    32
  0
VERTEX
  8
0
  5
3C25
 10
172.070
 20
158.226
 30
0.000000
  70
    32
  0
VERTEX
  8
0
  5
3C26
 10
172.068
 20
158.204
 30
0.000000
  70
    32
  0
VERTEX
  8
0
  5
3C27
 10
172.066
 20
158.181
 30
0.000000
  70
    32
  0
VERTEX
  8
0
  5
3C28
 10
172.064
 20
158.159
 30
0.000000
  70
    32
  0
VERTEX
  8
0
  5
3C29
 10
172.063
 20
158.136
 30
0.000000
  70
    32
  0
VERTEX
  8
0
  5
3C2A
 10
172.061
 20
158.113
 30
0.000000
  70
    32
  0
VERTEX
  8
0
  5
3C2B
 10
172.059
 20
158.091
 30
0.000000
  70
    32
  0
VERTEX
  8
0
  5
3C2C
 10
172.058
 20
158.068
 30
0.000000
  70
    32
  0
VERTEX
  8
0
  5
3C2D
 10
172.057
 20
158.046
 30
0.000000
  70
    32
  0
VERTEX
  8
0
  5
3C2E
 10
172.055
 20
158.023
 30
0.000000
  70
    32
  0
VERTEX
  8
0
  5
3C2F
 10
172.054
 20
158.001
 30
0.000000
  70
    32
  0
VERTEX
  8
0
  5
3C30
 10
172.053
 20
157.978
 30
0.000000
  70
    32
  0
VERTEX
  8
0
  5
3C31
 10
172.052
 20
157.956
 30
0.000000
  70
    32
  0
VERTEX
  8
0
  5
3C32
 10
172.051
 20
157.933
 30
0.000000
  70
    32
  0
VERTEX
  8
0
  5
3C33
 10
172.051
 20
157.910
 30
0.000000
  70
    32
  0
VERTEX
  8
0
  5
3C34
 10
172.050
 20
157.888
 30
0.000000
  70
    32
  0
VERTEX
  8
0
  5
3C35
 10
172.049
 20
157.865
 30
0.000000
  70
    32
  0
VERTEX
  8
0
  5
3C36
 10
172.049
 20
157.843
 30
0.000000
  70
    32
  0
VERTEX
  8
0
  5
3C37
 10
172.049
 20
157.820
 30
0.000000
  70
    32
  0
VERTEX
  8
0
  5
3C38
 10
172.048
 20
157.798
 30
0.000000
  70
    32
  0
VERTEX
  8
0
  5
3C39
 10
172.048
 20
157.775
 30
0.000000
  70
    32
  0
VERTEX
  8
0
  5
3C3A
 10
172.048
 20
157.752
 30
0.000000
  70
    32
  0
VERTEX
  8
0
  5
3C3B
 10
172.048
 20
157.730
 30
0.000000
  70
    32
  0
VERTEX
  8
0
  5
3C3C
 10
172.048
 20
157.707
 30
0.000000
  70
    32
  0
VERTEX
  8
0
  5
3C3D
 10
172.049
 20
157.685
 30
0.000000
  70
    32
  0
VERTEX
  8
0
  5
3C3E
 10
172.049
 20
157.662
 30
0.000000
  70
    32
  0
VERTEX
  8
0
  5
3C3F
 10
172.049
 20
157.640
 30
0.000000
  70
    32
  0
VERTEX
  8
0
  5
3C40
 10
172.050
 20
157.617
 30
0.000000
  70
    32
  0
VERTEX
  8
0
  5
3C41
 10
172.050
 20
157.594
 30
0.000000
  70
    32
  0
VERTEX
  8
0
  5
3C42
 10
172.051
 20
157.572
 30
0.000000
  70
    32
  0
VERTEX
  8
0
  5
3C43
 10
172.052
 20
157.549
 30
0.000000
  70
    32
  0
VERTEX
  8
0
  5
3C44
 10
172.053
 20
157.527
 30
0.000000
  70
    32
  0
VERTEX
  8
0
  5
3C45
 10
172.054
 20
157.504
 30
0.000000
  70
    32
  0
VERTEX
  8
0
  5
3C46
 10
172.055
 20
157.482
 30
0.000000
  70
    32
  0
VERTEX
  8
0
  5
3C47
 10
172.056
 20
157.459
 30
0.000000
  70
    32
  0
VERTEX
  8
0
  5
3C48
 10
172.058
 20
157.437
 30
0.000000
  70
    32
  0
VERTEX
  8
0
  5
3C49
 10
172.059
 20
157.414
 30
0.000000
  70
    32
  0
VERTEX
  8
0
  5
3C4A
 10
172.061
 20
157.391
 30
0.000000
  70
    32
  0
VERTEX
  8
0
  5
3C4B
 10
172.062
 20
157.369
 30
0.000000
  70
    32
  0
VERTEX
  8
0
  5
3C4C
 10
172.064
 20
157.346
 30
0.000000
  70
    32
  0
VERTEX
  8
0
  5
3C4D
 10
172.066
 20
157.324
 30
0.000000
  70
    32
  0
VERTEX
  8
0
  5
3C4E
 10
172.068
 20
157.301
 30
0.000000
  70
    32
  0
VERTEX
  8
0
  5
3C4F
 10
172.070
 20
157.279
 30
0.000000
  70
    32
  0
VERTEX
  8
0
  5
3C50
 10
172.072
 20
157.256
 30
0.000000
  70
    32
  0
VERTEX
  8
0
  5
3C51
 10
172.074
 20
157.234
 30
0.000000
  70
    32
  0
VERTEX
  8
0
  5
3C52
 10
172.077
 20
157.211
 30
0.000000
  70
    32
  0
VERTEX
  8
0
  5
3C53
 10
172.079
 20
157.188
 30
0.000000
  70
    32
  0
VERTEX
  8
0
  5
3C54
 10
172.082
 20
157.166
 30
0.000000
  70
    32
  0
VERTEX
  8
0
  5
3C55
 10
172.084
 20
157.143
 30
0.000000
  70
    32
  0
VERTEX
  8
0
  5
3C56
 10
172.087
 20
157.121
 30
0.000000
  70
    32
  0
VERTEX
  8
0
  5
3C57
 10
172.090
 20
157.098
 30
0.000000
  70
    32
  0
VERTEX
  8
0
  5
3C58
 10
172.093
 20
157.076
 30
0.000000
  70
    32
  0
VERTEX
  8
0
  5
3C59
 10
172.096
 20
157.053
 30
0.000000
  70
    32
  0
VERTEX
  8
0
  5
3C5A
 10
172.099
 20
157.031
 30
0.000000
  70
    32
  0
VERTEX
  8
0
  5
3C5B
 10
172.102
 20
157.008
 30
0.000000
  70
    32
  0
VERTEX
  8
0
  5
3C5C
 10
172.105
 20
156.986
 30
0.000000
  70
    32
  0
VERTEX
  8
0
  5
3C5D
 10
172.109
 20
156.963
 30
0.000000
  70
    32
  0
VERTEX
  8
0
  5
3C5E
 10
172.112
 20
156.940
 30
0.000000
  70
    32
  0
VERTEX
  8
0
  5
3C5F
 10
172.116
 20
156.918
 30
0.000000
  70
    32
  0
VERTEX
  8
0
  5
3C60
 10
172.120
 20
156.895
 30
0.000000
  70
    32
  0
VERTEX
  8
0
  5
3C61
 10
172.124
 20
156.873
 30
0.000000
  70
    32
  0
VERTEX
  8
0
  5
3C62
 10
172.128
 20
156.850
 30
0.000000
  70
    32
  0
VERTEX
  8
0
  5
3C63
 10
172.132
 20
156.828
 30
0.000000
  70
    32
  0
VERTEX
  8
0
  5
3C64
 10
172.136
 20
156.805
 30
0.000000
  70
    32
  0
VERTEX
  8
0
  5
3C65
 10
172.140
 20
156.783
 30
0.000000
  70
    32
  0
VERTEX
  8
0
  5
3C66
 10
172.144
 20
156.760
 30
0.000000
  70
    32
  0
VERTEX
  8
0
  5
3C67
 10
172.149
 20
156.738
 30
0.000000
  70
    32
  0
VERTEX
  8
0
  5
3C68
 10
172.153
 20
156.715
 30
0.000000
  70
    32
  0
VERTEX
  8
0
  5
3C69
 10
172.158
 20
156.693
 30
0.000000
  70
    32
  0
VERTEX
  8
0
  5
3C6A
 10
172.163
 20
156.670
 30
0.000000
  70
    32
  0
VERTEX
  8
0
  5
3C6B
 10
172.168
 20
156.648
 30
0.000000
  70
    32
  0
VERTEX
  8
0
  5
3C6C
 10
172.172
 20
156.625
 30
0.000000
  70
    32
  0
VERTEX
  8
0
  5
3C6D
 10
172.177
 20
156.603
 30
0.000000
  70
    32
  0
VERTEX
  8
0
  5
3C6E
 10
172.183
 20
156.580
 30
0.000000
  70
    32
  0
VERTEX
  8
0
  5
3C6F
 10
172.188
 20
156.558
 30
0.000000
  70
    32
  0
VERTEX
  8
0
  5
3C70
 10
172.193
 20
156.535
 30
0.000000
  70
    32
  0
VERTEX
  8
0
  5
3C71
 10
172.199
 20
156.513
 30
0.000000
  70
    32
  0
VERTEX
  8
0
  5
3C72
 10
172.204
 20
156.490
 30
0.000000
  70
    32
  0
VERTEX
  8
0
  5
3C73
 10
172.210
 20
156.468
 30
0.000000
  70
    32
  0
VERTEX
  8
0
  5
3C74
 10
172.215
 20
156.445
 30
0.000000
  70
    32
  0
VERTEX
  8
0
  5
3C75
 10
172.221
 20
156.423
 30
0.000000
  70
    32
  0
VERTEX
  8
0
  5
3C76
 10
172.227
 20
156.401
 30
0.000000
  70
    32
  0
VERTEX
  8
0
  5
3C77
 10
172.233
 20
156.378
 30
0.000000
  70
    32
  0
VERTEX
  8
0
  5
3C78
 10
172.239
 20
156.356
 30
0.000000
  70
    32
  0
VERTEX
  8
0
  5
3C79
 10
172.246
 20
156.333
 30
0.000000
  70
    32
  0
VERTEX
  8
0
  5
3C7A
 10
172.252
 20
156.311
 30
0.000000
  70
    32
  0
VERTEX
  8
0
  5
3C7B
 10
172.258
 20
156.288
 30
0.000000
  70
    32
  0
VERTEX
  8
0
  5
3C7C
 10
172.265
 20
156.266
 30
0.000000
  70
    32
  0
VERTEX
  8
0
  5
3C7D
 10
172.271
 20
156.243
 30
0.000000
  70
    32
  0
VERTEX
  8
0
  5
3C7E
 10
172.278
 20
156.221
 30
0.000000
  70
    32
  0
VERTEX
  8
0
  5
3C7F
 10
172.285
 20
156.199
 30
0.000000
  70
    32
  0
VERTEX
  8
0
  5
3C80
 10
172.292
 20
156.176
 30
0.000000
  70
    32
  0
VERTEX
  8
0
  5
3C81
 10
172.299
 20
156.154
 30
0.000000
  70
    32
  0
VERTEX
  8
0
  5
3C82
 10
172.306
 20
156.131
 30
0.000000
  70
    32
  0
VERTEX
  8
0
  5
3C83
 10
172.313
 20
156.109
 30
0.000000
  70
    32
  0
VERTEX
  8
0
  5
3C84
 10
172.321
 20
156.086
 30
0.000000
  70
    32
  0
VERTEX
  8
0
  5
3C85
 10
172.328
 20
156.064
 30
0.000000
  70
    32
  0
VERTEX
  8
0
  5
3C86
 10
172.336
 20
156.042
 30
0.000000
  70
    32
  0
VERTEX
  8
0
  5
3C87
 10
172.343
 20
156.019
 30
0.000000
  70
    32
  0
VERTEX
  8
0
  5
3C88
 10
172.351
 20
155.997
 30
0.000000
  70
    32
  0
VERTEX
  8
0
  5
3C89
 10
172.359
 20
155.974
 30
0.000000
  70
    32
  0
VERTEX
  8
0
  5
3C8A
 10
172.367
 20
155.952
 30
0.000000
  70
    32
  0
VERTEX
  8
0
  5
3C8B
 10
172.375
 20
155.930
 30
0.000000
  70
    32
  0
VERTEX
  8
0
  5
3C8C
 10
172.383
 20
155.907
 30
0.000000
  70
    32
  0
VERTEX
  8
0
  5
3C8D
 10
172.391
 20
155.885
 30
0.000000
  70
    32
  0
VERTEX
  8
0
  5
3C8E
 10
172.399
 20
155.863
 30
0.000000
  70
    32
  0
VERTEX
  8
0
  5
3C8F
 10
172.408
 20
155.840
 30
0.000000
  70
    32
  0
VERTEX
  8
0
  5
3C90
 10
172.416
 20
155.818
 30
0.000000
  70
    32
  0
VERTEX
  8
0
  5
3C91
 10
172.425
 20
155.796
 30
0.000000
  70
    32
  0
VERTEX
  8
0
  5
3C92
 10
172.434
 20
155.773
 30
0.000000
  70
    32
  0
VERTEX
  8
0
  5
3C93
 10
172.442
 20
155.751
 30
0.000000
  70
    32
  0
VERTEX
  8
0
  5
3C94
 10
172.451
 20
155.729
 30
0.000000
  70
    32
  0
VERTEX
  8
0
  5
3C95
 10
172.460
 20
155.706
 30
0.000000
  70
    32
  0
VERTEX
  8
0
  5
3C96
 10
172.469
 20
155.684
 30
0.000000
  70
    32
  0
VERTEX
  8
0
  5
3C97
 10
172.479
 20
155.662
 30
0.000000
  70
    32
  0
VERTEX
  8
0
  5
3C98
 10
172.488
 20
155.639
 30
0.000000
  70
    32
  0
VERTEX
  8
0
  5
3C99
 10
172.497
 20
155.617
 30
0.000000
  70
    32
  0
VERTEX
  8
0
  5
3C9A
 10
172.507
 20
155.595
 30
0.000000
  70
    32
  0
VERTEX
  8
0
  5
3C9B
 10
172.516
 20
155.572
 30
0.000000
  70
    32
  0
SEQEND
  8
0
  5
3C9C
  0
POLYLINE
  5
247B
  8
0
 10
173.36496303206178
 20
158.45173119953665
 30
0.0
 66
     1
 70
     8
  0
VERTEX
  8
0
  5
3C9D
 10
173.365
 20
158.452
 30
0.000000
  70
    32
  0
VERTEX
  8
0
  5
3C9E
 10
173.360
 20
158.428
 30
0.000000
  70
    32
  0
VERTEX
  8
0
  5
3C9F
 10
173.355
 20
158.404
 30
0.000000
  70
    32
  0
VERTEX
  8
0
  5
3CA0
 10
173.350
 20
158.380
 30
0.000000
  70
    32
  0
VERTEX
  8
0
  5
3CA1
 10
173.346
 20
158.356
 30
0.000000
  70
    32
  0
VERTEX
  8
0
  5
3CA2
 10
173.342
 20
158.332
 30
0.000000
  70
    32
  0
VERTEX
  8
0
  5
3CA3
 10
173.338
 20
158.309
 30
0.000000
  70
    32
  0
VERTEX
  8
0
  5
3CA4
 10
173.335
 20
158.285
 30
0.000000
  70
    32
  0
VERTEX
  8
0
  5
3CA5
 10
173.332
 20
158.261
 30
0.000000
  70
    32
  0
VERTEX
  8
0
  5
3CA6
 10
173.330
 20
158.237
 30
0.000000
  70
    32
  0
VERTEX
  8
0
  5
3CA7
 10
173.328
 20
158.213
 30
0.000000
  70
    32
  0
VERTEX
  8
0
  5
3CA8
 10
173.326
 20
158.189
 30
0.000000
  70
    32
  0
VERTEX
  8
0
  5
3CA9
 10
173.325
 20
158.165
 30
0.000000
  70
    32
  0
VERTEX
  8
0
  5
3CAA
 10
173.324
 20
158.141
 30
0.000000
  70
    32
  0
VERTEX
  8
0
  5
3CAB
 10
173.324
 20
158.117
 30
0.000000
  70
    32
  0
VERTEX
  8
0
  5
3CAC
 10
173.324
 20
158.093
 30
0.000000
  70
    32
  0
VERTEX
  8
0
  5
3CAD
 10
173.324
 20
158.069
 30
0.000000
  70
    32
  0
VERTEX
  8
0
  5
3CAE
 10
173.324
 20
158.045
 30
0.000000
  70
    32
  0
VERTEX
  8
0
  5
3CAF
 10
173.325
 20
158.021
 30
0.000000
  70
    32
  0
VERTEX
  8
0
  5
3CB0
 10
173.327
 20
157.998
 30
0.000000
  70
    32
  0
VERTEX
  8
0
  5
3CB1
 10
173.328
 20
157.974
 30
0.000000
  70
    32
  0
VERTEX
  8
0
  5
3CB2
 10
173.331
 20
157.950
 30
0.000000
  70
    32
  0
VERTEX
  8
0
  5
3CB3
 10
173.333
 20
157.926
 30
0.000000
  70
    32
  0
VERTEX
  8
0
  5
3CB4
 10
173.336
 20
157.902
 30
0.000000
  70
    32
  0
VERTEX
  8
0
  5
3CB5
 10
173.339
 20
157.878
 30
0.000000
  70
    32
  0
VERTEX
  8
0
  5
3CB6
 10
173.343
 20
157.854
 30
0.000000
  70
    32
  0
VERTEX
  8
0
  5
3CB7
 10
173.347
 20
157.830
 30
0.000000
  70
    32
  0
VERTEX
  8
0
  5
3CB8
 10
173.351
 20
157.806
 30
0.000000
  70
    32
  0
VERTEX
  8
0
  5
3CB9
 10
173.356
 20
157.782
 30
0.000000
  70
    32
  0
VERTEX
  8
0
  5
3CBA
 10
173.361
 20
157.759
 30
0.000000
  70
    32
  0
VERTEX
  8
0
  5
3CBB
 10
173.366
 20
157.735
 30
0.000000
  70
    32
  0
VERTEX
  8
0
  5
3CBC
 10
173.372
 20
157.711
 30
0.000000
  70
    32
  0
VERTEX
  8
0
  5
3CBD
 10
173.378
 20
157.687
 30
0.000000
  70
    32
  0
VERTEX
  8
0
  5
3CBE
 10
173.385
 20
157.663
 30
0.000000
  70
    32
  0
VERTEX
  8
0
  5
3CBF
 10
173.392
 20
157.640
 30
0.000000
  70
    32
  0
VERTEX
  8
0
  5
3CC0
 10
173.399
 20
157.616
 30
0.000000
  70
    32
  0
VERTEX
  8
0
  5
3CC1
 10
173.407
 20
157.592
 30
0.000000
  70
    32
  0
VERTEX
  8
0
  5
3CC2
 10
173.415
 20
157.568
 30
0.000000
  70
    32
  0
VERTEX
  8
0
  5
3CC3
 10
173.423
 20
157.545
 30
0.000000
  70
    32
  0
VERTEX
  8
0
  5
3CC4
 10
173.432
 20
157.521
 30
0.000000
  70
    32
  0
VERTEX
  8
0
  5
3CC5
 10
173.441
 20
157.497
 30
0.000000
  70
    32
  0
VERTEX
  8
0
  5
3CC6
 10
173.451
 20
157.473
 30
0.000000
  70
    32
  0
VERTEX
  8
0
  5
3CC7
 10
173.461
 20
157.450
 30
0.000000
  70
    32
  0
VERTEX
  8
0
  5
3CC8
 10
173.471
 20
157.426
 30
0.000000
  70
    32
  0
VERTEX
  8
0
  5
3CC9
 10
173.482
 20
157.403
 30
0.000000
  70
    32
  0
VERTEX
  8
0
  5
3CCA
 10
173.493
 20
157.379
 30
0.000000
  70
    32
  0
VERTEX
  8
0
  5
3CCB
 10
173.504
 20
157.355
 30
0.000000
  70
    32
  0
VERTEX
  8
0
  5
3CCC
 10
173.516
 20
157.332
 30
0.000000
  70
    32
  0
VERTEX
  8
0
  5
3CCD
 10
173.528
 20
157.308
 30
0.000000
  70
    32
  0
VERTEX
  8
0
  5
3CCE
 10
173.540
 20
157.285
 30
0.000000
  70
    32
  0
VERTEX
  8
0
  5
3CCF
 10
173.553
 20
157.261
 30
0.000000
  70
    32
  0
VERTEX
  8
0
  5
3CD0
 10
173.566
 20
157.238
 30
0.000000
  70
    32
  0
VERTEX
  8
0
  5
3CD1
 10
173.580
 20
157.215
 30
0.000000
  70
    32
  0
VERTEX
  8
0
  5
3CD2
 10
173.594
 20
157.191
 30
0.000000
  70
    32
  0
VERTEX
  8
0
  5
3CD3
 10
173.608
 20
157.168
 30
0.000000
  70
    32
  0
VERTEX
  8
0
  5
3CD4
 10
173.623
 20
157.144
 30
0.000000
  70
    32
  0
VERTEX
  8
0
  5
3CD5
 10
173.638
 20
157.121
 30
0.000000
  70
    32
  0
VERTEX
  8
0
  5
3CD6
 10
173.653
 20
157.098
 30
0.000000
  70
    32
  0
VERTEX
  8
0
  5
3CD7
 10
173.669
 20
157.075
 30
0.000000
  70
    32
  0
VERTEX
  8
0
  5
3CD8
 10
173.685
 20
157.052
 30
0.000000
  70
    32
  0
VERTEX
  8
0
  5
3CD9
 10
173.702
 20
157.028
 30
0.000000
  70
    32
  0
VERTEX
  8
0
  5
3CDA
 10
173.719
 20
157.005
 30
0.000000
  70
    32
  0
VERTEX
  8
0
  5
3CDB
 10
173.736
 20
156.982
 30
0.000000
  70
    32
  0
VERTEX
  8
0
  5
3CDC
 10
173.753
 20
156.959
 30
0.000000
  70
    32
  0
VERTEX
  8
0
  5
3CDD
 10
173.771
 20
156.936
 30
0.000000
  70
    32
  0
VERTEX
  8
0
  5
3CDE
 10
173.790
 20
156.913
 30
0.000000
  70
    32
  0
VERTEX
  8
0
  5
3CDF
 10
173.808
 20
156.890
 30
0.000000
  70
    32
  0
VERTEX
  8
0
  5
3CE0
 10
173.827
 20
156.867
 30
0.000000
  70
    32
  0
VERTEX
  8
0
  5
3CE1
 10
173.847
 20
156.844
 30
0.000000
  70
    32
  0
VERTEX
  8
0
  5
3CE2
 10
173.866
 20
156.822
 30
0.000000
  70
    32
  0
VERTEX
  8
0
  5
3CE3
 10
173.887
 20
156.799
 30
0.000000
  70
    32
  0
VERTEX
  8
0
  5
3CE4
 10
173.907
 20
156.776
 30
0.000000
  70
    32
  0
VERTEX
  8
0
  5
3CE5
 10
173.928
 20
156.753
 30
0.000000
  70
    32
  0
VERTEX
  8
0
  5
3CE6
 10
173.949
 20
156.731
 30
0.000000
  70
    32
  0
VERTEX
  8
0
  5
3CE7
 10
173.970
 20
156.708
 30
0.000000
  70
    32
  0
VERTEX
  8
0
  5
3CE8
 10
173.992
 20
156.685
 30
0.000000
  70
    32
  0
VERTEX
  8
0
  5
3CE9
 10
174.015
 20
156.663
 30
0.000000
  70
    32
  0
VERTEX
  8
0
  5
3CEA
 10
174.037
 20
156.641
 30
0.000000
  70
    32
  0
VERTEX
  8
0
  5
3CEB
 10
174.060
 20
156.618
 30
0.000000
  70
    32
  0
VERTEX
  8
0
  5
3CEC
 10
174.083
 20
156.596
 30
0.000000
  70
    32
  0
VERTEX
  8
0
  5
3CED
 10
174.107
 20
156.573
 30
0.000000
  70
    32
  0
VERTEX
  8
0
  5
3CEE
 10
174.131
 20
156.551
 30
0.000000
  70
    32
  0
VERTEX
  8
0
  5
3CEF
 10
174.155
 20
156.529
 30
0.000000
  70
    32
  0
VERTEX
  8
0
  5
3CF0
 10
174.180
 20
156.507
 30
0.000000
  70
    32
  0
VERTEX
  8
0
  5
3CF1
 10
174.205
 20
156.485
 30
0.000000
  70
    32
  0
VERTEX
  8
0
  5
3CF2
 10
174.230
 20
156.462
 30
0.000000
  70
    32
  0
VERTEX
  8
0
  5
3CF3
 10
174.256
 20
156.440
 30
0.000000
  70
    32
  0
VERTEX
  8
0
  5
3CF4
 10
174.282
 20
156.418
 30
0.000000
  70
    32
  0
VERTEX
  8
0
  5
3CF5
 10
174.308
 20
156.397
 30
0.000000
  70
    32
  0
VERTEX
  8
0
  5
3CF6
 10
174.335
 20
156.375
 30
0.000000
  70
    32
  0
VERTEX
  8
0
  5
3CF7
 10
174.362
 20
156.353
 30
0.000000
  70
    32
  0
VERTEX
  8
0
  5
3CF8
 10
174.389
 20
156.331
 30
0.000000
  70
    32
  0
VERTEX
  8
0
  5
3CF9
 10
174.417
 20
156.309
 30
0.000000
  70
    32
  0
VERTEX
  8
0
  5
3CFA
 10
174.445
 20
156.288
 30
0.000000
  70
    32
  0
VERTEX
  8
0
  5
3CFB
 10
174.474
 20
156.266
 30
0.000000
  70
    32
  0
VERTEX
  8
0
  5
3CFC
 10
174.502
 20
156.245
 30
0.000000
  70
    32
  0
VERTEX
  8
0
  5
3CFD
 10
174.531
 20
156.223
 30
0.000000
  70
    32
  0
VERTEX
  8
0
  5
3CFE
 10
174.561
 20
156.202
 30
0.000000
  70
    32
  0
VERTEX
  8
0
  5
3CFF
 10
174.591
 20
156.181
 30
0.000000
  70
    32
  0
VERTEX
  8
0
  5
3D00
 10
174.621
 20
156.159
 30
0.000000
  70
    32
  0
VERTEX
  8
0
  5
3D01
 10
174.651
 20
156.138
 30
0.000000
  70
    32
  0
VERTEX
  8
0
  5
3D02
 10
174.682
 20
156.117
 30
0.000000
  70
    32
  0
VERTEX
  8
0
  5
3D03
 10
174.713
 20
156.096
 30
0.000000
  70
    32
  0
VERTEX
  8
0
  5
3D04
 10
174.744
 20
156.075
 30
0.000000
  70
    32
  0
VERTEX
  8
0
  5
3D05
 10
174.776
 20
156.054
 30
0.000000
  70
    32
  0
VERTEX
  8
0
  5
3D06
 10
174.808
 20
156.033
 30
0.000000
  70
    32
  0
VERTEX
  8
0
  5
3D07
 10
174.841
 20
156.012
 30
0.000000
  70
    32
  0
VERTEX
  8
0
  5
3D08
 10
174.873
 20
155.991
 30
0.000000
  70
    32
  0
VERTEX
  8
0
  5
3D09
 10
174.906
 20
155.971
 30
0.000000
  70
    32
  0
VERTEX
  8
0
  5
3D0A
 10
174.940
 20
155.950
 30
0.000000
  70
    32
  0
VERTEX
  8
0
  5
3D0B
 10
174.973
 20
155.930
 30
0.000000
  70
    32
  0
VERTEX
  8
0
  5
3D0C
 10
175.007
 20
155.909
 30
0.000000
  70
    32
  0
VERTEX
  8
0
  5
3D0D
 10
175.042
 20
155.889
 30
0.000000
  70
    32
  0
VERTEX
  8
0
  5
3D0E
 10
175.076
 20
155.868
 30
0.000000
  70
    32
  0
VERTEX
  8
0
  5
3D0F
 10
175.111
 20
155.848
 30
0.000000
  70
    32
  0
VERTEX
  8
0
  5
3D10
 10
175.147
 20
155.828
 30
0.000000
  70
    32
  0
VERTEX
  8
0
  5
3D11
 10
175.182
 20
155.808
 30
0.000000
  70
    32
  0
VERTEX
  8
0
  5
3D12
 10
175.218
 20
155.788
 30
0.000000
  70
    32
  0
VERTEX
  8
0
  5
3D13
 10
175.254
 20
155.768
 30
0.000000
  70
    32
  0
VERTEX
  8
0
  5
3D14
 10
175.291
 20
155.748
 30
0.000000
  70
    32
  0
VERTEX
  8
0
  5
3D15
 10
175.328
 20
155.728
 30
0.000000
  70
    32
  0
VERTEX
  8
0
  5
3D16
 10
175.365
 20
155.708
 30
0.000000
  70
    32
  0
VERTEX
  8
0
  5
3D17
 10
175.402
 20
155.689
 30
0.000000
  70
    32
  0
VERTEX
  8
0
  5
3D18
 10
175.440
 20
155.669
 30
0.000000
  70
    32
  0
VERTEX
  8
0
  5
3D19
 10
175.478
 20
155.650
 30
0.000000
  70
    32
  0
VERTEX
  8
0
  5
3D1A
 10
175.516
 20
155.630
 30
0.000000
  70
    32
  0
VERTEX
  8
0
  5
3D1B
 10
175.555
 20
155.611
 30
0.000000
  70
    32
  0
VERTEX
  8
0
  5
3D1C
 10
175.594
 20
155.592
 30
0.000000
  70
    32
  0
VERTEX
  8
0
  5
3D1D
 10
175.633
 20
155.572
 30
0.000000
  70
    32
  0
SEQEND
  8
0
  5
3D1E
  0
LINE
  5
247E
  8
0
 10
174.92077156900001
 20
157.56437527150001
 30
0.0
 11
174.35823084789999
 21
157.56437527150001
 31
0.0
  0
ARC
  5
247F
  8
0
 10
173.3624606904001
 20
157.5150489927
 30
0.0
 40
0.9969911174389491
 50
2.835874665899877
 51
89.856183033102013
  0
LINE
  5
2480
  8
0
 10
173.36496321480001
 20
158.45173197
 30
0.0
 11
173.36496321480001
 21
158.51203696939999
 31
0.0
  0
LINE
  5
2481
  8
0
 10
172.09641478960009
 20
158.51203696939999
 30
0.0
 11
172.09641478960009
 21
158.45173197
 31
0.0
  0
LINE
  5
2482
  8
0
 10
172.09641478960009
 20
158.51203696939999
 30
0.0
 11
173.9239361268813
 21
158.51203696939999
 31
0.0
  0
LINE
  5
2488
  8
0
 10
170.94766378400001
 20
142.56170364229999
 30
0.0
 11
180.0
 21
143.0361156365
 31
0.0
  0
LINE
  5
248D
  8
0
 10
180.0
 20
94.487961103600014
 30
0.0
 11
170.94766378400001
 21
94.962373097800011
 31
0.0
  0
LINE
  5
248E
  8
0
 10
170.9476637839999
 20
142.56170364229999
 30
0.0
 11
170.94766378400001
 21
94.962373097800011
 31
0.0
  0
ARC
  5
2494
  8
0
 10
171.00000000000011
 20
141.56307401199999
 30
0.0
 40
1.0000000000000091
 50
92.999999999999076
 51
180.0
  0
LINE
  5
2495
  8
0
 10
170.0000002235
 20
95.961003286200025
 30
0.0
 11
170.0000002235
 21
141.563742592555
 31
0.0
  0
ARC
  5
2496
  8
0
 10
171.00000000000011
 20
95.961003145400014
 30
0.0
 40
1.0000000000000091
 50
180.0
 51
267.00000000000091
  0
ARC
  5
2497
  8
0
 10
171.4314208488
 20
143.0904777911
 30
0.0
 40
0.5027326539314247
 50
272.86806197170012
 51
356.74235987549997
  0
LINE
  5
249A
  8
0
 10
172.0627456158
 20
145.51204042640001
 30
0.0
 11
171.93334113809999
 21
143.0619095465
 31
0.0
  0
LINE
  5
249E
  8
0
 10
180.0
 20
143.0361156365
 30
0.0
 11
189.0523362160001
 21
142.56170364229999
 31
0.0
  0
LINE
  5
24A5
  8
0
 10
189.0523362160001
 20
94.962373097800011
 30
0.0
 11
189.0523362160001
 21
142.5617035331413
 31
0.0
  0
LINE
  5
24A6
  8
0
 10
189.0523362160001
 20
94.962373097800011
 30
0.0
 11
180.0
 21
94.487961103600014
 31
0.0
  0
LINE
  5
24A8
  8
0
 10
189.9999997765
 20
99.012038392400015
 30
0.0
 11
170.0000002235
 21
99.012038392400015
 31
0.0
  0
LINE
  5
24A9
  8
0
 10
189.9999997765
 20
138.51203927899999
 30
0.0
 11
170.0000002235
 21
138.51203927899999
 31
0.0
  0
ARC
  5
24AB
  8
0
 10
189.0
 20
141.56307401199999
 30
0.0
 40
1.0000000000000091
 50
0.0
 51
87.000000000000924
  0
LINE
  5
24AC
  8
0
 10
189.9999997765
 20
141.5637425924435
 30
0.0
 11
189.9999997765
 21
95.961003286200025
 31
0.0
  0
ARC
  5
24AD
  8
0
 10
189.0
 20
95.961003145400014
 30
0.0
 40
1.0000000000000091
 50
272.99999999999909
 51
0.0
  0
LINE
  5
24B3
  8
0
 10
170.4751675203
 20
146.03820787879999
 30
0.0
 11
188.02483223379991
 21
146.03820787879999
 31
0.0
  0
ARC
  5
24B4
  8
0
 10
176.22683073716729
 20
156.86863539165111
 30
0.0
 40
5.1769664740257966
 50
177.09037349014699
 51
204.9482881872371
  0
LINE
  5
24B5
  8
0
 10
187.5779948384
 20
154.56437291709989
 30
0.0
 11
171.6571220383
 21
154.5643729171
 31
0.0
  0
POLYLINE
  5
24B9
  8
0
 66
     1
 10
0.0
 20
0.0
 30
0.0
 70
   128
  0
VERTEX
  5
3764
  8
0
 10
174.35823084789999
 20
157.56437527150001
 30
0.0
  0
VERTEX
  5
3765
  8
0
 10
174.32212579989999
 20
157.19426395510001
 30
0.0
  0
VERTEX
  5
3766
  8
0
 10
174.3305007182
 20
157.12694423409999
 30
0.0
  0
SEQEND
  5
3767
  8
0
  0
ARC
  5
24BD
  8
0
 10
79.249149942999964
 20
64.5
 30
0.0
 40
15.02551771664257
 50
260.03703828730102
 51
281.42713611349973
  0
ARC
  5
24BE
  8
0
 10
77.000000153799974
 20
51.696042595099989
 30
0.0
 40
2.0255177166425682
 50
101.8067679656001
 51
260.03703828730102
  0
ARC
  5
24BF
  8
0
 10
84.775243896799964
 20
14.5
 30
0.0
 40
40.025517716642568
 50
93.167950113598323
 51
101.8067679656001
  0
LINE
  5
24C5
  8
0
 10
117.5496657985999
 20
54.052336216
 30
0.0
 11
118.0240777928
 21
45.0
 31
0.0
  0
LINE
  5
24C7
  8
0
 10
81.975922514899978
 20
45.0
 30
0.0
 11
82.450334509100003
 21
54.052336216
 31
0.0
  0
LINE
  5
24C8
  8
0
 10
117.5496657985999
 20
54.052336216
 30
0.0
 11
82.450334509100003
 21
54.052336216
 31
0.0
  0
ARC
  5
24CE
  8
0
 10
116.5510355871
 20
54.0
 30
0.0
 40
0.9999999999999962
 50
2.999999999999893
 51
90.0
  0
LINE
  5
24D0
  8
0
 10
83.448965628799996
 20
54.999999776499997
 30
0.0
 11
116.551704167625
 21
54.999999776500019
 31
0.0
  0
ARC
  5
24D2
  8
0
 10
83.448964720600031
 20
54.0
 30
0.0
 40
1.0000000000000091
 50
90.0
 51
177.00000000000011
  0
LINE
  5
24D5
  8
0
 10
86.499999803700007
 20
54.999999776499997
 30
0.0
 11
86.499999803700064
 21
35.000000223500003
 31
0.0
  0
LINE
  5
24D6
  8
0
 10
82.450334509100003
 20
35.947663784
 30
0.0
 11
117.5496657985999
 21
35.947663784
 31
0.0
  0
LINE
  5
24D7
  8
0
 10
82.450334509100003
 20
35.947663784
 30
0.0
 11
81.975922514899978
 21
45.0
 31
0.0
  0
LINE
  5
24D9
  8
0
 10
113.5000005039999
 20
35.000000223500003
 30
0.0
 11
113.500000504
 21
54.999999776499997
 31
0.0
  0
LINE
  5
24DC
  8
0
 10
118.0240777928
 20
45.0
 30
0.0
 11
117.5496657985999
 21
35.947663784
 31
0.0
  0
LINE
  5
24DF
  8
0
 10
116.5517041676306
 20
35.000000223499981
 30
0.0
 11
83.448965628799996
 21
35.000000223500003
 31
0.0
  0
ARC
  5
24E0
  8
0
 10
83.448964720600031
 20
36.0
 30
0.0
 40
1.0
 50
182.99999999999989
 51
270.0
  0
ARC
  5
24E4
  8
0
 10
116.5510355871
 20
36.0
 30
0.0
 40
1.0
 50
270.0
 51
357.0
  0
LINE
  5
24F0
  8
2
 10
23.99999999999995
 20
132.7865895456822
 30
0.0
 11
10.0
 21
132.7865895456822
 31
0.0
  0
LINE
  5
24F1
  8
2
 10
24.0
 20
137.2374882471178
 30
0.0
 11
10.0
 21
137.2374882471178
 31
0.0
  0
LINE
  5
24F2
  8
2
 10
30.0
 20
139.01203889640001
 30
0.0
 11
24.0
 21
139.01203889640001
 31
0.0
  0
LINE
  5
24F3
  8
2
 10
30.0
 20
131.01203889640001
 30
0.0
 11
23.99999999999995
 21
131.01203889640001
 31
0.0
  0
LINE
  5
24F4
  8
2
 10
24.0
 20
139.01203889640001
 30
0.0
 11
23.99999999999995
 21
131.01203889640001
 31
0.0
  0
LINE
  5
2A3D
  8
0
 10
100.9999998860001
 20
154.91203991559999
 30
0.0
 11
98.99999979100005
 21
154.91203991559999
 31
0.0
  0
LINE
  5
2A3E
  8
0
 10
98.999999952499991
 20
142.06238840020001
 30
0.0
 11
101.0000000475
 21
142.06238840020001
 31
0.0
  0
LINE
  5
2A40
  8
0
 10
83.550207689399997
 20
157.56437558920001
 30
0.0
 11
75.579228421946993
 21
157.56437558920001
 31
0.0
  0
POLYLINE
  5
2A41
  8
0
 66
     1
 10
0.0
 20
0.0
 30
0.0
 70
   128
  0
VERTEX
  5
3768
  8
0
 10
91.666186600900005
 20
154.6849906841
 30
0.0
  0
VERTEX
  5
3769
  8
0
 10
89.795586094200004
 20
155.348692129
 30
0.0
  0
VERTEX
  5
376A
  8
0
 10
86.684899777099986
 20
156.4523168305
 30
0.0
  0
VERTEX
  5
376B
  8
0
 10
83.550207689399997
 20
157.56437558920001
 30
0.0
  0
SEQEND
  5
376C
  8
0
  0
LINE
  5
2A42
  8
0
 10
92.367904633199998
 20
154.5643732348
 30
0.0
 11
91.666186600900005
 21
154.6849906841
 31
0.0
  0
LINE
  5
2A43
  8
0
 10
99.000000000000057
 20
154.5643732348
 30
0.0
 11
92.367904633199998
 21
154.5643732348
 31
0.0
  0
LINE
  5
2A44
  8
0
 10
74.975167585283145
 20
146.03820819649999
 30
0.0
 11
98.999999952499991
 21
146.03820819649999
 31
0.0
  0
LINE
  5
2A4A
  8
0
 10
101.0000000475
 20
146.03820819649999
 30
0.0
 11
108.0248322338
 21
146.03820819649999
 31
0.0
  0
LINE
  5
2A4B
  8
0
 10
107.5779948383
 20
154.5643732348
 30
0.0
 11
101.0000000475
 21
154.5643732348
 31
0.0
  0
LINE
  5
2A4E
  8
0
 10
28.901732042399999
 20
157.56437533210001
 30
0.0
 11
25.079228408472829
 21
157.56437533210001
 31
0.0
  0
LINE
  5
2A52
  8
0
 10
86.5
 20
195.24998086417921
 30
0.0
 11
86.5
 21
194.73832021878181
 31
0.0
  0
LINE
  5
2B7B
  8
0
 10
10.94766378400004
 20
142.56170364229999
 30
0.0
 11
20.0
 21
143.0361156365
 31
0.0
  0
LINE
  5
2B7C
  8
0
 10
10.94766378399998
 20
142.56170364229999
 30
0.0
 11
10.94766378400004
 21
94.962373097800011
 31
0.0
  0
ARC
  5
2B7D
  8
0
 10
11.00000000000005
 20
141.56307401199999
 30
0.0
 40
1.0000000000000091
 50
92.999999999999076
 51
180.0
  0
LINE
  5
2B7E
  8
0
 10
10.00000022350002
 20
95.961003286200025
 30
0.0
 11
10.00000022350002
 21
141.563742592555
 31
0.0
  0
LINE
  5
2B7F
  8
0
 10
20.0
 20
143.0361156365
 30
0.0
 11
29.052336216000072
 21
142.56170364229999
 31
0.0
  0
LINE
  5
2B80
  8
0
 10
29.052336216000072
 20
94.962373097800011
 30
0.0
 11
29.052336216000072
 21
142.5617035331413
 31
0.0
  0
LINE
  5
2B81
  8
0
 10
29.99999977650009
 20
99.012038392400015
 30
0.0
 11
10.000000223500081
 21
99.012038392400015
 31
0.0
  0
LINE
  5
2B82
  8
0
 10
29.99999977650009
 20
138.51203927899999
 30
0.0
 11
10.000000223500081
 21
138.51203927899999
 31
0.0
  0
ARC
  5
2B83
  8
0
 10
29.0
 20
141.56307401199999
 30
0.0
 40
1.0000000000000091
 50
0.0
 51
87.000000000000924
  0
LINE
  5
2B84
  8
0
 10
29.99999977650009
 20
141.5637425924435
 30
0.0
 11
29.99999977650009
 21
95.961003286200025
 31
0.0
  0
LINE
  5
2BCF
  8
1
 10
100.0
 20
89.4879611036
 30
0.0
 11
100.0
 21
160.51203889640001
 31
0.0
  0
LINE
  5
2BD3
  8
1
 10
89.908651368442179
 20
111.5120388964
 30
0.0
 11
110.09134863155781
 21
111.5120388964
 31
0.0
  0
LINE
  5
2BDA
  8
1
 10
89.500000000000014
 20
141.6533875279579
 30
0.0
 11
89.500000000000014
 21
128.3706902648421
 31
0.0
  0
LINE
  5
2BDB
  8
1
 10
82.858651368442111
 20
135.01203889640001
 30
0.0
 11
96.141348631557904
 21
135.01203889640001
 31
0.0
  0
LINE
  5
2BDC
  8
1
 10
94.458651368442133
 20
133.51203889640001
 30
0.0
 11
105.5413486315578
 21
133.51203889640001
 31
0.0
  0
LINE
  5
2BDD
  8
1
 10
103.8586513684421
 20
135.01203889640001
 30
0.0
 11
117.1413486315578
 21
135.01203889640001
 31
0.0
  0
LINE
  5
2BDE
  8
1
 10
110.5
 20
141.65338752795779
 30
0.0
 11
110.5
 21
128.37069026484221
 31
0.0
  0
LINE
  5
2BDF
  8
1
 10
20.0
 20
89.4879611036
 30
0.0
 11
20.0
 21
160.51203889640001
 31
0.0
  0
LINE
  5
2BE3
  8
1
 10
31.99999977650009
 20
135.01203889640001
 30
0.0
 11
8.0000002235000238
 21
135.01203889640001
 31
0.0
  0
LINE
  5
2BE5
  8
1
 10
31.99999977650004
 20
111.5120388964
 30
0.0
 11
8.0000002234999652
 21
111.5120388964
 31
0.0
  0
LINE
  5
2BE6
  8
1
 10
180.0
 20
89.4879611036
 30
0.0
 11
180.0
 21
160.51203889640001
 31
0.0
  0
LINE
  5
2BEB
  8
1
 10
100.0
 20
219.73832021878181
 30
0.0
 11
100.0
 21
189.73832021878181
 31
0.0
  0
LINE
  5
2BEC
  8
1
 10
123.0172254665727
 20
204.73832021878181
 30
0.0
 11
76.982774533427289
 21
204.73832021878181
 31
0.0
  0
LINE
  5
2BED
  8
1
 10
100.0
 20
60.0
 30
0.0
 11
100.0
 21
30.0
 31
0.0
  0
LINE
  5
2BEE
  8
1
 10
123.0172254665727
 20
45.0
 30
0.0
 11
76.982774533427289
 21
45.0
 31
0.0
  0
LINE
  5
2BF0
  8
2
 10
170.0
 20
119.0125450263092
 30
0.0
 11
176.0
 21
119.0125450263092
 31
0.0
  0
LINE
  5
2BF1
  8
2
 10
184.0
 20
119.0125450263092
 30
0.0
 11
190.0
 21
119.0125450263092
 31
0.0
  0
LINE
  5
2BF2
  8
2
 10
170.0
 20
104.0115327664908
 30
0.0
 11
176.0
 21
104.0115327664908
 31
0.0
  0
LINE
  5
2BF3
  8
2
 10
184.0
 20
104.0115327664908
 30
0.0
 11
190.0
 21
104.0115327664908
 31
0.0
  0
LINE
  5
2BF4
  8
2
 10
184.0
 20
104.0115327664908
 30
0.0
 11
184.0
 21
119.0125450263092
 31
0.0
  0
LINE
  5
2BF5
  8
2
 10
176.0
 20
104.0115327664908
 30
0.0
 11
176.0
 21
119.0125450263092
 31
0.0
  0
LINE
  5
2BF6
  8
2
 10
184.0
 20
115.5120388964
 30
0.0
 11
176.0
 21
115.5120388964
 31
0.0
  0
LINE
  5
2BF7
  8
2
 10
184.0
 20
107.5120388964
 30
0.0
 11
176.0
 21
107.5120388964
 31
0.0
  0
LINE
  5
2BF8
  8
2
 10
176.0
 20
132.7865895456822
 30
0.0
 11
190.0
 21
132.7865895456822
 31
0.0
  0
LINE
  5
2BF9
  8
2
 10
176.0
 20
137.2374882471178
 30
0.0
 11
190.0
 21
137.2374882471178
 31
0.0
  0
LINE
  5
2BFA
  8
2
 10
170.0
 20
139.01203889640001
 30
0.0
 11
176.0
 21
139.01203889640001
 31
0.0
  0
LINE
  5
2BFB
  8
2
 10
170.0
 20
131.01203889640001
 30
0.0
 11
176.0
 21
131.01203889640001
 31
0.0
  0
LINE
  5
2BFC
  8
2
 10
176.0
 20
139.01203889640001
 30
0.0
 11
176.0
 21
131.01203889640001
 31
0.0
  0
LINE
  5
2BFD
  8
1
 10
168.00000022349991
 20
135.01203889640001
 30
0.0
 11
191.9999997765
 21
135.01203889640001
 31
0.0
  0
LINE
  5
2BFE
  8
1
 10
168.00000022349991
 20
111.5120388964
 30
0.0
 11
191.99999977650009
 21
111.5120388964
 31
0.0
  0
CIRCLE
  5
2CEA
  8
0
 10
100.0
 20
133.51203889640001
 30
0.0
 40
3.0
  0
ARC
  5
31A9
  8
5
 10
69.5
 20
60.224756257085801
 30
0.0
 40
40.025517716642568
 50
352.49945446465421
 51
11.80676796561823
  0
ARC
  5
31AA
  8
5
 10
95.119341139593871
 20
60.220617527434577
 30
0.0
 40
9.9744822833574691
 50
328.4395842799542
 51
12.780071356077039
  0
ARC
  5
31AB
  8
5
 10
119.5
 20
65.750850210830563
 30
0.0
 40
15.025517716642531
 50
170.03703828726651
 51
192.7800713560778
  0
ARC
  5
31AC
  8
5
 10
106.696042595124
 20
67.999999999999815
 30
0.0
 40
2.0255177166425709
 50
11.806767965618979
 51
170.0370382872656
  0
ARC
  5
31DC
  8
5
 10
44.525517716642462
 20
146.01203857867091
 30
0.0
 40
0.5
 50
270.0
 51
2.9999999999959091
  0
LINE
  5
31DD
  8
5
 10
45.024833157658463
 20
146.03820787875031
 30
0.0
 11
44.420771747827409
 21
157.564375271481
 31
0.0
  0
ARC
  5
31DE
  8
5
 10
43.422142081888524
 20
157.512038578671
 30
0.0
 40
1.0
 50
3.0000000000007252
 51
90.0
  0
POLYLINE
  5
31E8
  8
5
 66
     1
 10
0.0
 20
0.0
 30
0.0
 70
   128
  0
VERTEX
  5
376D
  8
5
 10
36.31541550159443
 20
157.564375271481
 30
0.0
  0
VERTEX
  5
376E
  8
5
 10
35.386226586997402
 20
157.19426395503851
 30
0.0
  0
VERTEX
  5
376F
  8
5
 10
34.45116754621256
 20
156.8216976722893
 30
0.0
  0
VERTEX
  5
3770
  8
5
 10
33.525949791073693
 20
156.45293118564459
 30
0.0
  0
VERTEX
  5
3771
  8
5
 10
32.613783590495473
 20
156.0892534455476
 30
0.0
  0
VERTEX
  5
3772
  8
5
 10
31.695446446537861
 20
155.72299780456399
 30
0.0
  0
VERTEX
  5
3773
  8
5
 10
30.80478914082039
 20
155.36767216531609
 30
0.0
  0
VERTEX
  5
3774
  8
5
 10
29.930821135640031
 20
155.0188955864129
 30
0.0
  0
VERTEX
  5
3775
  8
5
 10
29.094370529055482
 20
154.6849903663811
 30
0.0
  0
SEQEND
  5
3776
  8
5
  0
POLYLINE
  5
31EA
  8
5
 66
     1
 10
0.0
 20
0.0
 30
0.0
 70
   128
  0
VERTEX
  5
3777
  8
5
 10
29.009081881424802
 20
155.87931461869141
 30
0.0
  0
VERTEX
  5
3778
  8
5
 10
29.0348133817314
 20
155.88868009058811
 30
0.0
  0
VERTEX
  5
3779
  8
5
 10
29.95411071926344
 20
156.22327821461531
 30
0.0
  0
VERTEX
  5
377A
  8
5
 10
30.91597881168116
 20
156.57336609570359
 30
0.0
  0
VERTEX
  5
377B
  8
5
 10
31.912457644939309
 20
156.93605663387149
 30
0.0
  0
VERTEX
  5
377C
  8
5
 10
32.9353031516074
 20
157.30834351984831
 30
0.0
  0
VERTEX
  5
377D
  8
5
 10
33.976052403449899
 20
157.68714221326681
 30
0.0
  0
VERTEX
  5
377E
  8
5
 10
35.026093460619343
 20
158.06932719556659
 30
0.0
  0
VERTEX
  5
377F
  8
5
 10
36.076739877462281
 20
158.451731969994
 30
0.0
  0
SEQEND
  5
3780
  8
5
  0
LINE
  5
31EC
  8
5
 10
29.094370529055482
 20
154.6849903663811
 30
0.0
 11
29.072062257238041
 21
154.67757745919411
 31
0.0
  0
LINE
  5
31EE
  8
5
 10
37.427217215299493
 20
146.03820787875031
 30
0.0
 11
37.560841515660172
 21
157.564375271481
 31
0.0
  0
ARC
  5
31F0
  8
5
 10
38.112944661779117
 20
145.90747881968699
 30
0.0
 40
0.6980775155661854
 50
169.20648588032381
 51
214.50427606020131
  0
ARC
  5
31F6
  8
5
 10
42.513716637910527
 20
145.90538813328919
 30
0.0
 40
0.8470799367988764
 50
332.33136793437887
 51
9.0210417088364867
  0
LINE
  5
31F9
  8
5
 10
43.350318893790117
 20
146.03820787875031
 30
0.0
 11
43.245809599757067
 21
157.564375271481
 31
0.0
  0
ARC
  5
31FC
  8
5
 10
41.769411737824612
 20
157.7847855971622
 30
0.0
 40
1.492759645216087
 50
351.50906555270461
 51
29.1557826863203
  0
ARC
  5
31FD
  8
5
 10
38.781340731705093
 20
157.77944726230291
 30
0.0
 40
1.2393039569057669
 50
143.7627648544271
 51
189.99385570523719
  0
LINE
  5
31FE
  8
5
 10
36.416965179903592
 20
158.5120369693455
 30
0.0
 11
43.42214249074447
 21
158.5120369693455
 31
0.0
  0
ARC
  5
3201
  8
5
 10
36.418759239072187
 20
157.512038578671
 30
0.0
 40
1.0000000000000331
 50
90.0
 51
110.0
  0
LINE
  5
322B
  8
5
 10
44.526877032859723
 20
145.5120404264149
 30
0.0
 11
29.026754653382209
 21
145.5120404264149
 31
0.0
  0
LINE
  5
322D
  8
5
 10
29.524832431369411
 20
146.03820787875031
 30
0.0
 11
45.024833157658463
 21
146.03820787875031
 31
0.0
  0
LINE
  5
3232
  8
5
 10
44.420771747827409
 20
157.564375271481
 30
0.0
 11
36.31541550159443
 21
157.564375271481
 31
0.0
  0
ARC
  5
32CF
  8
5
 10
109.02551771659989
 20
146.01203889640001
 30
0.0
 40
0.5
 50
270.0
 51
2.9999999999999019
  0
LINE
  5
32D0
  8
5
 10
109.5248324839999
 20
146.03820687449999
 30
0.0
 11
108.9435418941999
 21
157.12989207339999
 31
0.0
  0
ARC
  5
32D1
  8
5
 10
104.97448228329991
 20
146.01203889640001
 30
0.0
 40
0.5
 50
177.0
 51
270.0
  0
LINE
  5
32D2
  8
5
 10
105.07922838330001
 20
157.56437485270001
 30
0.0
 11
104.4751675158999
 21
146.03820687449999
 31
0.0
  0
ARC
  5
32D3
  8
5
 10
106.07785791809999
 20
157.51203889640001
 30
0.0
 40
1.0
 50
90.0
 51
177.0
  0
ARC
  5
32D4
  8
5
 10
101.7898060437999
 20
160.2253775451
 30
0.0
 40
5.158050431804992
 50
294.51192996630141
 51
308.59428925930149
  0
POLYLINE
  5
32D5
  8
5
 66
     1
 10
0.0
 20
0.0
 30
0.0
 70
   128
  0
VERTEX
  5
3781
  8
5
 10
103.9292120522
 20
155.53226852649999
 30
0.0
  0
VERTEX
  5
3782
  8
5
 10
103.9199941646
 20
155.52784225049999
 30
0.0
  0
VERTEX
  5
3783
  8
5
 10
103.9037272142
 20
155.5242099033
 30
0.0
  0
SEQEND
  5
3784
  8
5
  0
ARC
  5
32D6
  8
5
 10
103.7920463540359
 20
156.14757677817281
 30
0.0
 40
0.635626641749783
 50
269.04247476448552
 51
279.71982199156662
  0
ARC
  5
32DA
  8
5
 10
108.18356229920001
 20
146.00743618940001
 30
0.0
 40
0.4954303486423485
 50
270.6618687189993
 51
3.5608756302999738
  0
ARC
  5
32DB
  8
5
 10
105.1975965171999
 20
146.0087480883
 30
0.0
 40
0.4967258378280932
 50
176.60002563909981
 51
269.53093352049962
  0
LINE
  5
32DC
  8
5
 10
108.67803615619999
 20
146.03820687449999
 30
0.0
 11
108.08675526799991
 21
157.56437485270001
 31
0.0
  0
LINE
  5
32DD
  8
5
 10
104.70174498909989
 20
146.03820687449999
 30
0.0
 11
105.2966964979999
 21
157.56437485270001
 31
0.0
  0
ARC
  5
32DE
  8
5
 10
107.0993093185
 20
157.52381012039999
 30
0.0
 40
0.9882788071947546
 50
2.3524141678997261
 51
89.423472449701308
  0
ARC
  5
32DF
  8
5
 10
106.2873324584999
 20
157.52045499560001
 30
0.0
 40
0.9916090762371222
 50
90.408278862099365
 51
177.46145331640039
  0
POLYLINE
  5
32E0
  8
5
 66
     1
 10
0.0
 20
0.0
 30
0.0
 70
   128
  0
VERTEX
  5
3785
  8
5
 10
108.9435471489131
 20
157.1297918075
 30
0.0
  0
VERTEX
  5
3786
  8
5
 10
108.93288167590001
 20
157.28624545689999
 30
0.0
  0
VERTEX
  5
3787
  8
5
 10
108.9017324607
 20
157.56437485270001
 30
0.0
  0
SEQEND
  5
3788
  8
5
  0
ARC
  5
32E1
  8
5
 10
107.9033606006999
 20
157.51231042059999
 30
0.0
 40
0.9997285010847551
 50
2.9852327942997161
 51
89.987125809300437
  0
LINE
  5
32E2
  8
5
 10
106.07785791809999
 20
158.51203889640001
 30
0.0
 11
107.9035854468268
 21
158.51203889640001
 31
0.0
  0
LINE
  5
32E3
  8
5
 10
103.5584810937999
 20
154.68498961110001
 30
0.0
 11
103.41191394649989
 21
154.6213627402
 31
0.0
  0
LINE
  5
32E4
  8
5
 10
103.0541007664
 20
146.03820687449999
 30
0.0
 11
103.41191394649989
 21
154.6213627402
 31
0.0
  0
ARC
  5
32E5
  8
5
 10
103.51305897109999
 20
145.971662931
 30
0.0
 40
0.4637571886801002
 50
171.7502236357999
 51
262.34480638050019
  0
ARC
  5
32EA
  8
5
 10
100.9492822948999
 20
159.79278268670001
 30
0.0
 40
5.7356314801354937
 50
297.05917370910038
 51
314.6801232869982
  0
ARC
  5
32EB
  8
5
 10
104.2010088996999
 20
154.77523599220001
 30
0.0
 40
0.8039576001314781
 50
111.75485729619879
 51
191.03419054829911
  0
LINE
  5
32EC
  8
5
 10
103.0541007664
 20
146.03820687449999
 30
0.0
 11
109.5248324839783
 21
146.03820687449999
 31
0.0
  0
LINE
  5
32EE
  8
5
 10
108.9017320424
 20
157.56437533210001
 30
0.0
 11
105.0792284084728
 21
157.56437533210001
 31
0.0
  0
LINE
  5
32F0
  8
5
 10
109.0262101447754
 20
145.512039375857
 30
0.0
 11
108.00000002512741
 21
145.512039375857
 31
0.0
  0
ARC
  5
3335
  8
5
 10
110.650704202
 20
201.98832021878181
 30
0.0
 40
2.974482283357446
 50
165.52248781410049
 51
196.86457823439821
  0
ARC
  5
3336
  8
5
 10
69.500000000000014
 20
189.5135639616818
 30
0.0
 40
40.025517716642561
 50
348.19323203440013
 51
16.864578234398181
  0
ARC
  5
3338
  8
5
 10
100.6875
 20
193.75982561568179
 30
0.0
 40
2.974482283357446
 50
37.302100369998463
 51
83.969359309000723
  0
ARC
  5
3339
  8
5
 10
95.119341139600039
 20
189.5177026913818
 30
0.0
 40
9.9744822833574354
 50
347.21992864389767
 51
37.302100369998463
  0
ARC
  5
333A
  8
5
 10
119.5
 20
183.98747000798181
 30
0.0
 40
15.025517716642581
 50
167.2199286439016
 51
189.9629617126991
  0
ARC
  5
333B
  8
5
 10
106.6960425951135
 20
181.73832021878951
 30
0.0
 40
2.0255177166572209
 50
189.962961712848
 51
348.19323203418998
  0
ARC
  5
333C
  8
5
 10
119.5
 20
183.98747000798181
 30
0.0
 40
13.422142081888641
 50
167.2199286439016
 51
189.9629617126991
  0
ARC
  5
333D
  8
5
 10
95.119341139600039
 20
189.5177026913818
 30
0.0
 40
11.57785791811137
 50
347.21992864389767
 51
354.0600768052991
  0
ARC
  5
333E
  8
5
 10
69.500000000000014
 20
189.5135639616818
 30
0.0
 40
38.42214208188863
 50
348.19323203440013
 51
358.21919488049969
  0
ARC
  5
333F
  8
5
 10
106.6960425951
 20
181.73832021878181
 30
0.0
 40
0.4221420818886323
 50
189.9629617126991
 51
348.19323203440013
  0
LINE
  5
3340
  8
5
 10
106.63503696790001
 20
188.66158112308179
 30
0.0
 11
106.63503696790001
 21
188.3195609796818
 31
0.0
  0
LINE
  5
3341
  8
5
 10
107.9035852368
 20
188.3195609796818
 30
0.0
 11
107.9035852368
 21
188.66158112308179
 31
0.0
  0
POLYLINE
  5
3342
  8
5
 10
107.90358523743639
 20
188.66158112301585
 30
0.0
 66
     1
 70
     8
  0
VERTEX
  8
5
  5
3D1F
 10
107.904
 20
188.662
 30
0.000000
  70
    32
  0
VERTEX
  8
5
  5
3D20
 10
107.907
 20
188.724
 30
0.000000
  70
    32
  0
VERTEX
  8
5
  5
3D21
 10
107.910
 20
188.785
 30
0.000000
  70
    32
  0
VERTEX
  8
5
  5
3D22
 10
107.912
 20
188.847
 30
0.000000
  70
    32
  0
VERTEX
  8
5
  5
3D23
 10
107.915
 20
188.909
 30
0.000000
  70
    32
  0
VERTEX
  8
5
  5
3D24
 10
107.918
 20
188.971
 30
0.000000
  70
    32
  0
VERTEX
  8
5
  5
3D25
 10
107.920
 20
189.033
 30
0.000000
  70
    32
  0
VERTEX
  8
5
  5
3D26
 10
107.923
 20
189.095
 30
0.000000
  70
    32
  0
VERTEX
  8
5
  5
3D27
 10
107.925
 20
189.157
 30
0.000000
  70
    32
  0
VERTEX
  8
5
  5
3D28
 10
107.928
 20
189.219
 30
0.000000
  70
    32
  0
VERTEX
  8
5
  5
3D29
 10
107.930
 20
189.281
 30
0.000000
  70
    32
  0
VERTEX
  8
5
  5
3D2A
 10
107.932
 20
189.343
 30
0.000000
  70
    32
  0
VERTEX
  8
5
  5
3D2B
 10
107.934
 20
189.405
 30
0.000000
  70
    32
  0
VERTEX
  8
5
  5
3D2C
 10
107.936
 20
189.467
 30
0.000000
  70
    32
  0
VERTEX
  8
5
  5
3D2D
 10
107.937
 20
189.529
 30
0.000000
  70
    32
  0
VERTEX
  8
5
  5
3D2E
 10
107.939
 20
189.591
 30
0.000000
  70
    32
  0
VERTEX
  8
5
  5
3D2F
 10
107.941
 20
189.653
 30
0.000000
  70
    32
  0
VERTEX
  8
5
  5
3D30
 10
107.942
 20
189.715
 30
0.000000
  70
    32
  0
VERTEX
  8
5
  5
3D31
 10
107.943
 20
189.777
 30
0.000000
  70
    32
  0
VERTEX
  8
5
  5
3D32
 10
107.945
 20
189.839
 30
0.000000
  70
    32
  0
VERTEX
  8
5
  5
3D33
 10
107.946
 20
189.901
 30
0.000000
  70
    32
  0
VERTEX
  8
5
  5
3D34
 10
107.947
 20
189.963
 30
0.000000
  70
    32
  0
VERTEX
  8
5
  5
3D35
 10
107.948
 20
190.025
 30
0.000000
  70
    32
  0
VERTEX
  8
5
  5
3D36
 10
107.949
 20
190.087
 30
0.000000
  70
    32
  0
VERTEX
  8
5
  5
3D37
 10
107.949
 20
190.149
 30
0.000000
  70
    32
  0
VERTEX
  8
5
  5
3D38
 10
107.950
 20
190.211
 30
0.000000
  70
    32
  0
VERTEX
  8
5
  5
3D39
 10
107.951
 20
190.273
 30
0.000000
  70
    32
  0
VERTEX
  8
5
  5
3D3A
 10
107.951
 20
190.335
 30
0.000000
  70
    32
  0
VERTEX
  8
5
  5
3D3B
 10
107.951
 20
190.397
 30
0.000000
  70
    32
  0
VERTEX
  8
5
  5
3D3C
 10
107.952
 20
190.459
 30
0.000000
  70
    32
  0
VERTEX
  8
5
  5
3D3D
 10
107.952
 20
190.521
 30
0.000000
  70
    32
  0
VERTEX
  8
5
  5
3D3E
 10
107.952
 20
190.583
 30
0.000000
  70
    32
  0
VERTEX
  8
5
  5
3D3F
 10
107.952
 20
190.645
 30
0.000000
  70
    32
  0
VERTEX
  8
5
  5
3D40
 10
107.952
 20
190.707
 30
0.000000
  70
    32
  0
VERTEX
  8
5
  5
3D41
 10
107.951
 20
190.769
 30
0.000000
  70
    32
  0
VERTEX
  8
5
  5
3D42
 10
107.951
 20
190.831
 30
0.000000
  70
    32
  0
VERTEX
  8
5
  5
3D43
 10
107.951
 20
190.893
 30
0.000000
  70
    32
  0
VERTEX
  8
5
  5
3D44
 10
107.950
 20
190.955
 30
0.000000
  70
    32
  0
VERTEX
  8
5
  5
3D45
 10
107.950
 20
191.017
 30
0.000000
  70
    32
  0
VERTEX
  8
5
  5
3D46
 10
107.949
 20
191.079
 30
0.000000
  70
    32
  0
VERTEX
  8
5
  5
3D47
 10
107.948
 20
191.141
 30
0.000000
  70
    32
  0
VERTEX
  8
5
  5
3D48
 10
107.947
 20
191.203
 30
0.000000
  70
    32
  0
VERTEX
  8
5
  5
3D49
 10
107.946
 20
191.265
 30
0.000000
  70
    32
  0
VERTEX
  8
5
  5
3D4A
 10
107.945
 20
191.327
 30
0.000000
  70
    32
  0
VERTEX
  8
5
  5
3D4B
 10
107.944
 20
191.389
 30
0.000000
  70
    32
  0
VERTEX
  8
5
  5
3D4C
 10
107.942
 20
191.451
 30
0.000000
  70
    32
  0
VERTEX
  8
5
  5
3D4D
 10
107.941
 20
191.513
 30
0.000000
  70
    32
  0
VERTEX
  8
5
  5
3D4E
 10
107.939
 20
191.575
 30
0.000000
  70
    32
  0
VERTEX
  8
5
  5
3D4F
 10
107.938
 20
191.637
 30
0.000000
  70
    32
  0
VERTEX
  8
5
  5
3D50
 10
107.936
 20
191.699
 30
0.000000
  70
    32
  0
VERTEX
  8
5
  5
3D51
 10
107.934
 20
191.761
 30
0.000000
  70
    32
  0
VERTEX
  8
5
  5
3D52
 10
107.932
 20
191.823
 30
0.000000
  70
    32
  0
VERTEX
  8
5
  5
3D53
 10
107.930
 20
191.885
 30
0.000000
  70
    32
  0
VERTEX
  8
5
  5
3D54
 10
107.928
 20
191.947
 30
0.000000
  70
    32
  0
VERTEX
  8
5
  5
3D55
 10
107.926
 20
192.009
 30
0.000000
  70
    32
  0
VERTEX
  8
5
  5
3D56
 10
107.923
 20
192.071
 30
0.000000
  70
    32
  0
VERTEX
  8
5
  5
3D57
 10
107.921
 20
192.132
 30
0.000000
  70
    32
  0
VERTEX
  8
5
  5
3D58
 10
107.918
 20
192.194
 30
0.000000
  70
    32
  0
VERTEX
  8
5
  5
3D59
 10
107.916
 20
192.256
 30
0.000000
  70
    32
  0
VERTEX
  8
5
  5
3D5A
 10
107.913
 20
192.318
 30
0.000000
  70
    32
  0
VERTEX
  8
5
  5
3D5B
 10
107.910
 20
192.380
 30
0.000000
  70
    32
  0
VERTEX
  8
5
  5
3D5C
 10
107.907
 20
192.442
 30
0.000000
  70
    32
  0
VERTEX
  8
5
  5
3D5D
 10
107.904
 20
192.504
 30
0.000000
  70
    32
  0
VERTEX
  8
5
  5
3D5E
 10
107.901
 20
192.566
 30
0.000000
  70
    32
  0
VERTEX
  8
5
  5
3D5F
 10
107.898
 20
192.628
 30
0.000000
  70
    32
  0
VERTEX
  8
5
  5
3D60
 10
107.895
 20
192.690
 30
0.000000
  70
    32
  0
VERTEX
  8
5
  5
3D61
 10
107.891
 20
192.752
 30
0.000000
  70
    32
  0
VERTEX
  8
5
  5
3D62
 10
107.888
 20
192.814
 30
0.000000
  70
    32
  0
VERTEX
  8
5
  5
3D63
 10
107.884
 20
192.876
 30
0.000000
  70
    32
  0
VERTEX
  8
5
  5
3D64
 10
107.880
 20
192.937
 30
0.000000
  70
    32
  0
VERTEX
  8
5
  5
3D65
 10
107.876
 20
192.999
 30
0.000000
  70
    32
  0
VERTEX
  8
5
  5
3D66
 10
107.872
 20
193.061
 30
0.000000
  70
    32
  0
VERTEX
  8
5
  5
3D67
 10
107.868
 20
193.123
 30
0.000000
  70
    32
  0
VERTEX
  8
5
  5
3D68
 10
107.864
 20
193.185
 30
0.000000
  70
    32
  0
VERTEX
  8
5
  5
3D69
 10
107.860
 20
193.247
 30
0.000000
  70
    32
  0
VERTEX
  8
5
  5
3D6A
 10
107.856
 20
193.309
 30
0.000000
  70
    32
  0
VERTEX
  8
5
  5
3D6B
 10
107.851
 20
193.370
 30
0.000000
  70
    32
  0
VERTEX
  8
5
  5
3D6C
 10
107.847
 20
193.432
 30
0.000000
  70
    32
  0
VERTEX
  8
5
  5
3D6D
 10
107.842
 20
193.494
 30
0.000000
  70
    32
  0
VERTEX
  8
5
  5
3D6E
 10
107.837
 20
193.556
 30
0.000000
  70
    32
  0
VERTEX
  8
5
  5
3D6F
 10
107.832
 20
193.618
 30
0.000000
  70
    32
  0
VERTEX
  8
5
  5
3D70
 10
107.828
 20
193.680
 30
0.000000
  70
    32
  0
VERTEX
  8
5
  5
3D71
 10
107.823
 20
193.741
 30
0.000000
  70
    32
  0
VERTEX
  8
5
  5
3D72
 10
107.817
 20
193.803
 30
0.000000
  70
    32
  0
VERTEX
  8
5
  5
3D73
 10
107.812
 20
193.865
 30
0.000000
  70
    32
  0
VERTEX
  8
5
  5
3D74
 10
107.807
 20
193.927
 30
0.000000
  70
    32
  0
VERTEX
  8
5
  5
3D75
 10
107.801
 20
193.989
 30
0.000000
  70
    32
  0
VERTEX
  8
5
  5
3D76
 10
107.796
 20
194.050
 30
0.000000
  70
    32
  0
VERTEX
  8
5
  5
3D77
 10
107.790
 20
194.112
 30
0.000000
  70
    32
  0
VERTEX
  8
5
  5
3D78
 10
107.785
 20
194.174
 30
0.000000
  70
    32
  0
VERTEX
  8
5
  5
3D79
 10
107.779
 20
194.235
 30
0.000000
  70
    32
  0
VERTEX
  8
5
  5
3D7A
 10
107.773
 20
194.297
 30
0.000000
  70
    32
  0
VERTEX
  8
5
  5
3D7B
 10
107.767
 20
194.359
 30
0.000000
  70
    32
  0
VERTEX
  8
5
  5
3D7C
 10
107.761
 20
194.421
 30
0.000000
  70
    32
  0
VERTEX
  8
5
  5
3D7D
 10
107.754
 20
194.482
 30
0.000000
  70
    32
  0
VERTEX
  8
5
  5
3D7E
 10
107.748
 20
194.544
 30
0.000000
  70
    32
  0
VERTEX
  8
5
  5
3D7F
 10
107.742
 20
194.606
 30
0.000000
  70
    32
  0
VERTEX
  8
5
  5
3D80
 10
107.735
 20
194.667
 30
0.000000
  70
    32
  0
VERTEX
  8
5
  5
3D81
 10
107.729
 20
194.729
 30
0.000000
  70
    32
  0
VERTEX
  8
5
  5
3D82
 10
107.722
 20
194.791
 30
0.000000
  70
    32
  0
VERTEX
  8
5
  5
3D83
 10
107.715
 20
194.852
 30
0.000000
  70
    32
  0
VERTEX
  8
5
  5
3D84
 10
107.708
 20
194.914
 30
0.000000
  70
    32
  0
VERTEX
  8
5
  5
3D85
 10
107.701
 20
194.975
 30
0.000000
  70
    32
  0
VERTEX
  8
5
  5
3D86
 10
107.694
 20
195.037
 30
0.000000
  70
    32
  0
VERTEX
  8
5
  5
3D87
 10
107.687
 20
195.099
 30
0.000000
  70
    32
  0
VERTEX
  8
5
  5
3D88
 10
107.679
 20
195.160
 30
0.000000
  70
    32
  0
VERTEX
  8
5
  5
3D89
 10
107.672
 20
195.222
 30
0.000000
  70
    32
  0
VERTEX
  8
5
  5
3D8A
 10
107.664
 20
195.283
 30
0.000000
  70
    32
  0
VERTEX
  8
5
  5
3D8B
 10
107.657
 20
195.345
 30
0.000000
  70
    32
  0
VERTEX
  8
5
  5
3D8C
 10
107.649
 20
195.406
 30
0.000000
  70
    32
  0
VERTEX
  8
5
  5
3D8D
 10
107.641
 20
195.468
 30
0.000000
  70
    32
  0
VERTEX
  8
5
  5
3D8E
 10
107.633
 20
195.529
 30
0.000000
  70
    32
  0
VERTEX
  8
5
  5
3D8F
 10
107.625
 20
195.591
 30
0.000000
  70
    32
  0
VERTEX
  8
5
  5
3D90
 10
107.617
 20
195.652
 30
0.000000
  70
    32
  0
VERTEX
  8
5
  5
3D91
 10
107.609
 20
195.714
 30
0.000000
  70
    32
  0
VERTEX
  8
5
  5
3D92
 10
107.601
 20
195.775
 30
0.000000
  70
    32
  0
VERTEX
  8
5
  5
3D93
 10
107.592
 20
195.837
 30
0.000000
  70
    32
  0
VERTEX
  8
5
  5
3D94
 10
107.584
 20
195.898
 30
0.000000
  70
    32
  0
VERTEX
  8
5
  5
3D95
 10
107.575
 20
195.959
 30
0.000000
  70
    32
  0
VERTEX
  8
5
  5
3D96
 10
107.566
 20
196.021
 30
0.000000
  70
    32
  0
VERTEX
  8
5
  5
3D97
 10
107.558
 20
196.082
 30
0.000000
  70
    32
  0
VERTEX
  8
5
  5
3D98
 10
107.549
 20
196.144
 30
0.000000
  70
    32
  0
VERTEX
  8
5
  5
3D99
 10
107.540
 20
196.205
 30
0.000000
  70
    32
  0
VERTEX
  8
5
  5
3D9A
 10
107.531
 20
196.266
 30
0.000000
  70
    32
  0
VERTEX
  8
5
  5
3D9B
 10
107.521
 20
196.328
 30
0.000000
  70
    32
  0
VERTEX
  8
5
  5
3D9C
 10
107.512
 20
196.389
 30
0.000000
  70
    32
  0
VERTEX
  8
5
  5
3D9D
 10
107.503
 20
196.450
 30
0.000000
  70
    32
  0
VERTEX
  8
5
  5
3D9E
 10
107.493
 20
196.511
 30
0.000000
  70
    32
  0
VERTEX
  8
5
  5
3D9F
 10
107.484
 20
196.573
 30
0.000000
  70
    32
  0
SEQEND
  8
5
  5
3DA0
  0
POLYLINE
  5
3343
  8
5
 10
106.63503696813044
 20
188.66158112299709
 30
0.0
 66
     1
 70
     8
  0
VERTEX
  8
5
  5
3DA1
 10
106.635
 20
188.662
 30
0.000000
  70
    32
  0
VERTEX
  8
5
  5
3DA2
 10
106.640
 20
188.727
 30
0.000000
  70
    32
  0
VERTEX
  8
5
  5
3DA3
 10
106.645
 20
188.793
 30
0.000000
  70
    32
  0
VERTEX
  8
5
  5
3DA4
 10
106.650
 20
188.858
 30
0.000000
  70
    32
  0
VERTEX
  8
5
  5
3DA5
 10
106.654
 20
188.924
 30
0.000000
  70
    32
  0
VERTEX
  8
5
  5
3DA6
 10
106.658
 20
188.989
 30
0.000000
  70
    32
  0
VERTEX
  8
5
  5
3DA7
 10
106.662
 20
189.055
 30
0.000000
  70
    32
  0
VERTEX
  8
5
  5
3DA8
 10
106.665
 20
189.121
 30
0.000000
  70
    32
  0
VERTEX
  8
5
  5
3DA9
 10
106.668
 20
189.186
 30
0.000000
  70
    32
  0
VERTEX
  8
5
  5
3DAA
 10
106.670
 20
189.252
 30
0.000000
  70
    32
  0
VERTEX
  8
5
  5
3DAB
 10
106.672
 20
189.318
 30
0.000000
  70
    32
  0
VERTEX
  8
5
  5
3DAC
 10
106.674
 20
189.384
 30
0.000000
  70
    32
  0
VERTEX
  8
5
  5
3DAD
 10
106.675
 20
189.449
 30
0.000000
  70
    32
  0
VERTEX
  8
5
  5
3DAE
 10
106.676
 20
189.515
 30
0.000000
  70
    32
  0
VERTEX
  8
5
  5
3DAF
 10
106.676
 20
189.581
 30
0.000000
  70
    32
  0
VERTEX
  8
5
  5
3DB0
 10
106.676
 20
189.646
 30
0.000000
  70
    32
  0
VERTEX
  8
5
  5
3DB1
 10
106.676
 20
189.712
 30
0.000000
  70
    32
  0
VERTEX
  8
5
  5
3DB2
 10
106.676
 20
189.778
 30
0.000000
  70
    32
  0
VERTEX
  8
5
  5
3DB3
 10
106.675
 20
189.844
 30
0.000000
  70
    32
  0
VERTEX
  8
5
  5
3DB4
 10
106.673
 20
189.909
 30
0.000000
  70
    32
  0
VERTEX
  8
5
  5
3DB5
 10
106.672
 20
189.975
 30
0.000000
  70
    32
  0
VERTEX
  8
5
  5
3DB6
 10
106.669
 20
190.041
 30
0.000000
  70
    32
  0
VERTEX
  8
5
  5
3DB7
 10
106.667
 20
190.107
 30
0.000000
  70
    32
  0
VERTEX
  8
5
  5
3DB8
 10
106.664
 20
190.172
 30
0.000000
  70
    32
  0
VERTEX
  8
5
  5
3DB9
 10
106.661
 20
190.238
 30
0.000000
  70
    32
  0
VERTEX
  8
5
  5
3DBA
 10
106.657
 20
190.304
 30
0.000000
  70
    32
  0
VERTEX
  8
5
  5
3DBB
 10
106.653
 20
190.369
 30
0.000000
  70
    32
  0
VERTEX
  8
5
  5
3DBC
 10
106.649
 20
190.435
 30
0.000000
  70
    32
  0
VERTEX
  8
5
  5
3DBD
 10
106.644
 20
190.500
 30
0.000000
  70
    32
  0
VERTEX
  8
5
  5
3DBE
 10
106.639
 20
190.566
 30
0.000000
  70
    32
  0
VERTEX
  8
5
  5
3DBF
 10
106.634
 20
190.631
 30
0.000000
  70
    32
  0
VERTEX
  8
5
  5
3DC0
 10
106.628
 20
190.697
 30
0.000000
  70
    32
  0
VERTEX
  8
5
  5
3DC1
 10
106.622
 20
190.762
 30
0.000000
  70
    32
  0
VERTEX
  8
5
  5
3DC2
 10
106.615
 20
190.828
 30
0.000000
  70
    32
  0
VERTEX
  8
5
  5
3DC3
 10
106.608
 20
190.893
 30
0.000000
  70
    32
  0
VERTEX
  8
5
  5
3DC4
 10
106.601
 20
190.958
 30
0.000000
  70
    32
  0
VERTEX
  8
5
  5
3DC5
 10
106.593
 20
191.024
 30
0.000000
  70
    32
  0
VERTEX
  8
5
  5
3DC6
 10
106.585
 20
191.089
 30
0.000000
  70
    32
  0
VERTEX
  8
5
  5
3DC7
 10
106.577
 20
191.154
 30
0.000000
  70
    32
  0
VERTEX
  8
5
  5
3DC8
 10
106.568
 20
191.219
 30
0.000000
  70
    32
  0
VERTEX
  8
5
  5
3DC9
 10
106.559
 20
191.284
 30
0.000000
  70
    32
  0
VERTEX
  8
5
  5
3DCA
 10
106.549
 20
191.349
 30
0.000000
  70
    32
  0
VERTEX
  8
5
  5
3DCB
 10
106.539
 20
191.414
 30
0.000000
  70
    32
  0
VERTEX
  8
5
  5
3DCC
 10
106.529
 20
191.479
 30
0.000000
  70
    32
  0
VERTEX
  8
5
  5
3DCD
 10
106.518
 20
191.544
 30
0.000000
  70
    32
  0
VERTEX
  8
5
  5
3DCE
 10
106.507
 20
191.609
 30
0.000000
  70
    32
  0
VERTEX
  8
5
  5
3DCF
 10
106.496
 20
191.674
 30
0.000000
  70
    32
  0
VERTEX
  8
5
  5
3DD0
 10
106.484
 20
191.738
 30
0.000000
  70
    32
  0
VERTEX
  8
5
  5
3DD1
 10
106.472
 20
191.803
 30
0.000000
  70
    32
  0
VERTEX
  8
5
  5
3DD2
 10
106.460
 20
191.868
 30
0.000000
  70
    32
  0
VERTEX
  8
5
  5
3DD3
 10
106.447
 20
191.932
 30
0.000000
  70
    32
  0
VERTEX
  8
5
  5
3DD4
 10
106.434
 20
191.996
 30
0.000000
  70
    32
  0
VERTEX
  8
5
  5
3DD5
 10
106.420
 20
192.061
 30
0.000000
  70
    32
  0
VERTEX
  8
5
  5
3DD6
 10
106.406
 20
192.125
 30
0.000000
  70
    32
  0
VERTEX
  8
5
  5
3DD7
 10
106.392
 20
192.189
 30
0.000000
  70
    32
  0
VERTEX
  8
5
  5
3DD8
 10
106.377
 20
192.253
 30
0.000000
  70
    32
  0
VERTEX
  8
5
  5
3DD9
 10
106.362
 20
192.317
 30
0.000000
  70
    32
  0
VERTEX
  8
5
  5
3DDA
 10
106.347
 20
192.381
 30
0.000000
  70
    32
  0
VERTEX
  8
5
  5
3DDB
 10
106.331
 20
192.445
 30
0.000000
  70
    32
  0
VERTEX
  8
5
  5
3DDC
 10
106.315
 20
192.509
 30
0.000000
  70
    32
  0
VERTEX
  8
5
  5
3DDD
 10
106.298
 20
192.572
 30
0.000000
  70
    32
  0
VERTEX
  8
5
  5
3DDE
 10
106.281
 20
192.636
 30
0.000000
  70
    32
  0
VERTEX
  8
5
  5
3DDF
 10
106.264
 20
192.699
 30
0.000000
  70
    32
  0
VERTEX
  8
5
  5
3DE0
 10
106.247
 20
192.763
 30
0.000000
  70
    32
  0
VERTEX
  8
5
  5
3DE1
 10
106.229
 20
192.826
 30
0.000000
  70
    32
  0
VERTEX
  8
5
  5
3DE2
 10
106.210
 20
192.889
 30
0.000000
  70
    32
  0
VERTEX
  8
5
  5
3DE3
 10
106.192
 20
192.952
 30
0.000000
  70
    32
  0
VERTEX
  8
5
  5
3DE4
 10
106.173
 20
193.015
 30
0.000000
  70
    32
  0
VERTEX
  8
5
  5
3DE5
 10
106.153
 20
193.078
 30
0.000000
  70
    32
  0
VERTEX
  8
5
  5
3DE6
 10
106.134
 20
193.140
 30
0.000000
  70
    32
  0
VERTEX
  8
5
  5
3DE7
 10
106.113
 20
193.203
 30
0.000000
  70
    32
  0
VERTEX
  8
5
  5
3DE8
 10
106.093
 20
193.266
 30
0.000000
  70
    32
  0
VERTEX
  8
5
  5
3DE9
 10
106.072
 20
193.328
 30
0.000000
  70
    32
  0
VERTEX
  8
5
  5
3DEA
 10
106.051
 20
193.390
 30
0.000000
  70
    32
  0
VERTEX
  8
5
  5
3DEB
 10
106.030
 20
193.452
 30
0.000000
  70
    32
  0
VERTEX
  8
5
  5
3DEC
 10
106.008
 20
193.514
 30
0.000000
  70
    32
  0
VERTEX
  8
5
  5
3DED
 10
105.985
 20
193.576
 30
0.000000
  70
    32
  0
VERTEX
  8
5
  5
3DEE
 10
105.963
 20
193.638
 30
0.000000
  70
    32
  0
VERTEX
  8
5
  5
3DEF
 10
105.940
 20
193.700
 30
0.000000
  70
    32
  0
VERTEX
  8
5
  5
3DF0
 10
105.917
 20
193.761
 30
0.000000
  70
    32
  0
VERTEX
  8
5
  5
3DF1
 10
105.893
 20
193.822
 30
0.000000
  70
    32
  0
VERTEX
  8
5
  5
3DF2
 10
105.869
 20
193.884
 30
0.000000
  70
    32
  0
VERTEX
  8
5
  5
3DF3
 10
105.845
 20
193.945
 30
0.000000
  70
    32
  0
VERTEX
  8
5
  5
3DF4
 10
105.820
 20
194.006
 30
0.000000
  70
    32
  0
VERTEX
  8
5
  5
3DF5
 10
105.795
 20
194.066
 30
0.000000
  70
    32
  0
VERTEX
  8
5
  5
3DF6
 10
105.770
 20
194.127
 30
0.000000
  70
    32
  0
VERTEX
  8
5
  5
3DF7
 10
105.744
 20
194.188
 30
0.000000
  70
    32
  0
VERTEX
  8
5
  5
3DF8
 10
105.718
 20
194.248
 30
0.000000
  70
    32
  0
VERTEX
  8
5
  5
3DF9
 10
105.692
 20
194.308
 30
0.000000
  70
    32
  0
VERTEX
  8
5
  5
3DFA
 10
105.665
 20
194.368
 30
0.000000
  70
    32
  0
VERTEX
  8
5
  5
3DFB
 10
105.638
 20
194.428
 30
0.000000
  70
    32
  0
VERTEX
  8
5
  5
3DFC
 10
105.611
 20
194.488
 30
0.000000
  70
    32
  0
VERTEX
  8
5
  5
3DFD
 10
105.583
 20
194.547
 30
0.000000
  70
    32
  0
VERTEX
  8
5
  5
3DFE
 10
105.555
 20
194.607
 30
0.000000
  70
    32
  0
VERTEX
  8
5
  5
3DFF
 10
105.526
 20
194.666
 30
0.000000
  70
    32
  0
VERTEX
  8
5
  5
3E00
 10
105.498
 20
194.725
 30
0.000000
  70
    32
  0
VERTEX
  8
5
  5
3E01
 10
105.469
 20
194.784
 30
0.000000
  70
    32
  0
VERTEX
  8
5
  5
3E02
 10
105.439
 20
194.843
 30
0.000000
  70
    32
  0
VERTEX
  8
5
  5
3E03
 10
105.409
 20
194.902
 30
0.000000
  70
    32
  0
VERTEX
  8
5
  5
3E04
 10
105.379
 20
194.960
 30
0.000000
  70
    32
  0
VERTEX
  8
5
  5
3E05
 10
105.349
 20
195.018
 30
0.000000
  70
    32
  0
VERTEX
  8
5
  5
3E06
 10
105.318
 20
195.076
 30
0.000000
  70
    32
  0
VERTEX
  8
5
  5
3E07
 10
105.287
 20
195.134
 30
0.000000
  70
    32
  0
VERTEX
  8
5
  5
3E08
 10
105.256
 20
195.192
 30
0.000000
  70
    32
  0
VERTEX
  8
5
  5
3E09
 10
105.224
 20
195.250
 30
0.000000
  70
    32
  0
VERTEX
  8
5
  5
3E0A
 10
105.192
 20
195.307
 30
0.000000
  70
    32
  0
VERTEX
  8
5
  5
3E0B
 10
105.159
 20
195.364
 30
0.000000
  70
    32
  0
VERTEX
  8
5
  5
3E0C
 10
105.127
 20
195.421
 30
0.000000
  70
    32
  0
VERTEX
  8
5
  5
3E0D
 10
105.094
 20
195.478
 30
0.000000
  70
    32
  0
VERTEX
  8
5
  5
3E0E
 10
105.060
 20
195.535
 30
0.000000
  70
    32
  0
VERTEX
  8
5
  5
3E0F
 10
105.027
 20
195.591
 30
0.000000
  70
    32
  0
VERTEX
  8
5
  5
3E10
 10
104.993
 20
195.647
 30
0.000000
  70
    32
  0
VERTEX
  8
5
  5
3E11
 10
104.958
 20
195.704
 30
0.000000
  70
    32
  0
VERTEX
  8
5
  5
3E12
 10
104.924
 20
195.759
 30
0.000000
  70
    32
  0
VERTEX
  8
5
  5
3E13
 10
104.889
 20
195.815
 30
0.000000
  70
    32
  0
VERTEX
  8
5
  5
3E14
 10
104.853
 20
195.871
 30
0.000000
  70
    32
  0
VERTEX
  8
5
  5
3E15
 10
104.818
 20
195.926
 30
0.000000
  70
    32
  0
VERTEX
  8
5
  5
3E16
 10
104.782
 20
195.981
 30
0.000000
  70
    32
  0
VERTEX
  8
5
  5
3E17
 10
104.746
 20
196.036
 30
0.000000
  70
    32
  0
VERTEX
  8
5
  5
3E18
 10
104.709
 20
196.090
 30
0.000000
  70
    32
  0
VERTEX
  8
5
  5
3E19
 10
104.672
 20
196.145
 30
0.000000
  70
    32
  0
VERTEX
  8
5
  5
3E1A
 10
104.635
 20
196.199
 30
0.000000
  70
    32
  0
VERTEX
  8
5
  5
3E1B
 10
104.598
 20
196.253
 30
0.000000
  70
    32
  0
VERTEX
  8
5
  5
3E1C
 10
104.560
 20
196.307
 30
0.000000
  70
    32
  0
VERTEX
  8
5
  5
3E1D
 10
104.522
 20
196.360
 30
0.000000
  70
    32
  0
VERTEX
  8
5
  5
3E1E
 10
104.484
 20
196.414
 30
0.000000
  70
    32
  0
VERTEX
  8
5
  5
3E1F
 10
104.445
 20
196.467
 30
0.000000
  70
    32
  0
VERTEX
  8
5
  5
3E20
 10
104.406
 20
196.520
 30
0.000000
  70
    32
  0
VERTEX
  8
5
  5
3E21
 10
104.367
 20
196.573
 30
0.000000
  70
    32
  0
SEQEND
  8
5
  5
3E22
  0
LINE
  5
3344
  8
5
 10
107.48369489789999
 20
196.5726270561818
 30
0.0
 11
107.3627970849
 21
196.91464719948181
 31
0.0
  0
LINE
  5
3345
  8
5
 10
104.206275074
 20
196.67763246858181
 30
0.0
 11
104.3666236708
 21
196.5726270561818
 31
0.0
  0
LINE
  5
3346
  8
5
 10
103.784128952
 20
196.91464719948181
 30
0.0
 11
104.206275074
 21
196.67763246858181
 31
0.0
  0
ARC
  5
3349
  8
5
 10
103.0
 20
204.73832021878181
 30
0.0
 40
1.0
 50
90.0
 51
270.0
  0
ARC
  5
334A
  8
5
 10
110.650704202
 20
201.98832021878181
 30
0.0
 40
4.4206345802622611
 50
165.52248781410049
 51
196.86457823439821
  0
ARC
  5
334B
  8
5
 10
69.500000000000014
 20
189.5135639616818
 30
0.0
 40
38.579365419737748
 50
11.060210904399391
 51
16.864578234398181
  0
ARC
  5
334C
  8
5
 10
100.6875
 20
193.75982561568179
 30
0.0
 40
4.4206345802622549
 50
45.533331565200328
 51
85.946311108124661
  0
LINE
  5
334D
  8
5
 10
108.54622465470381
 20
203.73832021878189
 30
0.0
 11
103.0
 21
203.73832021878181
 31
0.0
  0
LINE
  5
334E
  8
5
 10
108.5456312290421
 20
205.73832021878169
 30
0.0
 11
103.0
 21
205.73832021878181
 31
0.0
  0
LINE
  5
3352
  8
5
 10
107.6292715526
 20
203.73832021878181
 30
0.0
 11
107.6292715526
 21
205.73832021878181
 31
0.0
  0
ARC
  5
363A
  8
5
 10
155.47448228339999
 20
146.01203889640001
 30
0.0
 40
0.5
 50
176.99999999999989
 51
270.0
  0
LINE
  5
363B
  8
5
 10
155.57922838339999
 20
157.56437485270001
 30
0.0
 11
154.975167516
 21
146.03820687449999
 31
0.0
  0
ARC
  5
363C
  8
5
 10
156.57785791809999
 20
157.51203889640001
 30
0.0
 40
1.0
 50
90.0
 51
176.99999999999989
  0
LINE
  5
3642
  8
5
 10
163.92326090430001
 20
158.45173151719999
 30
0.0
 11
170.99091802805049
 21
155.87931469812051
 31
0.0
  0
ARC
  5
3643
  8
5
 10
163.58124076089999
 20
157.51203889640001
 30
0.0
 40
1.0
 50
69.999999999999972
 51
90.0
  0
LINE
  5
3644
  8
5
 10
156.57785791809999
 20
158.51203889640001
 30
0.0
 11
163.58124076089999
 21
158.51203889640001
 31
0.0
  0
LINE
  5
364B
  8
5
 10
180.99999988600001
 20
154.91203991559999
 30
0.0
 11
178.99999979099999
 21
154.91203991559999
 31
0.0
  0
LINE
  5
364C
  8
5
 10
163.5502076894
 20
157.56437558920001
 30
0.0
 11
155.57922842194699
 21
157.56437558920001
 31
0.0
  0
LINE
  5
3650
  8
5
 10
154.97516758528309
 20
146.03820819649999
 30
0.0
 11
170.4751675369499
 21
146.03820819649999
 31
0.0
  0
LINE
  5
3656
  8
5
 10
179.0
 20
155.51203889640001
 30
0.0
 11
179.0
 21
145.51204042640001
 31
0.0
  0
LINE
  5
3657
  8
5
 10
180.99999999999989
 20
155.51203889640001
 30
0.0
 11
181.0
 21
145.51204042640001
 31
0.0
  0
LINE
  5
3658
  8
5
 10
155.47448228339999
 20
145.51203889640001
 30
0.0
 11
170.97448214889999
 21
145.51204042640001
 31
0.0
  0
LINE
  5
36A1
  8
5
 10
163.5502076894
 20
157.56437558920001
 30
0.0
 11
170.9417949355979
 21
154.94199017229431
 31
0.0
  0
ENDSEC
  0
EOF
